0
SECTION
2
HEADER
9
$MEASUREMENT
70
1
0
ENDSEC
0
SECTION
2
TABLES
0
TABLE
2
LTYPE
0
LTYPE
72
65
70
64
2
CONTINUOUS
3
______
73
0
40
0
0
ENDTAB
0
TABLE
2
LAYER
0
LAYER
2
DEFAULT_255_2_778
70
0
62
255
6
CONTINUOUS
0
ENDTAB
0
ENDSEC
0
SECTION
2
ENTITIES
0
LINE
8
DEFAULT_255_2_778
10
143.9416657
20
101.3551614
11
143.9416657
21
102.8550614
0
LINE
8
DEFAULT_255_2_778
10
143.9416657
20
102.8550614
11
145.0415657
21
102.8550614
0
LINE
8
DEFAULT_255_2_778
10
145.0415657
20
102.8550614
11
145.0415657
21
101.3551614
0
LINE
8
DEFAULT_255_2_778
10
149.2415657
20
101.3551614
11
149.2415657
21
102.8550614
0
LINE
8
DEFAULT_255_2_778
10
149.2415657
20
102.8550614
11
148.1416657
21
102.8550614
0
LINE
8
DEFAULT_255_2_778
10
148.1416657
20
102.8550614
11
148.1416657
21
101.3551614
0
LINE
8
DEFAULT_255_2_778
10
148.1416657
20
1.3550747
11
148.1416657
21
-0.1448253
0
LINE
8
DEFAULT_255_2_778
10
148.1416657
20
-0.1448253
11
149.2415657
21
-0.1448253
0
LINE
8
DEFAULT_255_2_778
10
149.2415657
20
-0.1448253
11
149.2415657
21
1.3550747
0
LINE
8
DEFAULT_255_2_778
10
145.0415657
20
1.3550747
11
145.0415657
21
-0.1448253
0
LINE
8
DEFAULT_255_2_778
10
145.0415657
20
-0.1448253
11
143.9416657
21
-0.1448253
0
LINE
8
DEFAULT_255_2_778
10
143.9416657
20
-0.1448253
11
143.9416657
21
1.3550747
0
LINE
8
DEFAULT_255_2_778
10
138.0417439
20
96.8551
11
150.0416439
21
96.8551
0
ARC
8
DEFAULT_255_2_778
10
149.7302196
20
20.1652888
40
4.2023365
50
184.6716108
51
226.4364713
0
ARC
8
DEFAULT_255_2_778
10
149.7297526
20
82.5450836
40
4.2018619
50
133.5608938
51
175.3293742
0
LINE
8
DEFAULT_255_2_778
10
150.0416439
20
14.0550309
11
146.8341439
21
17.1202309
0
LINE
8
DEFAULT_255_2_778
10
145.5418439
20
19.8230309
11
145.5418439
21
82.8872309
0
LINE
8
DEFAULT_255_2_778
10
146.8341439
20
85.5899309
11
150.0416439
21
88.6551309
0
LINE
8
DEFAULT_255_2_778
10
138.0417439
20
99.2051309
11
138.9918439
21
99.2051309
0
LINE
8
DEFAULT_255_2_778
10
138.9918439
20
99.2051309
11
138.9918439
21
97.6552309
0
LINE
8
DEFAULT_255_2_778
10
138.9918439
20
97.6552309
11
140.3417439
21
97.6552309
0
LINE
8
DEFAULT_255_2_778
10
140.3417439
20
97.6552309
11
140.3417439
21
101.3551309
0
LINE
8
DEFAULT_255_2_778
10
140.3417439
20
101.3551309
11
150.0416439
21
101.3551309
0
LINE
8
DEFAULT_255_2_778
10
150.0416439
20
101.3551309
11
150.0416439
21
1.3550309
0
LINE
8
DEFAULT_255_2_778
10
150.0416439
20
1.3550309
11
140.3417439
21
1.3550309
0
LINE
8
DEFAULT_255_2_778
10
140.3417439
20
1.3550309
11
140.3417439
21
5.0550309
0
LINE
8
DEFAULT_255_2_778
10
140.3417439
20
5.0550309
11
138.0417439
21
5.0550309
0
LINE
8
DEFAULT_255_2_778
10
137.5919463
20
101.3551732
11
137.5919463
21
48.8552732
0
LINE
8
DEFAULT_255_2_778
10
137.5919463
20
48.8552732
11
107.0918463
21
48.8552732
0
LINE
8
DEFAULT_255_2_778
10
107.0918463
20
48.8552732
11
107.0918463
21
101.3551732
0
LINE
8
DEFAULT_255_2_778
10
108.0917
20
101.3551732
11
108.0917
21
48.8552732
0
ARC
8
DEFAULT_255_2_778
10
136.7977761
20
92.7424818
40
3.7124942
50
125.0620757
51
175.8422168
0
ARC
8
DEFAULT_255_2_778
10
136.8049699
20
92.7421153
40
3.7196956
50
175.8446205
51
176.6624425
0
LINE
8
DEFAULT_255_2_778
10
137.5915834
20
98.1550701
11
134.6650834
21
95.7812701
0
LINE
8
DEFAULT_255_2_778
10
133.0915834
20
92.9586701
11
133.0915834
21
48.8547701
0
LINE
8
DEFAULT_255_2_778
10
6.4916463
20
101.3551732
11
6.4916463
21
48.8552732
0
LINE
8
DEFAULT_255_2_778
10
6.4916463
20
48.8552732
11
36.9917463
21
48.8552732
0
LINE
8
DEFAULT_255_2_778
10
36.9917463
20
48.8552732
11
36.9917463
21
101.3551732
0
LINE
8
DEFAULT_255_2_778
10
35.9917
20
48.8552732
11
35.9917
21
101.3551732
0
ARC
8
DEFAULT_255_2_778
10
7.2860532
20
92.743071
40
3.7119085
50
3.3328828
51
54.1206939
0
ARC
8
DEFAULT_255_2_778
10
7.282023
20
92.7376049
40
3.7186993
50
54.1197397
51
54.9378661
0
LINE
8
DEFAULT_255_2_778
10
10.9916834
20
48.8549701
11
10.9916834
21
92.9588701
0
LINE
8
DEFAULT_255_2_778
10
9.4182834
20
95.7814701
11
6.4916834
21
98.1552701
0
LINE
8
DEFAULT_255_2_778
10
87.0416532
20
100.4550062
11
81.5417532
21
100.4550062
0
LINE
8
DEFAULT_255_2_778
10
81.5417532
20
100.4550062
11
81.5417532
21
100.3550062
0
LINE
8
DEFAULT_255_2_778
10
57.0416532
20
100.4550062
11
62.5415532
21
100.4550062
0
LINE
8
DEFAULT_255_2_778
10
62.5415532
20
100.4550062
11
62.5415532
21
100.3550062
0
LINE
8
DEFAULT_255_2_778
10
85.4418
20
101.1552125
11
85.4418
21
101.3552125
0
LINE
8
DEFAULT_255_2_778
10
58.6416
20
101.1552125
11
58.6416
21
101.3552125
0
LINE
8
DEFAULT_255_2_778
10
62.0417522
20
100.35505
11
62.0417522
21
101.15515
0
LINE
8
DEFAULT_255_2_778
10
62.0417522
20
101.15515
11
57.0416522
21
101.15515
0
LINE
8
DEFAULT_255_2_778
10
82.0415654
20
100.35505
11
82.0415654
21
101.15515
0
LINE
8
DEFAULT_255_2_778
10
82.0415654
20
101.15515
11
87.0416654
21
101.15515
0
LINE
8
DEFAULT_255_2_778
10
76.0417
20
100.3550625
11
76.0417
21
101.3551625
0
LINE
8
DEFAULT_255_2_778
10
68.0417
20
100.3550625
11
68.0417
21
101.3551625
0
LINE
8
DEFAULT_255_2_778
10
6.0416345
20
41.0050713
11
0.2417345
21
41.0050713
0
LINE
8
DEFAULT_255_2_778
10
0.2417345
20
41.0050713
11
0.2417345
21
85.0049713
0
LINE
8
DEFAULT_255_2_778
10
0.2417345
20
85.0049713
11
6.0416345
21
85.0049713
0
LINE
8
DEFAULT_255_2_778
10
6.0416084
20
8.0551479
11
1.9416084
21
8.0551479
0
LINE
8
DEFAULT_255_2_778
10
1.9416084
20
8.0551479
11
1.9416084
21
4.6552479
0
LINE
8
DEFAULT_255_2_778
10
1.9416084
20
4.6552479
11
3.3415084
21
4.6552479
0
LINE
8
DEFAULT_255_2_778
10
3.3415084
20
4.6552479
11
3.3415084
21
6.1551479
0
LINE
8
DEFAULT_255_2_778
10
3.3415084
20
6.1551479
11
6.0416084
21
6.1551479
0
LINE
8
DEFAULT_255_2_778
10
6.0416084
20
94.6551479
11
1.9416084
21
94.6551479
0
LINE
8
DEFAULT_255_2_778
10
1.9416084
20
94.6551479
11
1.9416084
21
98.0550479
0
LINE
8
DEFAULT_255_2_778
10
1.9416084
20
98.0550479
11
3.3415084
21
98.0550479
0
LINE
8
DEFAULT_255_2_778
10
3.3415084
20
98.0550479
11
3.3415084
21
96.5551479
0
LINE
8
DEFAULT_255_2_778
10
3.3415084
20
96.5551479
11
6.0416084
21
96.5551479
0
LINE
8
DEFAULT_255_2_778
10
138.0417
20
101.3551309
11
138.0417
21
1.3550309
0
LINE
8
DEFAULT_255_2_778
10
137.5916719
20
83.8853
11
138.0417719
21
83.8853
0
LINE
8
DEFAULT_255_2_778
10
137.5916719
20
60.2249
11
138.0417719
21
60.2249
0
LINE
8
DEFAULT_255_2_778
10
105.0418073
20
43.488877
11
107.0418073
21
43.488877
0
LINE
8
DEFAULT_255_2_778
10
105.0418073
20
47.855077
11
107.0418073
21
47.855077
0
LINE
8
DEFAULT_255_2_778
10
39.0418073
20
43.488877
11
37.0418073
21
43.488877
0
LINE
8
DEFAULT_255_2_778
10
39.0418073
20
47.855077
11
37.0418073
21
47.855077
0
LINE
8
DEFAULT_255_2_778
10
105.0418073
20
17.6650458
11
107.0418073
21
17.6650458
0
LINE
8
DEFAULT_255_2_778
10
105.0418073
20
22.2423458
11
107.0418073
21
22.2423458
0
LINE
8
DEFAULT_255_2_778
10
39.0418073
20
17.6650458
11
37.0418073
21
17.6650458
0
LINE
8
DEFAULT_255_2_778
10
39.0418073
20
22.2423458
11
37.0418073
21
22.2423458
0
LINE
8
DEFAULT_255_2_778
10
37.0415473
20
43.3550478
11
6.0416473
21
43.3550478
0
LINE
8
DEFAULT_255_2_778
10
37.0415473
20
48.3551478
11
6.0416473
21
48.3551478
0
LINE
8
DEFAULT_255_2_778
10
37.0415473
20
3.1551
11
6.0416473
21
3.1551
0
LINE
8
DEFAULT_255_2_778
10
37.0415473
20
17.5312
11
6.0416473
21
17.5312
0
LINE
8
DEFAULT_255_2_778
10
37.0415473
20
22.5310708
11
6.0416473
21
22.5310708
0
LINE
8
DEFAULT_255_2_778
10
37.0415473
20
27.7369708
11
6.0416473
21
27.7369708
0
LINE
8
DEFAULT_255_2_778
10
107.0418473
20
17.5309478
11
138.0417473
21
17.5309478
0
LINE
8
DEFAULT_255_2_778
10
107.0418473
20
22.5310478
11
138.0417473
21
22.5310478
0
LINE
8
DEFAULT_255_2_778
10
107.0418473
20
43.3550478
11
138.0417473
21
43.3550478
0
LINE
8
DEFAULT_255_2_778
10
107.0418473
20
48.3551478
11
138.0417473
21
48.3551478
0
LINE
8
DEFAULT_255_2_778
10
57.0416775
20
2.355
11
87.0416775
21
2.355
0
LINE
8
DEFAULT_255_2_778
10
57.0416775
20
100.355
11
87.0416775
21
100.355
0
LINE
8
DEFAULT_255_2_778
10
73.491655
20
13.9550309
11
73.491655
21
88.7551309
0
LINE
8
DEFAULT_255_2_778
10
73.491655
20
88.7551309
11
70.591755
21
88.7551309
0
LINE
8
DEFAULT_255_2_778
10
70.591755
20
88.7551309
11
70.591755
21
13.9550309
0
LINE
8
DEFAULT_255_2_778
10
70.591755
20
13.9550309
11
73.491855
21
13.9550309
0
LINE
8
DEFAULT_255_2_778
10
70.591755
20
99.8552309
11
58.141855
21
99.8552309
0
LINE
8
DEFAULT_255_2_778
10
58.141855
20
99.8552309
11
58.141855
21
75.8551309
0
LINE
8
DEFAULT_255_2_778
10
58.141855
20
75.8551309
11
60.441855
21
73.5551309
0
LINE
8
DEFAULT_255_2_778
10
60.441855
20
73.5551309
11
60.441855
21
29.1551309
0
LINE
8
DEFAULT_255_2_778
10
60.441855
20
29.1551309
11
58.141855
21
26.8550309
0
LINE
8
DEFAULT_255_2_778
10
58.141855
20
26.8550309
11
58.141855
21
2.8550309
0
LINE
8
DEFAULT_255_2_778
10
58.141855
20
2.8550309
11
70.591755
21
2.8550309
0
LINE
8
DEFAULT_255_2_778
10
70.591755
20
2.8550309
11
70.591755
21
5.9551309
0
LINE
8
DEFAULT_255_2_778
10
70.591755
20
5.9551309
11
73.491855
21
5.9551309
0
LINE
8
DEFAULT_255_2_778
10
73.491855
20
5.9551309
11
73.491855
21
2.8550309
0
LINE
8
DEFAULT_255_2_778
10
73.491855
20
2.8550309
11
85.941855
21
2.8550309
0
LINE
8
DEFAULT_255_2_778
10
85.941855
20
2.8550309
11
85.941855
21
26.8550309
0
LINE
8
DEFAULT_255_2_778
10
85.941855
20
26.8550309
11
83.641855
21
29.1551309
0
LINE
8
DEFAULT_255_2_778
10
83.641855
20
29.1551309
11
83.641855
21
73.5551309
0
LINE
8
DEFAULT_255_2_778
10
83.641855
20
73.5551309
11
85.941855
21
75.8551309
0
LINE
8
DEFAULT_255_2_778
10
85.941855
20
75.8551309
11
85.941855
21
99.8552309
0
LINE
8
DEFAULT_255_2_778
10
85.941855
20
99.8552309
11
73.491655
21
99.8552309
0
LINE
8
DEFAULT_255_2_778
10
73.491655
20
99.8552309
11
73.491655
21
96.7551309
0
LINE
8
DEFAULT_255_2_778
10
73.491655
20
96.7551309
11
70.591755
21
96.7551309
0
LINE
8
DEFAULT_255_2_778
10
70.591755
20
96.7551309
11
70.591755
21
99.8552309
0
LINE
8
DEFAULT_255_2_778
10
138.041755
20
99.4051309
11
139.141655
21
99.4051309
0
LINE
8
DEFAULT_255_2_778
10
139.141655
20
99.4051309
11
139.141655
21
97.9052309
0
LINE
8
DEFAULT_255_2_778
10
139.141655
20
97.9052309
11
140.141755
21
97.9052309
0
LINE
8
DEFAULT_255_2_778
10
140.141755
20
97.9052309
11
140.141755
21
101.3551309
0
LINE
8
DEFAULT_255_2_778
10
140.141755
20
101.3551309
11
6.041655
21
101.3551309
0
LINE
8
DEFAULT_255_2_778
10
6.041655
20
101.3551309
11
6.041655
21
1.3550309
0
LINE
8
DEFAULT_255_2_778
10
6.041655
20
1.3550309
11
140.141755
21
1.3550309
0
LINE
8
DEFAULT_255_2_778
10
140.141755
20
1.3550309
11
140.141755
21
3.8051309
0
LINE
8
DEFAULT_255_2_778
10
140.141755
20
3.8051309
11
139.141655
21
3.8051309
0
LINE
8
DEFAULT_255_2_778
10
139.141655
20
3.8051309
11
139.141655
21
2.3052309
0
LINE
8
DEFAULT_255_2_778
10
139.141655
20
2.3052309
11
138.041755
21
2.3052309
0
LINE
8
DEFAULT_255_2_778
10
71.1418198
20
79.254977
11
72.9418198
21
79.254977
0
LINE
8
DEFAULT_255_2_778
10
72.9418198
20
79.254977
11
72.9418198
21
80.554877
0
LINE
8
DEFAULT_255_2_778
10
72.9418198
20
80.554877
11
71.1418198
21
80.554877
0
LINE
8
DEFAULT_255_2_778
10
71.1418198
20
80.554877
11
71.1418198
21
79.254977
0
LINE
8
DEFAULT_255_2_778
10
72.9418198
20
87.354977
11
71.1418198
21
87.354977
0
LINE
8
DEFAULT_255_2_778
10
71.1418198
20
87.354977
11
71.1418198
21
86.055077
0
LINE
8
DEFAULT_255_2_778
10
71.1418198
20
86.055077
11
72.9418198
21
86.055077
0
LINE
8
DEFAULT_255_2_778
10
72.9418198
20
86.055077
11
72.9418198
21
87.354977
0
LINE
8
DEFAULT_255_2_778
10
72.9418198
20
83.955077
11
71.1418198
21
83.955077
0
LINE
8
DEFAULT_255_2_778
10
71.1418198
20
83.955077
11
71.1418198
21
82.655177
0
LINE
8
DEFAULT_255_2_778
10
71.1418198
20
82.655177
11
72.9418198
21
82.655177
0
LINE
8
DEFAULT_255_2_778
10
72.9418198
20
82.655177
11
72.9418198
21
83.955077
0
LINE
8
DEFAULT_255_2_778
10
85.9416198
20
34.504977
11
85.9416198
21
35.804877
0
LINE
8
DEFAULT_255_2_778
10
85.9416198
20
35.804877
11
84.1416198
21
35.804877
0
LINE
8
DEFAULT_255_2_778
10
84.1416198
20
35.804877
11
84.1416198
21
34.504977
0
LINE
8
DEFAULT_255_2_778
10
84.1416198
20
34.504977
11
85.9416198
21
34.504977
0
LINE
8
DEFAULT_255_2_778
10
85.9416198
20
32.404977
11
84.1416198
21
32.404977
0
LINE
8
DEFAULT_255_2_778
10
84.1416198
20
32.404977
11
84.1416198
21
31.105077
0
LINE
8
DEFAULT_255_2_778
10
84.1416198
20
31.105077
11
85.9416198
21
31.105077
0
LINE
8
DEFAULT_255_2_778
10
85.9416198
20
31.105077
11
85.9416198
21
32.404977
0
LINE
8
DEFAULT_255_2_778
10
85.9416198
20
39.205077
11
84.1416198
21
39.205077
0
LINE
8
DEFAULT_255_2_778
10
84.1416198
20
39.205077
11
84.1416198
21
37.905177
0
LINE
8
DEFAULT_255_2_778
10
84.1416198
20
37.905177
11
85.9416198
21
37.905177
0
LINE
8
DEFAULT_255_2_778
10
85.9416198
20
37.905177
11
85.9416198
21
39.205077
0
LINE
8
DEFAULT_255_2_778
10
58.1418198
20
37.9051447
11
59.9418198
21
37.9051447
0
LINE
8
DEFAULT_255_2_778
10
59.9418198
20
37.9051447
11
59.9418198
21
39.2050447
0
LINE
8
DEFAULT_255_2_778
10
59.9418198
20
39.2050447
11
58.1418198
21
39.2050447
0
LINE
8
DEFAULT_255_2_778
10
58.1418198
20
39.2050447
11
58.1418198
21
37.9051447
0
LINE
8
DEFAULT_255_2_778
10
58.1418198
20
35.8051447
11
58.1418198
21
34.5052447
0
LINE
8
DEFAULT_255_2_778
10
58.1418198
20
34.5052447
11
59.9418198
21
34.5052447
0
LINE
8
DEFAULT_255_2_778
10
59.9418198
20
34.5052447
11
59.9418198
21
35.8051447
0
LINE
8
DEFAULT_255_2_778
10
59.9418198
20
35.8051447
11
58.1418198
21
35.8051447
0
LINE
8
DEFAULT_255_2_778
10
58.1418198
20
32.4052447
11
58.1418198
21
31.1053447
0
LINE
8
DEFAULT_255_2_778
10
58.1418198
20
31.1053447
11
59.9418198
21
31.1053447
0
LINE
8
DEFAULT_255_2_778
10
59.9418198
20
31.1053447
11
59.9418198
21
32.4052447
0
LINE
8
DEFAULT_255_2_778
10
59.9418198
20
32.4052447
11
58.1418198
21
32.4052447
0
LINE
8
DEFAULT_255_2_778
10
59.9418198
20
54.1050447
11
59.9418198
21
55.4049447
0
LINE
8
DEFAULT_255_2_778
10
59.9418198
20
55.4049447
11
58.1418198
21
55.4049447
0
LINE
8
DEFAULT_255_2_778
10
58.1418198
20
55.4049447
11
58.1418198
21
54.1050447
0
LINE
8
DEFAULT_255_2_778
10
58.1418198
20
54.1050447
11
59.9418198
21
54.1050447
0
LINE
8
DEFAULT_255_2_778
10
59.9418198
20
48.6051447
11
58.1418198
21
48.6051447
0
LINE
8
DEFAULT_255_2_778
10
58.1418198
20
48.6051447
11
58.1418198
21
47.3052447
0
LINE
8
DEFAULT_255_2_778
10
58.1418198
20
47.3052447
11
59.9418198
21
47.3052447
0
LINE
8
DEFAULT_255_2_778
10
59.9418198
20
47.3052447
11
59.9418198
21
48.6051447
0
LINE
8
DEFAULT_255_2_778
10
58.1418198
20
50.7051447
11
59.9418198
21
50.7051447
0
LINE
8
DEFAULT_255_2_778
10
59.9418198
20
50.7051447
11
59.9418198
21
52.0050447
0
LINE
8
DEFAULT_255_2_778
10
59.9418198
20
52.0050447
11
58.1418198
21
52.0050447
0
LINE
8
DEFAULT_255_2_778
10
58.1418198
20
52.0050447
11
58.1418198
21
50.7051447
0
LINE
8
DEFAULT_255_2_778
10
85.9416198
20
71.6051968
11
84.1416198
21
71.6051968
0
LINE
8
DEFAULT_255_2_778
10
84.1416198
20
71.6051968
11
84.1416198
21
70.3052968
0
LINE
8
DEFAULT_255_2_778
10
84.1416198
20
70.3052968
11
85.9416198
21
70.3052968
0
LINE
8
DEFAULT_255_2_778
10
85.9416198
20
70.3052968
11
85.9416198
21
71.6051968
0
LINE
8
DEFAULT_255_2_778
10
85.9416198
20
68.2052968
11
84.1416198
21
68.2052968
0
LINE
8
DEFAULT_255_2_778
10
84.1416198
20
68.2052968
11
84.1416198
21
66.9053968
0
LINE
8
DEFAULT_255_2_778
10
84.1416198
20
66.9053968
11
85.9416198
21
66.9053968
0
LINE
8
DEFAULT_255_2_778
10
85.9416198
20
66.9053968
11
85.9416198
21
68.2052968
0
LINE
8
DEFAULT_255_2_778
10
87.0417
20
1.3550309
11
87.0417
21
101.3551309
0
ARC
8
DEFAULT_255_2_778
10
106.1668234
20
35.0195956
40
5.7544146
50
217.8661011
51
242.2132184
0
ARC
8
DEFAULT_255_2_778
10
104.1029949
20
33.4578495
40
3.1666839
50
183.3168825
51
218.4794617
0
ARC
8
DEFAULT_255_2_778
10
104.1032991
20
69.2523061
40
3.166988
50
141.5224592
51
176.6833246
0
ARC
8
DEFAULT_255_2_778
10
106.1664946
20
67.6907318
40
5.7541149
50
117.7846537
51
142.1324047
0
LINE
8
DEFAULT_255_2_778
10
105.0416157
20
29.0551309
11
103.4842157
21
29.9287309
0
LINE
8
DEFAULT_255_2_778
10
100.9416157
20
33.2746309
11
100.9416157
21
69.4355309
0
LINE
8
DEFAULT_255_2_778
10
103.4842157
20
72.7814309
11
105.0416157
21
73.6551309
0
LINE
8
DEFAULT_255_2_778
10
105.0416157
20
1.3550309
11
105.0416157
21
101.3551309
0
LINE
8
DEFAULT_255_2_778
10
107.0416157
20
101.3551309
11
107.0416157
21
1.3550309
0
LINE
8
DEFAULT_255_2_778
10
57.0417
20
101.3551309
11
57.0417
21
1.3550309
0
ARC
8
DEFAULT_255_2_778
10
37.9174609
20
67.6911853
40
5.7534227
50
37.8672331
51
62.2187387
0
ARC
8
DEFAULT_255_2_778
10
39.9794321
20
69.2520391
40
3.1677025
50
3.320765
51
38.4734418
0
ARC
8
DEFAULT_255_2_778
10
39.9797342
20
33.4581177
40
3.1674006
50
321.5246449
51
356.6790085
0
ARC
8
DEFAULT_255_2_778
10
37.9171299
20
35.0191451
40
5.7537262
50
297.7833946
51
322.1342506
0
LINE
8
DEFAULT_255_2_778
10
39.0418157
20
73.6551309
11
40.5991157
21
72.7814309
0
LINE
8
DEFAULT_255_2_778
10
43.1418157
20
69.4355309
11
43.1418157
21
33.2746309
0
LINE
8
DEFAULT_255_2_778
10
40.5991157
20
29.9287309
11
39.0418157
21
29.0551309
0
LINE
8
DEFAULT_255_2_778
10
39.0418157
20
1.3550309
11
39.0418157
21
101.3551309
0
LINE
8
DEFAULT_255_2_778
10
37.0418157
20
101.3551309
11
37.0418157
21
1.3550309
0
LINE
8
DEFAULT_255_2_778
10
28.9916178
20
104.3550614
11
27.4916178
21
105.8549614
0
LINE
8
DEFAULT_255_2_778
10
27.4916178
20
105.8549614
11
25.0416178
21
105.8549614
0
LINE
8
DEFAULT_255_2_778
10
21.0916178
20
104.3550614
11
22.5915178
21
105.8549614
0
LINE
8
DEFAULT_255_2_778
10
22.5915178
20
105.8549614
11
25.0416178
21
105.8549614
0
LINE
8
DEFAULT_255_2_778
10
28.9916
20
101.3549552
11
28.9916
21
104.3550552
0
LINE
8
DEFAULT_255_2_778
10
21.0916355
20
104.3550155
11
21.0916355
21
109.4551155
0
LINE
8
DEFAULT_255_2_778
10
21.0916355
20
109.4551155
11
22.5915355
21
110.9550155
0
LINE
8
DEFAULT_255_2_778
10
22.5915355
20
110.9550155
11
27.4916355
21
110.9550155
0
LINE
8
DEFAULT_255_2_778
10
27.4916355
20
110.9550155
11
28.9915355
21
109.4551155
0
LINE
8
DEFAULT_255_2_778
10
28.9915355
20
109.4551155
11
28.9915355
21
104.3550155
0
LINE
8
DEFAULT_255_2_778
10
21.0917
20
101.3549552
11
21.0917
21
104.3550552
0
LINE
8
DEFAULT_255_2_778
10
122.9917178
20
104.3550614
11
121.4917178
21
105.8549614
0
LINE
8
DEFAULT_255_2_778
10
121.4917178
20
105.8549614
11
119.0417178
21
105.8549614
0
LINE
8
DEFAULT_255_2_778
10
115.0917178
20
104.3550614
11
116.5916178
21
105.8549614
0
LINE
8
DEFAULT_255_2_778
10
116.5916178
20
105.8549614
11
119.0417178
21
105.8549614
0
LINE
8
DEFAULT_255_2_778
10
122.9917
20
101.3549552
11
122.9917
21
104.3550552
0
LINE
8
DEFAULT_255_2_778
10
115.0917355
20
104.3550155
11
115.0917355
21
109.4551155
0
LINE
8
DEFAULT_255_2_778
10
115.0917355
20
109.4551155
11
116.5916355
21
110.9550155
0
LINE
8
DEFAULT_255_2_778
10
116.5916355
20
110.9550155
11
121.4917355
21
110.9550155
0
LINE
8
DEFAULT_255_2_778
10
121.4917355
20
110.9550155
11
122.9916355
21
109.4551155
0
LINE
8
DEFAULT_255_2_778
10
122.9916355
20
109.4551155
11
122.9916355
21
104.3550155
0
LINE
8
DEFAULT_255_2_778
10
115.0918
20
101.3549552
11
115.0918
21
104.3550552
0
LINE
8
DEFAULT_255_2_778
10
125.0517167
20
35.8573
11
125.6317167
21
35.8573
0
LINE
8
DEFAULT_255_2_778
10
125.6317
20
41.5238905
11
125.6317
21
35.8572905
0
LINE
8
DEFAULT_255_2_778
10
125.6317
20
35.2548281
11
125.6317
21
35.8573281
0
LINE
8
DEFAULT_255_2_778
10
125.0517
20
41.5238905
11
125.0517
21
35.8572905
0
LINE
8
DEFAULT_255_2_778
10
125.0517
20
35.2548281
11
125.0517
21
35.8573281
0
LINE
8
DEFAULT_255_2_778
10
130.1716907
20
35.8573
11
127.4816907
21
35.8573
0
LINE
8
DEFAULT_255_2_778
10
127.4817
20
35.2548281
11
127.4817
21
35.8573281
0
LINE
8
DEFAULT_255_2_778
10
127.4817
20
41.5238905
11
127.4817
21
35.8572905
0
LINE
8
DEFAULT_255_2_778
10
130.1717
20
35.2548281
11
130.1717
21
35.8573281
0
LINE
8
DEFAULT_255_2_778
10
130.1717
20
41.5238905
11
130.1717
21
35.8572905
0
LINE
8
DEFAULT_255_2_778
10
127.4816299
20
35.2550625
11
127.4816299
21
32.2737625
0
LINE
8
DEFAULT_255_2_778
10
127.4816299
20
32.2737625
11
125.6317299
21
32.2737625
0
LINE
8
DEFAULT_255_2_778
10
125.6317299
20
32.2737625
11
125.6317299
21
35.2550625
0
LINE
8
DEFAULT_255_2_778
10
127.4816299
20
41.5239
11
125.6317299
21
41.5239
0
LINE
8
DEFAULT_255_2_778
10
125.0517167
20
41.5239
11
125.6317167
21
41.5239
0
LINE
8
DEFAULT_255_2_778
10
127.5417566
20
41.5239
11
127.4816566
21
41.5239
0
LINE
8
DEFAULT_255_2_778
10
127.5417032
20
31.4172906
11
125.0517032
21
31.4172906
0
LINE
8
DEFAULT_255_2_778
10
125.0517032
20
31.4172906
11
125.0517032
21
35.2550906
0
LINE
8
DEFAULT_255_2_778
10
124.6416479
20
35.2550864
11
124.6416479
21
41.5238864
0
LINE
8
DEFAULT_255_2_778
10
124.6416479
20
41.5238864
11
125.0517479
21
41.5238864
0
LINE
8
DEFAULT_255_2_778
10
130.1716341
20
35.2550906
11
130.1716341
21
31.4172906
0
LINE
8
DEFAULT_255_2_778
10
130.1716341
20
31.4172906
11
127.5417341
21
31.4172906
0
LINE
8
DEFAULT_255_2_778
10
127.5417341
20
41.5239
11
130.1716341
21
41.5239
0
LINE
8
DEFAULT_255_2_778
10
130.4418625
20
35.2550864
11
130.4418625
21
41.5238864
0
LINE
8
DEFAULT_255_2_778
10
130.4418625
20
41.5238864
11
130.1719625
21
41.5238864
0
LINE
8
DEFAULT_255_2_778
10
121.5417688
20
29.7362
11
122.0418688
21
29.7362
0
LINE
8
DEFAULT_255_2_778
10
122.0418
20
35.2550718
11
122.0418
21
29.7361718
0
LINE
8
DEFAULT_255_2_778
10
121.5417688
20
29.7361156
11
121.5417688
21
29.4861156
0
LINE
8
DEFAULT_255_2_778
10
121.5417688
20
29.4861156
11
122.0418688
21
29.4861156
0
LINE
8
DEFAULT_255_2_778
10
122.0418688
20
29.4861156
11
122.0418688
21
29.7361156
0
LINE
8
DEFAULT_255_2_778
10
121.5418
20
35.2550718
11
121.5418
21
29.7361718
0
LINE
8
DEFAULT_255_2_778
10
121.5417688
20
35.2550864
11
121.5417688
21
41.5238864
0
LINE
8
DEFAULT_255_2_778
10
121.5417688
20
41.5238864
11
122.0418688
21
41.5238864
0
LINE
8
DEFAULT_255_2_778
10
122.0418688
20
41.5238864
11
122.0418688
21
35.2550864
0
LINE
8
DEFAULT_255_2_778
10
111.8416636
20
31.2096218
11
114.5417636
21
29.1832218
0
LINE
8
DEFAULT_255_2_778
10
127.5416814
20
29.1832
11
114.5416814
21
29.1832
0
LINE
8
DEFAULT_255_2_778
10
114.5417
20
28.9332156
11
114.5417
21
29.1832156
0
LINE
8
DEFAULT_255_2_778
10
111.8416
20
35.2551395
11
111.8416
21
31.2096395
0
LINE
8
DEFAULT_255_2_778
10
114.5417636
20
28.9331375
11
111.8416636
21
30.9596375
0
LINE
8
DEFAULT_255_2_778
10
111.8416636
20
30.9596375
11
111.8416636
21
31.2096375
0
LINE
8
DEFAULT_255_2_778
10
107.041842
20
27.737
11
127.541742
21
27.737
0
LINE
8
DEFAULT_255_2_778
10
138.0417186
20
27.737
11
127.5417186
21
27.737
0
LINE
8
DEFAULT_255_2_778
10
132.6416
20
29.1831614
11
132.6416
21
35.2550614
0
LINE
8
DEFAULT_255_2_778
10
127.5417459
20
41.577077
11
132.6418459
21
41.577077
0
LINE
8
DEFAULT_255_2_778
10
132.6418459
20
41.577077
11
132.6418459
21
35.255077
0
LINE
8
DEFAULT_255_2_778
10
127.541745
20
41.577077
11
114.541745
21
41.577077
0
LINE
8
DEFAULT_255_2_778
10
114.541745
20
41.577077
11
111.841645
21
39.550677
0
LINE
8
DEFAULT_255_2_778
10
111.841645
20
39.550677
11
111.841645
21
35.255077
0
LINE
8
DEFAULT_255_2_778
10
124.6416
20
30.8111708
11
124.6416
21
35.2550708
0
LINE
8
DEFAULT_255_2_778
10
130.4418
20
30.8111708
11
130.4418
21
35.2550708
0
LINE
8
DEFAULT_255_2_778
10
127.5417459
20
29.1832
11
132.6418459
21
29.1832
0
LINE
8
DEFAULT_255_2_778
10
127.5417459
20
28.9332156
11
132.6418459
21
28.9332156
0
LINE
8
DEFAULT_255_2_778
10
132.6418459
20
28.9332156
11
132.6418459
21
29.1832156
0
LINE
8
DEFAULT_255_2_778
10
127.5416814
20
28.9332
11
114.5416814
21
28.9332
0
LINE
8
DEFAULT_255_2_778
10
127.5417
20
41.5238906
11
127.5417
21
41.5770906
0
LINE
8
DEFAULT_255_2_778
10
124.6416379
20
30.8111166
11
124.6416379
21
29.4861166
0
LINE
8
DEFAULT_255_2_778
10
124.6416379
20
29.4861166
11
127.5417379
21
29.4861166
0
LINE
8
DEFAULT_255_2_778
10
130.4418643
20
30.8111166
11
130.4418643
21
29.4861166
0
LINE
8
DEFAULT_255_2_778
10
130.4418643
20
29.4861166
11
127.5417643
21
29.4861166
0
LINE
8
DEFAULT_255_2_778
10
124.6416379
20
30.8112
11
127.5417379
21
30.8112
0
LINE
8
DEFAULT_255_2_778
10
130.4418643
20
30.8112
11
127.5417643
21
30.8112
0
LINE
8
DEFAULT_255_2_778
10
107.0416073
20
27.5541
11
105.0416073
21
27.5541
0
LINE
8
DEFAULT_255_2_778
10
122.2667542
20
12.7171
11
121.0168542
21
12.7171
0
LINE
8
DEFAULT_255_2_778
10
119.7666542
20
12.7171
11
121.0165542
21
12.7171
0
LINE
8
DEFAULT_255_2_778
10
119.7667219
20
11.3780281
11
121.0169219
21
11.3780281
0
LINE
8
DEFAULT_255_2_778
10
121.0169219
20
11.3780281
11
121.0169219
21
12.7171281
0
LINE
8
DEFAULT_255_2_778
10
126.1415689
20
3.6832
11
114.5416689
21
3.6832
0
LINE
8
DEFAULT_255_2_778
10
114.5417
20
3.4332024
11
114.5417
21
3.6832024
0
LINE
8
DEFAULT_255_2_778
10
111.8416636
20
5.7096218
11
114.5417636
21
3.6832218
0
LINE
8
DEFAULT_255_2_778
10
126.1417907
20
3.6832
11
132.6417907
21
3.6832
0
LINE
8
DEFAULT_255_2_778
10
132.6418
20
9.9550739
11
132.6418
21
3.6831739
0
LINE
8
DEFAULT_255_2_778
10
126.1417907
20
3.4332024
11
132.6417907
21
3.4332024
0
LINE
8
DEFAULT_255_2_778
10
132.6417907
20
3.4332024
11
132.6417907
21
3.6832024
0
LINE
8
DEFAULT_255_2_778
10
126.1415689
20
3.4332
11
114.5416689
21
3.4332
0
LINE
8
DEFAULT_255_2_778
10
111.8416636
20
5.7096242
11
111.8416636
21
5.4596242
0
LINE
8
DEFAULT_255_2_778
10
111.8416636
20
5.4596242
11
114.5417636
21
3.4332242
0
LINE
8
DEFAULT_255_2_778
10
130.0166344
20
16.0770645
11
132.6415344
21
16.0770645
0
LINE
8
DEFAULT_255_2_778
10
132.6415344
20
16.0770645
11
132.6415344
21
9.9551645
0
LINE
8
DEFAULT_255_2_778
10
129.5165688
20
16.077
11
130.0166688
21
16.077
0
LINE
8
DEFAULT_255_2_778
10
130.0167
20
9.9551645
11
130.0167
21
16.0770645
0
LINE
8
DEFAULT_255_2_778
10
122.7668688
20
16.077
11
122.2667688
21
16.077
0
LINE
8
DEFAULT_255_2_778
10
122.2667
20
13.712926
11
122.2667
21
16.077026
0
LINE
8
DEFAULT_255_2_778
10
111.8416439
20
9.9551645
11
111.8416439
21
14.0506645
0
LINE
8
DEFAULT_255_2_778
10
111.8416439
20
14.0506645
11
114.5417439
21
16.0770645
0
LINE
8
DEFAULT_255_2_778
10
114.5417439
20
16.0770645
11
122.2667439
21
16.0770645
0
LINE
8
DEFAULT_255_2_778
10
129.5167875
20
16.077
11
126.1417875
21
16.077
0
LINE
8
DEFAULT_255_2_778
10
122.7667875
20
16.077
11
126.1417875
21
16.077
0
LINE
8
DEFAULT_255_2_778
10
122.7668
20
13.712926
11
122.7668
21
16.077026
0
LINE
8
DEFAULT_255_2_778
10
129.5166
20
12.4072854
11
129.5166
21
16.0770854
0
LINE
8
DEFAULT_255_2_778
10
111.8416
20
9.955152
11
111.8416
21
5.709652
0
LINE
8
DEFAULT_255_2_778
10
122.2666761
20
9.2529
11
119.7666761
21
9.2529
0
LINE
8
DEFAULT_255_2_778
10
122.2666761
20
13.6691
11
119.7666761
21
13.6691
0
LINE
8
DEFAULT_255_2_778
10
122.2666761
20
6.7409572
11
122.2666761
21
7.5209572
0
LINE
8
DEFAULT_255_2_778
10
122.2666761
20
7.5209572
11
119.7666761
21
7.5209572
0
LINE
8
DEFAULT_255_2_778
10
119.7666761
20
7.5209572
11
119.7666761
21
13.6690572
0
LINE
8
DEFAULT_255_2_778
10
119.5065573
20
12.7162823
11
119.5065573
21
13.6690823
0
LINE
8
DEFAULT_255_2_778
10
119.5065573
20
13.6690823
11
119.7666573
21
13.6690823
0
LINE
8
DEFAULT_255_2_778
10
122.2667
20
5.0744052
11
122.2667
21
6.7410052
0
LINE
8
DEFAULT_255_2_778
10
119.5066334
20
7.69345
11
119.5066334
21
6.74095
0
LINE
8
DEFAULT_255_2_778
10
119.5066334
20
6.74095
11
122.2667334
21
6.74095
0
LINE
8
DEFAULT_255_2_778
10
126.1418563
20
5.0744
11
122.2667563
21
5.0744
0
LINE
8
DEFAULT_255_2_778
10
126.1418563
20
4.2944091
11
122.2667563
21
4.2944091
0
LINE
8
DEFAULT_255_2_778
10
122.2667563
20
4.2944091
11
122.2667563
21
5.0744091
0
LINE
8
DEFAULT_255_2_778
10
130.0169563
20
5.0744091
11
130.0169563
21
4.2944091
0
LINE
8
DEFAULT_255_2_778
10
130.0169563
20
4.2944091
11
126.1418563
21
4.2944091
0
LINE
8
DEFAULT_255_2_778
10
130.0167
20
9.955152
11
130.0167
21
5.074652
0
LINE
8
DEFAULT_255_2_778
10
126.1418563
20
5.0744
11
130.0169563
21
5.0744
0
LINE
8
DEFAULT_255_2_778
10
122.2667
20
13.6690854
11
122.2667
21
12.7170854
0
LINE
8
DEFAULT_255_2_778
10
122.2667
20
9.9550927
11
122.2667
21
12.7170927
0
LINE
8
DEFAULT_255_2_778
10
122.2667
20
9.9550698
11
122.2667
21
9.2531698
0
LINE
8
DEFAULT_255_2_778
10
122.7668688
20
8.2570458
11
122.2667688
21
8.2570458
0
LINE
8
DEFAULT_255_2_778
10
122.2667688
20
8.2570458
11
122.2667688
21
9.2529458
0
LINE
8
DEFAULT_255_2_778
10
122.2667
20
13.6690604
11
122.2667
21
13.7129604
0
LINE
8
DEFAULT_255_2_778
10
122.7668688
20
13.713
11
122.2667688
21
13.713
0
LINE
8
DEFAULT_255_2_778
10
122.7668
20
9.9551479
11
122.7668
21
8.2570479
0
LINE
8
DEFAULT_255_2_778
10
126.1417875
20
5.8321531
11
122.7667875
21
5.8321531
0
LINE
8
DEFAULT_255_2_778
10
122.7667875
20
5.8321531
11
122.7667875
21
8.2570531
0
LINE
8
DEFAULT_255_2_778
10
122.7668
20
12.4072594
11
122.7668
21
13.7129594
0
LINE
8
DEFAULT_255_2_778
10
119.5066
20
9.9550968
11
119.5066
21
7.6936968
0
LINE
8
DEFAULT_255_2_778
10
116.7467657
20
9.9550968
11
116.7467657
21
7.6936968
0
LINE
8
DEFAULT_255_2_778
10
116.7467657
20
7.6936968
11
119.5066657
21
7.6936968
0
LINE
8
DEFAULT_255_2_778
10
119.5066657
20
12.7165281
11
116.7467657
21
12.7165281
0
LINE
8
DEFAULT_255_2_778
10
116.7467657
20
12.7165281
11
116.7467657
21
9.9550281
0
LINE
8
DEFAULT_255_2_778
10
119.5066
20
9.9550281
11
119.5066
21
12.7165281
0
LINE
8
DEFAULT_255_2_778
10
107.0417971
20
3.1551
11
126.1417971
21
3.1551
0
LINE
8
DEFAULT_255_2_778
10
138.0417502
20
3.1551
11
126.1418502
21
3.1551
0
LINE
8
DEFAULT_255_2_778
10
129.5167875
20
9.9550687
11
129.5167875
21
5.8323687
0
LINE
8
DEFAULT_255_2_778
10
129.5167875
20
5.8323687
11
126.1417875
21
5.8323687
0
LINE
8
DEFAULT_255_2_778
10
129.5167875
20
12.4073
11
126.1417875
21
12.4073
0
LINE
8
DEFAULT_255_2_778
10
122.7667875
20
12.4073
11
126.1417875
21
12.4073
0
LINE
8
DEFAULT_255_2_778
10
122.7668
20
9.9550791
11
122.7668
21
12.4072791
0
LINE
8
DEFAULT_255_2_778
10
129.5166
20
9.9550791
11
129.5166
21
12.4072791
0
LINE
8
DEFAULT_255_2_778
10
138.0417406
20
2.504927
11
138.9918406
21
2.504927
0
LINE
8
DEFAULT_255_2_778
10
138.9918406
20
2.504927
11
138.9918406
21
5.055027
0
LINE
8
DEFAULT_255_2_778
10
107.0416073
20
3.2889
11
105.0416073
21
3.2889
0
LINE
8
DEFAULT_255_2_778
10
22.8167
20
35.2551479
11
22.8167
21
33.5570479
0
LINE
8
DEFAULT_255_2_778
10
23.3168688
20
34.5529458
11
23.3168688
21
33.5570458
0
LINE
8
DEFAULT_255_2_778
10
23.3168688
20
33.5570458
11
22.8167688
21
33.5570458
0
LINE
8
DEFAULT_255_2_778
10
16.0666751
20
35.2550687
11
16.0666751
21
31.1323687
0
LINE
8
DEFAULT_255_2_778
10
16.0666751
20
31.1323687
11
22.8166751
21
31.1323687
0
LINE
8
DEFAULT_255_2_778
10
22.8166751
20
31.1323687
11
22.8166751
21
33.5572687
0
LINE
8
DEFAULT_255_2_778
10
23.3168
20
38.0170854
11
23.3168
21
38.9690854
0
LINE
8
DEFAULT_255_2_778
10
23.3168
20
39.0129604
11
23.3168
21
38.9690604
0
LINE
8
DEFAULT_255_2_778
10
25.8167761
20
38.9691
11
23.3167761
21
38.9691
0
LINE
8
DEFAULT_255_2_778
10
22.8167688
20
39.013
11
23.3168688
21
39.013
0
LINE
8
DEFAULT_255_2_778
10
22.8167688
20
41.4156406
11
23.3168688
21
41.4156406
0
LINE
8
DEFAULT_255_2_778
10
23.3168688
20
41.4156406
11
23.3168688
21
39.0129406
0
LINE
8
DEFAULT_255_2_778
10
23.3168
20
35.2550927
11
23.3168
21
38.0170927
0
LINE
8
DEFAULT_255_2_778
10
24.5670219
20
38.0171
11
23.3168219
21
38.0171
0
LINE
8
DEFAULT_255_2_778
10
23.3168
20
35.2550698
11
23.3168
21
34.5531698
0
LINE
8
DEFAULT_255_2_778
10
25.8167761
20
34.5529
11
23.3167761
21
34.5529
0
LINE
8
DEFAULT_255_2_778
10
16.0666751
20
41.4157
11
22.8166751
21
41.4157
0
LINE
8
DEFAULT_255_2_778
10
22.8167
20
39.0129406
11
22.8167
21
41.4156406
0
LINE
8
DEFAULT_255_2_778
10
16.0667
20
37.7072999
11
16.0667
21
41.4156999
0
LINE
8
DEFAULT_255_2_778
10
15.5666688
20
35.2550791
11
15.5666688
21
41.4156791
0
LINE
8
DEFAULT_255_2_778
10
15.5666688
20
41.4156791
11
16.0667688
21
41.4156791
0
LINE
8
DEFAULT_255_2_778
10
15.5666
20
35.255152
11
15.5666
21
30.374652
0
LINE
8
DEFAULT_255_2_778
10
23.3165449
20
30.3743
11
15.5666449
21
30.3743
0
LINE
8
DEFAULT_255_2_778
10
23.3165449
20
30.3742958
11
23.3165449
21
29.5942958
0
LINE
8
DEFAULT_255_2_778
10
23.3165449
20
29.5942958
11
15.5666449
21
29.5942958
0
LINE
8
DEFAULT_255_2_778
10
15.5666449
20
29.5942958
11
15.5666449
21
30.3742958
0
LINE
8
DEFAULT_255_2_778
10
23.3168
20
32.0409052
11
23.3168
21
30.3743052
0
LINE
8
DEFAULT_255_2_778
10
25.8167761
20
34.552877
11
25.8167761
21
32.820877
0
LINE
8
DEFAULT_255_2_778
10
25.8167761
20
32.820877
11
23.3167761
21
32.820877
0
LINE
8
DEFAULT_255_2_778
10
23.3167761
20
32.820877
11
23.3167761
21
32.040877
0
LINE
8
DEFAULT_255_2_778
10
26.0769334
20
32.99345
11
26.0769334
21
32.04095
0
LINE
8
DEFAULT_255_2_778
10
26.0769334
20
32.04095
11
23.3168334
21
32.04095
0
LINE
8
DEFAULT_255_2_778
10
25.8166
20
38.0170854
11
25.8166
21
38.9690854
0
LINE
8
DEFAULT_255_2_778
10
26.0766573
20
38.0162823
11
26.0766573
21
38.9690823
0
LINE
8
DEFAULT_255_2_778
10
26.0766573
20
38.9690823
11
25.8165573
21
38.9690823
0
LINE
8
DEFAULT_255_2_778
10
25.8166
20
35.2551646
11
25.8166
21
36.6780646
0
LINE
8
DEFAULT_255_2_778
10
25.8166
20
38.0171281
11
25.8166
21
36.6780281
0
LINE
8
DEFAULT_255_2_778
10
24.5666542
20
38.0171281
11
24.5666542
21
36.6780281
0
LINE
8
DEFAULT_255_2_778
10
24.5666542
20
36.6780281
11
25.8165542
21
36.6780281
0
LINE
8
DEFAULT_255_2_778
10
24.5666542
20
38.0171
11
25.8165542
21
38.0171
0
LINE
8
DEFAULT_255_2_778
10
25.8166
20
35.2550698
11
25.8166
21
34.5531698
0
LINE
8
DEFAULT_255_2_778
10
13.3417596
20
29.1832
11
31.4416596
21
29.1832
0
LINE
8
DEFAULT_255_2_778
10
34.1417636
20
31.2096218
11
31.4416636
21
29.1832218
0
LINE
8
DEFAULT_255_2_778
10
31.4416
20
28.9332156
11
31.4416
21
29.1832156
0
LINE
8
DEFAULT_255_2_778
10
13.3417
20
35.2550614
11
13.3417
21
29.1831614
0
LINE
8
DEFAULT_255_2_778
10
31.4416596
20
28.9332156
11
13.3417596
21
28.9332156
0
LINE
8
DEFAULT_255_2_778
10
13.3417596
20
28.9332156
11
13.3417596
21
29.1832156
0
LINE
8
DEFAULT_255_2_778
10
34.1417
20
35.2551395
11
34.1417
21
31.2096395
0
LINE
8
DEFAULT_255_2_778
10
31.4416636
20
28.9331375
11
34.1417636
21
30.9596375
0
LINE
8
DEFAULT_255_2_778
10
34.1417636
20
30.9596375
11
34.1417636
21
31.2096375
0
LINE
8
DEFAULT_255_2_778
10
34.1417232
20
35.255077
11
34.1417232
21
39.550677
0
LINE
8
DEFAULT_255_2_778
10
34.1417232
20
39.550677
11
31.4416232
21
41.577077
0
LINE
8
DEFAULT_255_2_778
10
31.4416232
20
41.577077
11
13.3417232
21
41.577077
0
LINE
8
DEFAULT_255_2_778
10
13.3417232
20
41.577077
11
13.3417232
21
35.255077
0
LINE
8
DEFAULT_255_2_778
10
16.0666751
20
37.7073
11
22.8166751
21
37.7073
0
LINE
8
DEFAULT_255_2_778
10
22.8167
20
39.0129594
11
22.8167
21
37.7072594
0
LINE
8
DEFAULT_255_2_778
10
22.8167
20
35.2550791
11
22.8167
21
37.7072791
0
LINE
8
DEFAULT_255_2_778
10
16.0667
20
35.2550791
11
16.0667
21
37.7072791
0
LINE
8
DEFAULT_255_2_778
10
26.0767
20
35.2550968
11
26.0767
21
32.9936968
0
LINE
8
DEFAULT_255_2_778
10
28.8367334
20
35.2550968
11
28.8367334
21
32.9936968
0
LINE
8
DEFAULT_255_2_778
10
28.8367334
20
32.9936968
11
26.0766334
21
32.9936968
0
LINE
8
DEFAULT_255_2_778
10
26.0766657
20
38.0165281
11
28.8365657
21
38.0165281
0
LINE
8
DEFAULT_255_2_778
10
28.8365657
20
38.0165281
11
28.8365657
21
35.2550281
0
LINE
8
DEFAULT_255_2_778
10
26.0767
20
35.2550281
11
26.0767
21
38.0165281
0
LINE
8
DEFAULT_255_2_778
10
37.0418073
20
27.5541
11
39.0418073
21
27.5541
0
LINE
8
DEFAULT_255_2_778
10
22.8167
20
13.5129594
11
22.8167
21
12.2072594
0
LINE
8
DEFAULT_255_2_778
10
22.8167
20
9.7550791
11
22.8167
21
12.2072791
0
LINE
8
DEFAULT_255_2_778
10
16.0666751
20
12.2073
11
22.8166751
21
12.2073
0
LINE
8
DEFAULT_255_2_778
10
22.8167
20
13.5129406
11
22.8167
21
15.9156406
0
LINE
8
DEFAULT_255_2_778
10
16.0666751
20
15.9157
11
22.8166751
21
15.9157
0
LINE
8
DEFAULT_255_2_778
10
23.3168688
20
13.5129406
11
23.3168688
21
15.9156406
0
LINE
8
DEFAULT_255_2_778
10
23.3168688
20
15.9156406
11
22.8167688
21
15.9156406
0
LINE
8
DEFAULT_255_2_778
10
22.8167
20
9.7550479
11
22.8167
21
8.0569479
0
LINE
8
DEFAULT_255_2_778
10
16.0666751
20
9.7550687
11
16.0666751
21
5.6323687
0
LINE
8
DEFAULT_255_2_778
10
16.0666751
20
5.6323687
11
22.8166751
21
5.6323687
0
LINE
8
DEFAULT_255_2_778
10
22.8166751
20
5.6323687
11
22.8166751
21
8.0572687
0
LINE
8
DEFAULT_255_2_778
10
23.3168688
20
9.0528458
11
23.3168688
21
8.0569458
0
LINE
8
DEFAULT_255_2_778
10
23.3168688
20
8.0569458
11
22.8167688
21
8.0569458
0
LINE
8
DEFAULT_255_2_778
10
23.3168688
20
13.513
11
22.8167688
21
13.513
0
LINE
8
DEFAULT_255_2_778
10
16.0667
20
9.7550791
11
16.0667
21
12.2072791
0
LINE
8
DEFAULT_255_2_778
10
16.0667
20
15.9156999
11
16.0667
21
12.2072999
0
LINE
8
DEFAULT_255_2_778
10
15.5666688
20
9.7550791
11
15.5666688
21
15.9156791
0
LINE
8
DEFAULT_255_2_778
10
15.5666688
20
15.9156791
11
16.0667688
21
15.9156791
0
LINE
8
DEFAULT_255_2_778
10
15.5666449
20
4.8743
11
23.3165449
21
4.8743
0
LINE
8
DEFAULT_255_2_778
10
23.3168
20
6.5409052
11
23.3168
21
4.8743052
0
LINE
8
DEFAULT_255_2_778
10
15.5666449
20
4.8742958
11
15.5666449
21
4.0942958
0
LINE
8
DEFAULT_255_2_778
10
15.5666449
20
4.0942958
11
23.3165449
21
4.0942958
0
LINE
8
DEFAULT_255_2_778
10
23.3165449
20
4.0942958
11
23.3165449
21
4.8742958
0
LINE
8
DEFAULT_255_2_778
10
15.5666
20
9.755052
11
15.5666
21
4.874552
0
LINE
8
DEFAULT_255_2_778
10
25.8166
20
9.7550698
11
25.8166
21
9.0531698
0
LINE
8
DEFAULT_255_2_778
10
23.3167761
20
9.0529
11
25.8167761
21
9.0529
0
LINE
8
DEFAULT_255_2_778
10
23.3167761
20
6.540877
11
23.3167761
21
7.320877
0
LINE
8
DEFAULT_255_2_778
10
23.3167761
20
7.320877
11
25.8167761
21
7.320877
0
LINE
8
DEFAULT_255_2_778
10
25.8167761
20
7.320877
11
25.8167761
21
9.052877
0
LINE
8
DEFAULT_255_2_778
10
25.8166
20
13.4690854
11
25.8166
21
12.5170854
0
LINE
8
DEFAULT_255_2_778
10
25.8166
20
11.1780281
11
25.8166
21
12.5171281
0
LINE
8
DEFAULT_255_2_778
10
24.5666542
20
12.5171
11
25.8165542
21
12.5171
0
LINE
8
DEFAULT_255_2_778
10
23.3167761
20
13.469
11
25.8167761
21
13.469
0
LINE
8
DEFAULT_255_2_778
10
26.0766573
20
12.5162823
11
26.0766573
21
13.4690823
0
LINE
8
DEFAULT_255_2_778
10
26.0766573
20
13.4690823
11
25.8165573
21
13.4690823
0
LINE
8
DEFAULT_255_2_778
10
25.8166
20
9.7551646
11
25.8166
21
11.1780646
0
LINE
8
DEFAULT_255_2_778
10
24.5666542
20
12.5171281
11
24.5666542
21
11.1780281
0
LINE
8
DEFAULT_255_2_778
10
24.5666542
20
11.1780281
11
25.8165542
21
11.1780281
0
LINE
8
DEFAULT_255_2_778
10
26.0769334
20
7.49365
11
26.0769334
21
6.54115
0
LINE
8
DEFAULT_255_2_778
10
26.0769334
20
6.54115
11
23.3168334
21
6.54115
0
LINE
8
DEFAULT_255_2_778
10
23.3168
20
13.4690604
11
23.3168
21
13.5129604
0
LINE
8
DEFAULT_255_2_778
10
23.3168
20
9.7550698
11
23.3168
21
9.0531698
0
LINE
8
DEFAULT_255_2_778
10
23.3168
20
13.4690854
11
23.3168
21
12.5170854
0
LINE
8
DEFAULT_255_2_778
10
23.3168
20
9.7550927
11
23.3168
21
12.5170927
0
LINE
8
DEFAULT_255_2_778
10
24.5670219
20
12.5171
11
23.3168219
21
12.5171
0
LINE
8
DEFAULT_255_2_778
10
34.1417636
20
5.7096218
11
31.4416636
21
3.6832218
0
LINE
8
DEFAULT_255_2_778
10
13.3417596
20
3.6832
11
31.4416596
21
3.6832
0
LINE
8
DEFAULT_255_2_778
10
31.4416
20
3.4332024
11
31.4416
21
3.6832024
0
LINE
8
DEFAULT_255_2_778
10
34.1417
20
9.7551395
11
34.1417
21
5.7096395
0
LINE
8
DEFAULT_255_2_778
10
31.4416636
20
3.4332242
11
34.1417636
21
5.4596242
0
LINE
8
DEFAULT_255_2_778
10
34.1417636
20
5.4596242
11
34.1417636
21
5.7096242
0
LINE
8
DEFAULT_255_2_778
10
26.0767
20
9.7550968
11
26.0767
21
7.4936968
0
LINE
8
DEFAULT_255_2_778
10
28.8367334
20
9.7550968
11
28.8367334
21
7.4936968
0
LINE
8
DEFAULT_255_2_778
10
28.8367334
20
7.4936968
11
26.0766334
21
7.4936968
0
LINE
8
DEFAULT_255_2_778
10
26.0766657
20
12.5165281
11
28.8365657
21
12.5165281
0
LINE
8
DEFAULT_255_2_778
10
28.8365657
20
12.5165281
11
28.8365657
21
9.7550281
0
LINE
8
DEFAULT_255_2_778
10
26.0767
20
9.7550281
11
26.0767
21
12.5165281
0
LINE
8
DEFAULT_255_2_778
10
13.3417232
20
9.755077
11
13.3417232
21
16.077077
0
LINE
8
DEFAULT_255_2_778
10
13.3417232
20
16.077077
11
31.4416232
21
16.077077
0
LINE
8
DEFAULT_255_2_778
10
31.4416232
20
16.077077
11
34.1417232
21
14.050677
0
LINE
8
DEFAULT_255_2_778
10
34.1417232
20
14.050677
11
34.1417232
21
9.755077
0
LINE
8
DEFAULT_255_2_778
10
13.3417
20
3.6831614
11
13.3417
21
9.7550614
0
LINE
8
DEFAULT_255_2_778
10
31.4416596
20
3.4332024
11
13.3417596
21
3.4332024
0
LINE
8
DEFAULT_255_2_778
10
13.3417596
20
3.4332024
11
13.3417596
21
3.6832024
0
LINE
8
DEFAULT_255_2_778
10
37.0418073
20
3.2889
11
39.0418073
21
3.2889
0
LINE
8
DEFAULT_255_2_778
10
25.0916688
20
58.8551312
11
25.0916688
21
53.6052312
0
LINE
8
DEFAULT_255_2_778
10
25.0916688
20
53.6052312
11
19.8417688
21
53.6052312
0
LINE
8
DEFAULT_255_2_778
10
14.5916365
20
58.8551312
11
14.5916365
21
53.6052312
0
LINE
8
DEFAULT_255_2_778
10
14.5916365
20
53.6052312
11
19.8417365
21
53.6052312
0
LINE
8
DEFAULT_255_2_778
10
19.8417688
20
64.1049635
11
25.0916688
21
64.1049635
0
LINE
8
DEFAULT_255_2_778
10
25.0916688
20
64.1049635
11
25.0916688
21
58.8548635
0
LINE
8
DEFAULT_255_2_778
10
14.5916365
20
58.8548635
11
14.5916365
21
64.1049635
0
LINE
8
DEFAULT_255_2_778
10
14.5916365
20
64.1049635
11
19.8417365
21
64.1049635
0
LINE
8
DEFAULT_255_2_778
10
19.841748
20
54.6299333
11
22.131748
21
54.6299333
0
LINE
8
DEFAULT_255_2_778
10
22.131748
20
54.6299333
11
23.731648
21
56.2299333
0
LINE
8
DEFAULT_255_2_778
10
23.731648
20
56.2299333
11
23.731648
21
58.8548333
0
LINE
8
DEFAULT_255_2_778
10
19.841748
20
63.0800333
11
22.131748
21
63.0800333
0
LINE
8
DEFAULT_255_2_778
10
22.131748
20
63.0800333
11
23.731648
21
61.4801333
0
LINE
8
DEFAULT_255_2_778
10
23.731648
20
61.4801333
11
23.731648
21
58.8551333
0
LINE
8
DEFAULT_255_2_778
10
15.951548
20
58.8548333
11
15.951548
21
63.0797333
0
LINE
8
DEFAULT_255_2_778
10
15.951548
20
63.0797333
11
19.841448
21
63.0797333
0
LINE
8
DEFAULT_255_2_778
10
19.841448
20
54.6299333
11
15.951548
21
54.6299333
0
LINE
8
DEFAULT_255_2_778
10
15.951548
20
54.6299333
11
15.951548
21
58.8548333
0
LINE
8
DEFAULT_255_2_778
10
21.3416386
20
58.8551427
11
21.3416386
21
56.0550427
0
LINE
8
DEFAULT_255_2_778
10
21.3416386
20
56.0550427
11
19.8417386
21
56.0550427
0
LINE
8
DEFAULT_255_2_778
10
18.3418386
20
58.8551427
11
18.3418386
21
56.0550427
0
LINE
8
DEFAULT_255_2_778
10
18.3418386
20
56.0550427
11
19.8417386
21
56.0550427
0
LINE
8
DEFAULT_255_2_778
10
19.8417386
20
61.6549427
11
21.3416386
21
61.6549427
0
LINE
8
DEFAULT_255_2_778
10
21.3416386
20
61.6549427
11
21.3416386
21
58.8548427
0
LINE
8
DEFAULT_255_2_778
10
18.3418386
20
58.8548427
11
18.3418386
21
61.6549427
0
LINE
8
DEFAULT_255_2_778
10
18.3418386
20
61.6549427
11
19.8417386
21
61.6549427
0
ENDSEC
0
EOF