0
SECTION
2
HEADER
9
$MEASUREMENT
70
1
0
ENDSEC
0
SECTION
2
TABLES
0
TABLE
2
LTYPE
0
LTYPE
72
65
70
64
2
CONTINUOUS
3
______
73
0
40
0
0
ENDTAB
0
TABLE
2
LAYER
0
LAYER
2
DEFAULT_255_2_778
70
0
62
255
6
CONTINUOUS
0
LAYER
2
DEFAULT_255_1_604
70
0
62
255
6
CONTINUOUS
0
LAYER
2
DEFAULT_255_1_234
70
0
62
255
6
CONTINUOUS
0
ENDTAB
0
ENDSEC
0
SECTION
2
ENTITIES
0
ARC
8
DEFAULT_255_2_778
10
3.5700693
20
28.1802037
40
0.7914215
50
129.1312896
51
180.1450914
0
ARC
8
DEFAULT_255_2_778
10
3.5703345
20
28.1806908
40
0.7912112
50
89.854026
51
129.1684493
0
ARC
8
DEFAULT_255_2_778
10
25.7993937
20
28.1803773
40
0.7915249
50
39.4792447
51
90.147911
0
ARC
8
DEFAULT_255_2_778
10
25.7999935
20
28.180224
40
0.7911595
50
359.8533901
51
39.5154338
0
ARC
8
DEFAULT_255_2_778
10
25.7996693
20
-1.9863486
40
0.7914836
50
309.4761667
51
0.1482649
0
ARC
8
DEFAULT_255_2_778
10
25.799398
20
-1.9867797
40
0.7913235
50
269.8517415
51
309.511178
0
ARC
8
DEFAULT_255_2_778
10
3.570342
20
-1.9867215
40
0.7913815
50
219.1282118
51
270.1454017
0
ARC
8
DEFAULT_255_2_778
10
3.5700247
20
-1.986339
40
0.7913769
50
179.8524075
51
219.1641908
0
LINE
8
DEFAULT_255_2_778
10
3.5723503
20
28.9718996
11
25.7973503
21
28.9718996
0
LINE
8
DEFAULT_255_2_778
10
26.5911503
20
28.1781996
11
26.5911503
21
-1.9843004
0
LINE
8
DEFAULT_255_2_778
10
25.7973503
20
-2.7781004
11
3.5723503
21
-2.7781004
0
LINE
8
DEFAULT_255_2_778
10
2.7786503
20
-1.9843004
11
2.7786503
21
28.1781996
0
LINE
8
DEFAULT_255_1_604
10
10.0114902
20
0.8092977
11
10.0114902
21
-0.7109
0
LINE
8
DEFAULT_255_1_604
10
10.0114902
20
-0.7109
11
9.8099805
21
-0.7109
0
LINE
8
DEFAULT_255_1_604
10
9.8099805
20
-0.7109
11
9.0446612
21
0.460571
0
LINE
8
DEFAULT_255_1_604
10
9.0446612
20
0.460571
11
9.0446612
21
-0.7109
0
LINE
8
DEFAULT_255_1_604
10
9.0446612
20
-0.7109
11
8.8431515
21
-0.7109
0
LINE
8
DEFAULT_255_1_604
10
8.8431515
20
-0.7109
11
8.8431515
21
0.8092977
0
LINE
8
DEFAULT_255_1_604
10
8.8431515
20
0.8092977
11
9.0446612
21
0.8092977
0
LINE
8
DEFAULT_255_1_604
10
9.0446612
20
0.8092977
11
9.8120687
21
-0.3673938
0
LINE
8
DEFAULT_255_1_604
10
9.8120687
20
-0.3673938
11
9.8120687
21
0.8092977
0
LINE
8
DEFAULT_255_1_604
10
9.8120687
20
0.8092977
11
10.0114902
21
0.8092977
0
LINE
8
DEFAULT_255_1_604
10
10.5147425
20
0.8092977
11
10.8812187
21
0.2266944
0
LINE
8
DEFAULT_255_1_604
10
10.8812187
20
0.2266944
11
11.2456067
21
0.8092977
0
LINE
8
DEFAULT_255_1_604
10
11.2456067
20
0.8092977
11
11.4815715
21
0.8092977
0
LINE
8
DEFAULT_255_1_604
10
11.4815715
20
0.8092977
11
11.0012893
21
0.0554634
0
LINE
8
DEFAULT_255_1_604
10
11.0012893
20
0.0554634
11
11.4930565
21
-0.7109
0
LINE
8
DEFAULT_255_1_604
10
11.4930565
20
-0.7109
11
11.2550036
21
-0.7109
0
LINE
8
DEFAULT_255_1_604
10
11.2550036
20
-0.7109
11
10.8812187
21
-0.1178559
0
LINE
8
DEFAULT_255_1_604
10
10.8812187
20
-0.1178559
11
10.5053457
21
-0.7109
0
LINE
8
DEFAULT_255_1_604
10
10.5053457
20
-0.7109
11
10.2683368
21
-0.7109
0
LINE
8
DEFAULT_255_1_604
10
10.2683368
20
-0.7109
11
10.7611481
21
0.0554634
0
LINE
8
DEFAULT_255_1_604
10
10.7611481
20
0.0554634
11
10.2798218
21
0.8092977
0
LINE
8
DEFAULT_255_1_604
10
10.2798218
20
0.8092977
11
10.5147425
21
0.8092977
0
LINE
8
DEFAULT_255_1_604
10
12.0495574
20
0.0136997
11
12.0495574
21
-0.1439582
0
LINE
8
DEFAULT_255_1_604
10
12.0495574
20
-0.1439582
11
11.5400406
21
-0.1439582
0
LINE
8
DEFAULT_255_1_604
10
11.5400406
20
-0.1439582
11
11.5400406
21
0.0136997
0
LINE
8
DEFAULT_255_1_604
10
11.5400406
20
0.0136997
11
12.0495574
21
0.0136997
0
LINE
8
DEFAULT_255_1_604
10
12.3387708
20
0.8092977
11
12.7710249
21
-0.4446566
0
LINE
8
DEFAULT_255_1_604
10
12.7710249
20
-0.4446566
11
13.205367
21
0.8092977
0
LINE
8
DEFAULT_255_1_604
10
13.205367
20
0.8092977
11
13.4246263
21
0.8092977
0
LINE
8
DEFAULT_255_1_604
10
13.4246263
20
0.8092977
11
12.8608167
21
-0.7109
0
LINE
8
DEFAULT_255_1_604
10
12.8608167
20
-0.7109
11
12.6833211
21
-0.7109
0
LINE
8
DEFAULT_255_1_604
10
12.6833211
20
-0.7109
11
12.1205557
21
0.8092977
0
LINE
8
DEFAULT_255_1_604
10
12.1205557
20
0.8092977
11
12.3387708
21
0.8092977
0
LINE
8
DEFAULT_255_1_604
10
14.3016634
20
0.8103417
11
14.3361185
21
0.8103417
0
LINE
8
DEFAULT_255_1_604
10
14.3361185
20
0.8103417
11
14.3361185
21
0.6464193
0
LINE
8
DEFAULT_255_1_604
10
14.3361185
20
0.6464193
11
14.3006193
21
0.6464193
0
LINE
8
DEFAULT_255_1_604
10
13.5895928
20
-0.1324731
11
13.5895928
21
-0.0583426
0
LINE
8
DEFAULT_255_1_604
10
13.7837939
20
-0.0834008
11
13.7837939
21
-0.1543991
0
ARC
8
DEFAULT_255_1_604
10
14.3074241
20
-0.0032766
40
0.6497316
50
90.6000832
51
104.5146297
0
ARC
8
DEFAULT_255_1_604
10
14.2569225
20
0.1845298
40
0.4552658
50
104.2855267
51
133.8630714
0
ARC
8
DEFAULT_255_1_604
10
14.2782105
20
0.1704494
40
0.4802017
50
134.5302776
51
161.6211184
0
ARC
8
DEFAULT_255_1_604
10
14.4931326
20
0.0946661
40
0.7080677
50
161.2850611
51
174.2074729
0
ARC
8
DEFAULT_255_1_604
10
14.6768255
20
0.0693552
40
0.893402
50
173.7814907
51
174.9248506
0
ARC
8
DEFAULT_255_1_604
10
14.0845121
20
-0.1103414
40
0.3943324
50
95.8331611
51
138.9954585
0
ARC
8
DEFAULT_255_1_604
10
14.1135468
20
-0.2765672
40
0.5627761
50
89.8753659
51
97.0539913
0
ARC
8
DEFAULT_255_1_604
10
14.1197173
20
-0.1679401
40
0.4541748
50
71.6407637
51
90.624006
0
ARC
8
DEFAULT_255_1_604
10
14.1392916
20
-0.0958793
40
0.3796388
50
39.6367886
51
71.0190541
0
ARC
8
DEFAULT_255_1_604
10
14.0565447
20
-0.1673887
40
0.4889851
50
10.6587975
51
39.9044015
0
ARC
8
DEFAULT_255_1_604
10
13.855316
20
-0.2111093
40
0.694852
50
359.6827733
51
11.1326812
0
ARC
8
DEFAULT_255_1_604
10
13.8501484
20
-0.2202951
40
0.7000292
50
347.2485661
51
0.4369619
0
ARC
8
DEFAULT_255_1_604
10
14.0669064
20
-0.2724498
40
0.4771152
50
318.1408756
51
347.611859
0
ARC
8
DEFAULT_255_1_604
10
14.1091525
20
-0.3071711
40
0.4224878
50
275.634222
51
317.8247771
0
ARC
8
DEFAULT_255_1_604
10
14.0804381
20
-0.1382352
40
0.5935479
50
269.8874263
51
276.7917079
0
ARC
8
DEFAULT_255_1_604
10
14.0732969
20
-0.2715496
40
0.4602711
50
246.9139864
51
270.7437966
0
ARC
8
DEFAULT_255_1_604
10
14.0741316
20
-0.2900489
40
0.4436529
50
218.1667392
51
245.8779694
0
ARC
8
DEFAULT_255_1_604
10
14.1884556
20
-0.1943908
40
0.5926658
50
191.4115405
51
218.6076887
0
ARC
8
DEFAULT_255_1_604
10
14.4403867
20
-0.1379025
40
0.8508112
50
179.6343721
51
191.78367
0
ARC
8
DEFAULT_255_1_604
10
15.1660824
20
-0.0496524
40
1.5765135
50
171.4524999
51
180.3158318
0
ARC
8
DEFAULT_255_1_604
10
14.5947168
20
0.0392588
40
0.9982837
50
157.9802049
51
171.6248009
0
ARC
8
DEFAULT_255_1_604
10
14.3069256
20
0.1540149
40
0.6884621
50
141.4298684
51
157.8540769
0
ARC
8
DEFAULT_255_1_604
10
14.223506
20
0.2130305
40
0.5864756
50
102.8715332
51
140.8565167
0
ARC
8
DEFAULT_255_1_604
10
14.3076925
20
-0.1041311
40
0.9144928
50
90.3777448
51
103.5869442
0
ARC
8
DEFAULT_255_1_604
10
14.0817326
20
-0.1827615
40
0.3081798
50
89.8751467
51
126.2073013
0
ARC
8
DEFAULT_255_1_604
10
14.0876805
20
-0.2028334
40
0.3279651
50
124.9742745
51
144.8960214
0
ARC
8
DEFAULT_255_1_604
10
14.0648311
20
-0.184215
40
0.2985723
50
145.2974858
51
160.2659776
0
ARC
8
DEFAULT_255_1_604
10
14.4642406
20
-0.1585401
40
0.6804593
50
179.651315
51
190.285586
0
ARC
8
DEFAULT_255_1_604
10
14.2440468
20
-0.2000457
40
0.4563955
50
190.0945246
51
207.5100169
0
ARC
8
DEFAULT_255_1_604
10
14.1704997
20
-0.2350396
40
0.3750121
50
207.9583664
51
216.3254093
0
ARC
8
DEFAULT_255_1_604
10
14.1263259
20
-0.2713703
40
0.3179167
50
215.7661473
51
232.5456418
0
ARC
8
DEFAULT_255_1_604
10
14.0765351
20
-0.3346288
40
0.2374228
50
232.8006051
51
270.6604754
0
ARC
8
DEFAULT_255_1_604
10
14.0824769
20
-0.2873029
40
0.2847509
50
269.3550916
51
288.4747303
0
ARC
8
DEFAULT_255_1_604
10
14.094552
20
-0.3327272
40
0.2378594
50
289.1833058
51
322.9683803
0
ARC
8
DEFAULT_255_1_604
10
14.0150683
20
-0.2700365
40
0.3390743
50
322.6005668
51
346.5184776
0
ARC
8
DEFAULT_255_1_604
10
13.8645905
20
-0.2316543
40
0.494359
50
346.2584658
51
358.7740518
0
ARC
8
DEFAULT_255_1_604
10
13.7317612
20
-0.2244515
40
0.6273272
50
358.3759058
51
0.0089746
0
ARC
8
DEFAULT_255_1_604
10
13.8305429
20
-0.2208583
40
0.5285572
50
359.6211517
51
11.2840036
0
ARC
8
DEFAULT_255_1_604
10
13.9965481
20
-0.1862297
40
0.358988
50
11.0483326
51
31.8145783
0
ARC
8
DEFAULT_255_1_604
10
14.0367435
20
-0.1644366
40
0.3133542
50
32.3029694
51
38.0825427
0
ARC
8
DEFAULT_255_1_604
10
14.0914092
20
-0.1149129
40
0.2398374
50
36.8249897
51
85.7415937
0
ARC
8
DEFAULT_255_1_604
10
14.0826799
20
-0.179908
40
0.3053257
50
85.0136622
51
90.0517472
0
ARC
8
DEFAULT_255_1_604
10
15.3338688
20
0.409234
40
0.3668925
50
338.8763729
51
0.5167251
0
ARC
8
DEFAULT_255_1_604
10
15.3557792
20
0.4033269
40
0.3443338
50
325.8415166
51
338.4793638
0
ARC
8
DEFAULT_255_1_604
10
15.30501
20
0.4385279
40
0.40611
50
296.7587111
51
325.7537138
0
ARC
8
DEFAULT_255_1_604
10
15.2665813
20
0.5035395
40
0.4814878
50
296.0931432
51
297.3588212
0
ARC
8
DEFAULT_255_1_604
10
15.3010555
20
-0.3505438
40
0.457427
50
47.9007843
51
67.1946592
0
ARC
8
DEFAULT_255_1_604
10
15.3265581
20
-0.3185271
40
0.4165816
50
35.2362963
51
47.5511602
0
ARC
8
DEFAULT_255_1_604
10
15.3605758
20
-0.295824
40
0.3756997
50
359.2758988
51
35.4014679
0
ARC
8
DEFAULT_255_1_604
10
15.2637356
20
-0.305336
40
0.472534
50
343.1293175
51
0.577662
0
ARC
8
DEFAULT_255_1_604
10
15.3579216
20
-0.3312708
40
0.3748834
50
310.8496168
51
342.7448899
0
ARC
8
DEFAULT_255_1_604
10
15.3035965
20
-0.269266
40
0.4573188
50
281.5473228
51
310.9169257
0
ARC
8
DEFAULT_255_1_604
10
15.2572481
20
-0.0674246
40
0.6643718
50
269.6190718
51
281.9790662
0
ARC
8
DEFAULT_255_1_604
10
15.2478597
20
-0.0673015
40
0.6644989
50
257.4585849
51
270.4286515
0
ARC
8
DEFAULT_255_1_604
10
15.1983485
20
-0.2757595
40
0.4502743
50
228.7554124
51
257.8484917
0
ARC
8
DEFAULT_255_1_604
10
15.1580764
20
-0.3242351
40
0.3872784
50
184.0104582
51
228.5071502
0
ARC
8
DEFAULT_255_1_604
10
15.3092642
20
-0.3012163
40
0.5398481
50
179.9316146
51
185.3254154
0
ARC
8
DEFAULT_255_1_604
10
15.1563322
20
-0.2963445
40
0.3869388
50
145.6795705
51
180.6259932
0
ARC
8
DEFAULT_255_1_604
10
15.1775683
20
-0.311174
40
0.412839
50
115.5538007
51
145.6415019
0
ARC
8
DEFAULT_255_1_604
10
15.2217628
20
-0.3903185
40
0.503338
50
113.2428575
51
116.2062682
0
ARC
8
DEFAULT_255_1_604
10
15.2020279
20
0.4412003
40
0.4101078
50
222.9548584
51
244.1370768
0
ARC
8
DEFAULT_255_1_604
10
15.1861622
20
0.4234103
40
0.3863797
50
213.3436453
51
222.6272712
0
ARC
8
DEFAULT_255_1_604
10
15.1612083
20
0.4064539
40
0.3562136
50
180.4317132
51
213.2714092
0
ARC
8
DEFAULT_255_1_604
10
15.2345912
20
0.4125345
40
0.4296757
50
179.9989027
51
181.1688175
0
ARC
8
DEFAULT_255_1_604
10
15.2891812
20
0.4170162
40
0.4842862
50
164.6187304
51
180.5292567
0
ARC
8
DEFAULT_255_1_604
10
15.1724276
20
0.4484131
40
0.3633874
50
132.2456442
51
164.5090792
0
ARC
8
DEFAULT_255_1_604
10
15.2097472
20
0.4061556
40
0.4197603
50
100.7053542
51
132.1386782
0
ARC
8
DEFAULT_255_1_604
10
15.2493911
20
0.2270362
40
0.6031531
50
89.6732277
51
101.2450234
0
ARC
8
DEFAULT_255_1_604
10
15.2574779
20
0.2497758
40
0.5804222
50
76.2875495
51
90.4587098
0
ARC
8
DEFAULT_255_1_604
10
15.297287
20
0.4086546
40
0.4166365
50
47.8239038
51
76.4267755
0
ARC
8
DEFAULT_255_1_604
10
15.3262163
20
0.4424991
40
0.3721336
50
6.9168316
51
47.6261235
0
ARC
8
DEFAULT_255_1_604
10
15.1719785
20
0.4140031
40
0.5287699
50
359.841768
51
7.9694751
0
ARC
8
DEFAULT_255_1_604
10
15.2164135
20
-0.2932326
40
0.3266904
50
359.4452577
51
16.9257439
0
ARC
8
DEFAULT_255_1_604
10
15.2773542
20
-0.276449
40
0.2635085
50
17.2921862
51
45.4628711
0
ARC
8
DEFAULT_255_1_604
10
15.2703237
20
-0.2825091
40
0.27276
50
45.3030271
51
83.1920817
0
ARC
8
DEFAULT_255_1_604
10
15.2516935
20
-0.3866949
40
0.3784698
50
82.2612157
51
90.1439096
0
ARC
8
DEFAULT_255_1_604
10
15.2476793
20
-0.3564079
40
0.3481952
50
89.4958882
51
104.8579578
0
ARC
8
DEFAULT_255_1_604
10
15.2247047
20
-0.269321
40
0.258129
50
104.8856244
51
135.2445949
0
ARC
8
DEFAULT_255_1_604
10
15.2311747
20
-0.275111
40
0.2668004
50
135.3399058
51
172.1043159
0
ARC
8
DEFAULT_255_1_604
10
15.3360788
20
-0.295183
40
0.3735072
50
171.265028
51
180.1859981
0
ARC
8
DEFAULT_255_1_604
10
15.3140851
20
-0.2993673
40
0.3515242
50
179.5156285
51
193.6466295
0
ARC
8
DEFAULT_255_1_604
10
15.2079728
20
-0.3264023
40
0.2420322
50
193.3539475
51
225.8257247
0
ARC
8
DEFAULT_255_1_604
10
15.213272
20
-0.3172053
40
0.2523347
50
226.4179402
51
255.8553289
0
ARC
8
DEFAULT_255_1_604
10
15.2466049
20
-0.1954788
40
0.3785249
50
255.4654246
51
268.7988805
0
ARC
8
DEFAULT_255_1_604
10
15.2527505
20
-0.0862148
40
0.4879091
50
268.3463162
51
270.0094635
0
ARC
8
DEFAULT_255_1_604
10
15.2557801
20
-0.1754165
40
0.3987183
50
269.5762193
51
282.082206
0
ARC
8
DEFAULT_255_1_604
10
15.2850199
20
-0.304688
40
0.2661947
50
281.7520978
51
306.6054272
0
ARC
8
DEFAULT_255_1_604
10
15.2978216
20
-0.3256707
40
0.2417272
50
307.1352567
51
314.0284305
0
ARC
8
DEFAULT_255_1_604
10
15.2931457
20
-0.3222434
40
0.2474433
50
314.2553381
51
350.169373
0
ARC
8
DEFAULT_255_1_604
10
15.1824589
20
-0.2982404
40
0.3606343
50
349.4143246
51
0.2931006
0
ARC
8
DEFAULT_255_1_604
10
15.2501043
20
0.3723984
40
0.2990916
50
89.4776354
51
105.7297286
0
ARC
8
DEFAULT_255_1_604
10
15.2324141
20
0.4380848
40
0.2310705
50
105.9231042
51
135.1663405
0
ARC
8
DEFAULT_255_1_604
10
15.2350807
20
0.436236
40
0.2342659
50
135.305498
51
168.9880898
0
ARC
8
DEFAULT_255_1_604
10
15.3426598
20
0.4115769
40
0.3445938
50
168.3801879
51
180.3602069
0
ARC
8
DEFAULT_255_1_604
10
15.3129744
20
0.4066798
40
0.3149136
50
179.5031726
51
194.9124576
0
ARC
8
DEFAULT_255_1_604
10
15.236877
20
0.38667
40
0.2362298
50
194.9724222
51
224.194202
0
ARC
8
DEFAULT_255_1_604
10
15.2332174
20
0.3836866
40
0.2315265
50
224.2961627
51
262.015676
0
ARC
8
DEFAULT_255_1_604
10
15.2517065
20
0.4787515
40
0.3282778
50
261.1246167
51
270.1962689
0
ARC
8
DEFAULT_255_1_604
10
15.2555759
20
0.4544281
40
0.3039647
50
269.4825946
51
285.0987516
0
ARC
8
DEFAULT_255_1_604
10
15.2756163
20
0.3792433
40
0.2261554
50
285.158515
51
315.9483981
0
ARC
8
DEFAULT_255_1_604
10
15.264046
20
0.3898902
40
0.2418743
50
316.0414373
51
351.9160812
0
ARC
8
DEFAULT_255_1_604
10
15.1687499
20
0.4082664
40
0.3388416
50
351.1056384
51
0.1934666
0
ARC
8
DEFAULT_255_1_604
10
15.2029239
20
0.4121819
40
0.3046782
50
359.478814
51
16.0678846
0
ARC
8
DEFAULT_255_1_604
10
15.2647963
20
0.4288787
40
0.240604
50
16.3251362
51
44.7914698
0
ARC
8
DEFAULT_255_1_604
10
15.2624914
20
0.4289471
40
0.2421974
50
44.3958186
51
88.2499193
0
ARC
8
DEFAULT_255_1_604
10
15.2529396
20
0.3493835
40
0.3220942
50
86.983737
51
90.0193147
0
LINE
8
DEFAULT_255_1_604
10
16.9327748
20
0.188063
11
16.9327748
21
-0.062519
0
LINE
8
DEFAULT_255_1_604
10
15.9732544
20
-0.0886213
11
15.9732544
21
0.1692694
0
LINE
8
DEFAULT_255_1_604
10
16.7396178
20
-0.1147236
11
16.7396178
21
0.2016362
0
LINE
8
DEFAULT_255_1_604
10
16.1664114
20
0.2162535
11
16.1664114
21
-0.0927977
0
ARC
8
DEFAULT_255_1_604
10
15.3407494
20
-0.068878
40
1.5920381
50
353.844072
51
0.228855
0
ARC
8
DEFAULT_255_1_604
10
15.9437912
20
-0.1362082
40
0.985256
50
344.4935621
51
353.9763669
0
ARC
8
DEFAULT_255_1_604
10
16.3328392
20
-0.2468164
40
0.5808042
50
329.280406
51
344.7472378
0
ARC
8
DEFAULT_255_1_604
10
16.4618813
20
-0.3176461
40
0.4337163
50
324.9354918
51
328.6160618
0
ARC
8
DEFAULT_255_1_604
10
16.5109275
20
-0.3519263
40
0.3738777
50
280.5801844
51
324.9173532
0
ARC
8
DEFAULT_255_1_604
10
16.4587705
20
-0.1347232
40
0.5970733
50
269.5979407
51
281.673183
0
ARC
8
DEFAULT_255_1_604
10
16.4493986
20
-0.1503484
40
0.5814565
50
256.6227814
51
270.5106393
0
ARC
8
DEFAULT_255_1_604
10
16.39714
20
-0.3516071
40
0.3735921
50
215.8618579
51
257.278794
0
ARC
8
DEFAULT_255_1_604
10
16.5298736
20
-0.2625451
40
0.5333683
50
197.9694693
51
215.2623127
0
ARC
8
DEFAULT_255_1_604
10
16.8529321
20
-0.1535133
40
0.8743151
50
187.8817462
51
198.2346499
0
ARC
8
DEFAULT_255_1_604
10
17.3674797
20
-0.0792385
40
1.3941903
50
180.897698
51
188.0055977
0
ARC
8
DEFAULT_255_1_604
10
17.7461819
20
-0.0655135
40
1.7730781
50
180.7467329
51
181.1494316
0
ARC
8
DEFAULT_255_1_604
10
17.5263968
20
0.1755482
40
1.5531551
50
173.7674183
51
180.231626
0
ARC
8
DEFAULT_255_1_604
10
16.939175
20
0.2419192
40
0.9622012
50
164.3059658
51
173.90004
0
ARC
8
DEFAULT_255_1_604
10
16.560618
20
0.3509853
40
0.5682604
50
148.7923002
51
164.5681503
0
ARC
8
DEFAULT_255_1_604
10
16.4370531
20
0.4199573
40
0.4268683
50
144.5889551
51
148.1167696
0
ARC
8
DEFAULT_255_1_604
10
16.3923082
20
0.4511732
40
0.3723131
50
101.6440547
51
144.5142428
0
ARC
8
DEFAULT_255_1_604
10
16.4475643
20
0.2315799
40
0.5986198
50
89.5282941
51
102.5819087
0
ARC
8
DEFAULT_255_1_604
10
16.4578466
20
0.2265003
40
0.6037029
50
77.0438328
51
90.5081498
0
ARC
8
DEFAULT_255_1_604
10
16.5101048
20
0.4400324
40
0.3839026
50
48.2778225
51
77.4994431
0
ARC
8
DEFAULT_255_1_604
10
16.5195512
20
0.4568214
40
0.3651082
50
36.3142913
51
47.6308229
0
ARC
8
DEFAULT_255_1_604
10
16.4066209
20
0.3807417
40
0.5011918
50
18.293146
51
35.6769135
0
ARC
8
DEFAULT_255_1_604
10
16.0760008
20
0.2672628
40
0.8507313
50
8.0247336
51
18.560474
0
ARC
8
DEFAULT_255_1_604
10
15.534883
20
0.1873466
40
1.3977114
50
1.1273293
51
8.1720346
0
ARC
8
DEFAULT_255_1_604
10
15.1142744
20
0.1708359
40
1.818582
50
0.5427621
51
1.3866942
0
ARC
8
DEFAULT_255_1_604
10
15.350929
20
0.2062639
40
1.3886965
50
359.8090701
51
4.9407098
0
ARC
8
DEFAULT_255_1_604
10
15.8982366
20
0.2551113
40
0.8392168
50
4.8363061
51
12.2905023
0
ARC
8
DEFAULT_255_1_604
10
16.2563963
20
0.334912
40
0.4722819
50
12.0805216
51
23.8174133
0
ARC
8
DEFAULT_255_1_604
10
16.4089731
20
0.3995113
40
0.3066226
50
24.2876241
51
31.394091
0
ARC
8
DEFAULT_255_1_604
10
16.4771795
20
0.444143
40
0.2251665
50
30.7407096
51
82.4657698
0
ARC
8
DEFAULT_255_1_604
10
16.4537974
20
0.3292841
40
0.3421959
50
81.1060461
51
90.2184888
0
ARC
8
DEFAULT_255_1_604
10
16.4491562
20
0.3628568
40
0.3086387
50
89.3806266
51
105.6762951
0
ARC
8
DEFAULT_255_1_604
10
16.4253191
20
0.4495155
40
0.2187631
50
105.798058
51
149.7387379
0
ARC
8
DEFAULT_255_1_604
10
16.5636513
20
0.3663649
40
0.3801546
50
149.420947
51
163.6284234
0
ARC
8
DEFAULT_255_1_604
10
16.8354672
20
0.2834672
40
0.6643218
50
163.3764959
51
172.1410516
0
ARC
8
DEFAULT_255_1_604
10
17.2644932
20
0.2220213
40
1.0977224
50
172.0259084
51
178.0704914
0
ARC
8
DEFAULT_255_1_604
10
17.6593757
20
0.2033306
40
1.49302
50
177.8638579
51
179.5040659
0
ARC
8
DEFAULT_255_1_604
10
17.5190466
20
-0.0975275
40
1.3526435
50
179.7996524
51
185.2459386
0
ARC
8
DEFAULT_255_1_604
10
16.9934032
20
-0.1473052
40
0.8246519
50
185.1410844
51
193.0081331
0
ARC
8
DEFAULT_255_1_604
10
16.6497759
20
-0.2285342
40
0.4715624
50
192.7897213
51
205.2508841
0
ARC
8
DEFAULT_255_1_604
10
16.5136757
20
-0.289308
40
0.3225565
50
205.7999823
51
211.2545647
0
ARC
8
DEFAULT_255_1_604
10
16.4456858
20
-0.3348771
40
0.2408189
50
210.3790492
51
238.400988
0
ARC
8
DEFAULT_255_1_604
10
16.4431554
20
-0.3287926
40
0.244734
50
239.6520455
51
265.9792338
0
ARC
8
DEFAULT_255_1_604
10
16.4542303
20
-0.241397
40
0.3327272
50
265.1320301
51
270.0603327
0
ARC
8
DEFAULT_255_1_604
10
16.4579729
20
-0.2835425
40
0.2906013
50
269.331179
51
287.2180041
0
ARC
8
DEFAULT_255_1_604
10
16.475892
20
-0.3489556
40
0.2228266
50
287.7957061
51
329.080821
0
ARC
8
DEFAULT_255_1_604
10
16.351405
20
-0.2712597
40
0.3695553
50
328.6637907
51
343.3324074
0
ARC
8
DEFAULT_255_1_604
10
16.0689224
20
-0.183261
40
0.6654171
50
343.0499757
51
351.9391695
0
ARC
8
DEFAULT_255_1_604
10
15.6182297
20
-0.1168208
40
1.1209764
50
351.8070082
51
357.7957543
0
ARC
8
DEFAULT_255_1_604
10
15.1981259
20
-0.0950282
40
1.5416177
50
357.5869373
51
359.2679819
0
LINE
8
DEFAULT_255_1_604
10
18.1470535
20
-0.2285296
11
18.3485632
21
-0.2285296
0
LINE
8
DEFAULT_255_1_604
10
17.1781363
20
-0.0217994
11
17.1781363
21
0.1243734
0
LINE
8
DEFAULT_255_1_604
10
18.3485632
20
0.3206627
11
18.1470535
21
0.3206627
0
LINE
8
DEFAULT_255_1_604
10
17.379646
20
0.119153
11
17.379646
21
-0.028064
0
ARC
8
DEFAULT_255_1_604
10
17.6360891
20
-0.1508937
40
0.7166915
50
340.1775576
51
353.7812106
0
ARC
8
DEFAULT_255_1_604
10
17.8403749
20
-0.2269796
40
0.4987141
50
311.4559504
51
340.4421488
0
ARC
8
DEFAULT_255_1_604
10
17.8360436
20
-0.2125602
40
0.5124271
50
282.4333086
51
310.7514973
0
ARC
8
DEFAULT_255_1_604
10
17.778942
20
0.0233955
40
0.7551593
50
269.9357733
51
282.8096752
0
ARC
8
DEFAULT_255_1_604
10
17.7722315
20
0.202638
40
0.9344198
50
269.9995741
51
270.3595627
0
ARC
8
DEFAULT_255_1_604
10
17.7653549
20
-0.1251877
40
0.6066331
50
250.7885824
51
270.6488458
0
ARC
8
DEFAULT_255_1_604
10
17.7434953
20
-0.2080322
40
0.521251
50
219.3628447
51
250.061101
0
ARC
8
DEFAULT_255_1_604
10
17.8512903
20
-0.1164224
40
0.6626984
50
193.5480378
51
219.5756113
0
ARC
8
DEFAULT_255_1_604
10
18.1596087
20
-0.0363598
40
0.981209
50
181.1220108
51
193.8755006
0
ARC
8
DEFAULT_255_1_604
10
18.4279963
20
-0.0219846
40
1.2498599
50
179.99151
51
181.5399535
0
ARC
8
DEFAULT_255_1_604
10
18.1881094
20
0.1292326
40
1.0099848
50
169.583756
51
180.2756585
0
ARC
8
DEFAULT_255_1_604
10
17.9492812
20
0.173361
40
0.7671142
50
155.0365328
51
169.6003042
0
ARC
8
DEFAULT_255_1_604
10
17.8016713
20
0.2445249
40
0.6032646
50
136.7831839
51
155.2472054
0
ARC
8
DEFAULT_255_1_604
10
17.7510267
20
0.2875472
40
0.5369068
50
121.7631907
51
136.4282303
0
ARC
8
DEFAULT_255_1_604
10
17.7685783
20
0.2551227
40
0.5737183
50
95.6460587
51
121.548908
0
ARC
8
DEFAULT_255_1_604
10
17.7890235
20
0.1110699
40
0.7191102
50
89.924257
51
96.1379577
0
ARC
8
DEFAULT_255_1_604
10
17.795578
20
0.1264691
40
0.7037327
50
76.6779318
51
90.4562576
0
ARC
8
DEFAULT_255_1_604
10
17.8467496
20
0.3332426
40
0.4907369
50
47.4858007
51
76.9288246
0
ARC
8
DEFAULT_255_1_604
10
17.8276368
20
0.3202476
40
0.5132589
50
16.5423853
51
46.8934164
0
ARC
8
DEFAULT_255_1_604
10
17.6186012
20
0.2515658
40
0.7332251
50
5.4074004
51
17.0363574
0
ARC
8
DEFAULT_255_1_604
10
17.4315932
20
0.2215239
40
0.7222963
50
7.8890383
51
15.9241503
0
ARC
8
DEFAULT_255_1_604
10
17.6898734
20
0.296523
40
0.4533522
50
15.7651386
51
27.9411443
0
ARC
8
DEFAULT_255_1_604
10
17.8334035
20
0.3733644
40
0.2905491
50
27.8167389
51
46.4005855
0
ARC
8
DEFAULT_255_1_604
10
17.8398603
20
0.3726241
40
0.2866793
50
47.4371997
51
75.0696919
0
ARC
8
DEFAULT_255_1_604
10
17.7997463
20
0.2329784
40
0.4319546
50
74.7008352
51
87.8127327
0
ARC
8
DEFAULT_255_1_604
10
17.7902232
20
0.0961229
40
0.5690901
50
87.3805145
51
90.0250812
0
ARC
8
DEFAULT_255_1_604
10
17.7852156
20
0.2487605
40
0.4164797
50
89.345352
51
108.5744563
0
ARC
8
DEFAULT_255_1_604
10
17.7674193
20
0.3155339
40
0.3475436
50
109.2999369
51
143.3037548
0
ARC
8
DEFAULT_255_1_604
10
17.8664785
20
0.2393572
40
0.4724957
50
143.0752268
51
163.191912
0
ARC
8
DEFAULT_255_1_604
10
18.1201995
20
0.1592881
40
0.7385381
50
162.9373961
51
174.620923
0
ARC
8
DEFAULT_255_1_604
10
18.4616431
20
0.1218498
40
1.0820005
50
174.3421243
51
180.1428039
0
ARC
8
DEFAULT_255_1_604
10
18.3405589
20
-0.0334019
40
0.9609277
50
179.6817205
51
189.1506051
0
ARC
8
DEFAULT_255_1_604
10
18.0154782
20
-0.0875472
40
0.631376
50
188.9910195
51
203.5773417
0
ARC
8
DEFAULT_255_1_604
10
17.8751275
20
-0.1457827
40
0.4794561
50
203.9076808
51
215.1312703
0
ARC
8
DEFAULT_255_1_604
10
17.755157
20
-0.2387624
40
0.3279095
50
213.9072132
51
263.884848
0
ARC
8
DEFAULT_255_1_604
10
17.7714504
20
-0.1367526
40
0.4311075
50
263.1759381
51
270.1028896
0
ARC
8
DEFAULT_255_1_604
10
17.7756203
20
0.0253256
40
0.5931948
50
269.6720046
51
279.0607459
0
ARC
8
DEFAULT_255_1_604
10
17.8102979
20
-0.1843001
40
0.3807256
50
278.8752379
51
293.6348896
0
ARC
8
DEFAULT_255_1_604
10
17.8519255
20
-0.2820582
40
0.274481
50
293.8553414
51
310.0519576
0
ARC
8
DEFAULT_255_1_604
10
17.8525562
20
-0.2901671
40
0.26791
50
311.0646716
51
332.0108643
0
ARC
8
DEFAULT_255_1_604
10
17.6975776
20
-0.2047038
40
0.4448784
50
331.6586146
51
343.2879852
0
ARC
8
DEFAULT_255_1_604
10
17.4294174
20
-0.1222983
40
0.7254111
50
343.144835
51
351.0104737
0
ARC
8
DEFAULT_255_1_604
10
17.22044
20
-0.0843788
40
0.9377591
50
350.7171884
51
351.1575273
0
LINE
8
DEFAULT_255_1_604
10
19.2068067
20
0.8166063
11
19.2068067
21
-0.7109
0
LINE
8
DEFAULT_255_1_604
10
19.2068067
20
-0.7109
11
19.0126056
21
-0.7109
0
LINE
8
DEFAULT_255_1_604
10
19.0126056
20
-0.7109
11
19.0126056
21
0.5764652
0
LINE
8
DEFAULT_255_1_604
10
19.0126056
20
0.5764652
11
18.6231594
21
0.4334246
0
LINE
8
DEFAULT_255_1_604
10
18.6231594
20
0.4334246
11
18.6231594
21
0.608832
0
LINE
8
DEFAULT_255_1_604
10
18.6231594
20
0.608832
11
19.176528
21
0.8166063
0
LINE
8
DEFAULT_255_1_604
10
19.176528
20
0.8166063
11
19.2068067
21
0.8166063
0
LINE
8
DEFAULT_255_1_234
10
11.6116879
20
23.6691211
11
11.6116879
21
22.4997
0
LINE
8
DEFAULT_255_1_234
10
11.6116879
20
22.4997
11
11.4566753
21
22.4997
0
LINE
8
DEFAULT_255_1_234
10
11.4566753
20
22.4997
11
10.8679489
21
23.400861
0
LINE
8
DEFAULT_255_1_234
10
10.8679489
20
23.400861
11
10.8679489
21
22.4997
0
LINE
8
DEFAULT_255_1_234
10
10.8679489
20
22.4997
11
10.7129364
21
22.4997
0
LINE
8
DEFAULT_255_1_234
10
10.7129364
20
22.4997
11
10.7129364
21
23.6691211
0
LINE
8
DEFAULT_255_1_234
10
10.7129364
20
23.6691211
11
10.8679489
21
23.6691211
0
LINE
8
DEFAULT_255_1_234
10
10.8679489
20
23.6691211
11
11.4582817
21
22.7639442
0
LINE
8
DEFAULT_255_1_234
10
11.4582817
20
22.7639442
11
11.4582817
21
23.6691211
0
LINE
8
DEFAULT_255_1_234
10
11.4582817
20
23.6691211
11
11.6116879
21
23.6691211
0
LINE
8
DEFAULT_255_1_234
10
11.9988177
20
23.6691211
11
12.2807317
21
23.2209501
0
LINE
8
DEFAULT_255_1_234
10
12.2807317
20
23.2209501
11
12.5610394
21
23.6691211
0
LINE
8
DEFAULT_255_1_234
10
12.5610394
20
23.6691211
11
12.7425566
21
23.6691211
0
LINE
8
DEFAULT_255_1_234
10
12.7425566
20
23.6691211
11
12.3730967
21
23.0892296
0
LINE
8
DEFAULT_255_1_234
10
12.3730967
20
23.0892296
11
12.7513916
21
22.4997
0
LINE
8
DEFAULT_255_1_234
10
12.7513916
20
22.4997
11
12.5682679
21
22.4997
0
LINE
8
DEFAULT_255_1_234
10
12.5682679
20
22.4997
11
12.2807317
21
22.9559027
0
LINE
8
DEFAULT_255_1_234
10
12.2807317
20
22.9559027
11
11.9915891
21
22.4997
0
LINE
8
DEFAULT_255_1_234
10
11.9915891
20
22.4997
11
11.8092687
21
22.4997
0
LINE
8
DEFAULT_255_1_234
10
11.8092687
20
22.4997
11
12.1883667
21
23.0892296
0
LINE
8
DEFAULT_255_1_234
10
12.1883667
20
23.0892296
11
11.8181036
21
23.6691211
0
LINE
8
DEFAULT_255_1_234
10
11.8181036
20
23.6691211
11
11.9988177
21
23.6691211
0
LINE
8
DEFAULT_255_1_234
10
13.1794832
20
23.0571026
11
13.1794832
21
22.9358234
0
LINE
8
DEFAULT_255_1_234
10
13.1794832
20
22.9358234
11
12.7875344
21
22.9358234
0
LINE
8
DEFAULT_255_1_234
10
12.7875344
20
22.9358234
11
12.7875344
21
23.0571026
0
LINE
8
DEFAULT_255_1_234
10
12.7875344
20
23.0571026
11
13.1794832
21
23.0571026
0
LINE
8
DEFAULT_255_1_234
10
14.1232125
20
23.3309849
11
13.9681999
21
23.3309849
0
LINE
8
DEFAULT_255_1_234
10
13.2758641
20
22.8386394
11
13.4308766
21
22.8386394
0
ARC
8
DEFAULT_255_1_234
10
14.0340812
20
24.2256768
40
1.252368
50
248.9199003
51
254.1439814
0
ARC
8
DEFAULT_255_1_234
10
13.8660307
20
23.7930234
40
0.788226
50
241.633709
51
249.0064503
0
ARC
8
DEFAULT_255_1_234
10
13.7131701
20
23.5129317
40
0.4691427
50
230.498225
51
241.8087113
0
ARC
8
DEFAULT_255_1_234
10
13.6347275
20
23.4129906
40
0.3421437
50
227.4064532
51
229.9881192
0
ARC
8
DEFAULT_255_1_234
10
13.5859796
20
23.3654088
40
0.2741476
50
200.6781896
51
228.1763934
0
ARC
8
DEFAULT_255_1_234
10
13.5932107
20
23.3639077
40
0.2804109
50
179.5061581
51
199.8694617
0
ARC
8
DEFAULT_255_1_234
10
13.5922858
20
23.371321
40
0.2795204
50
132.4834203
51
181.0242172
0
ARC
8
DEFAULT_255_1_234
10
13.6518441
20
23.3150704
40
0.3612768
50
129.2532479
51
133.4242687
0
ARC
8
DEFAULT_255_1_234
10
13.666489
20
23.2930965
40
0.3875675
50
101.98776
51
128.8742646
0
ARC
8
DEFAULT_255_1_234
10
13.7063501
20
23.1209741
40
0.5642249
50
89.5906553
51
102.3169264
0
ARC
8
DEFAULT_255_1_234
10
13.7133993
20
23.1528148
40
0.5323783
50
77.2360837
51
90.3248275
0
ARC
8
DEFAULT_255_1_234
10
13.7341072
20
23.24954
40
0.4334697
50
63.837784
51
77.0809408
0
ARC
8
DEFAULT_255_1_234
10
13.7618834
20
23.3012911
40
0.3747796
50
45.9864267
51
64.1607727
0
ARC
8
DEFAULT_255_1_234
10
13.7879715
20
23.3310866
40
0.3352302
50
32.2747395
51
45.6547121
0
ARC
8
DEFAULT_255_1_234
10
13.7946156
20
23.332988
40
0.328603
50
359.6507365
51
32.6130309
0
ARC
8
DEFAULT_255_1_234
10
13.7003251
20
23.333466
40
0.2678863
50
359.469343
51
14.9832209
0
ARC
8
DEFAULT_255_1_234
10
13.7708314
20
23.3523539
40
0.1948938
50
14.9781179
51
48.2004265
0
ARC
8
DEFAULT_255_1_234
10
13.7543958
20
23.3316983
40
0.2212521
50
48.5927837
51
74.1241538
0
ARC
8
DEFAULT_255_1_234
10
13.7210447
20
23.2216248
40
0.3362561
50
73.7888341
51
86.6652678
0
ARC
8
DEFAULT_255_1_234
10
13.7108013
20
23.1008881
40
0.4573953
50
86.2640471
51
90.0526343
0
ARC
8
DEFAULT_255_1_234
10
13.7079725
20
23.1404192
40
0.4178709
50
89.6697524
51
99.2309573
0
ARC
8
DEFAULT_255_1_234
10
13.6837176
20
23.2848964
40
0.2713749
50
99.069534
51
113.7658566
0
ARC
8
DEFAULT_255_1_234
10
13.6563367
20
23.3494677
40
0.2012469
50
114.0401004
51
127.9850673
0
ARC
8
DEFAULT_255_1_234
10
13.6322931
20
23.379073
40
0.1631167
50
127.7287463
51
176.7105154
0
ARC
8
DEFAULT_255_1_234
10
13.7001649
20
23.3689693
40
0.2315392
50
175.1779447
51
180.0581938
0
ARC
8
DEFAULT_255_1_234
10
13.6158496
20
23.3677428
40
0.1472271
50
179.6142195
51
228.1246017
0
ARC
8
DEFAULT_255_1_234
10
13.6600164
20
23.4086308
40
0.2072299
50
226.5779593
51
230.8800004
0
ARC
8
DEFAULT_255_1_234
10
13.7071243
20
23.4711636
40
0.2854818
50
231.4635071
51
241.9260842
0
ARC
8
DEFAULT_255_1_234
10
13.8268421
20
23.69148
40
0.53622
50
241.7178533
51
248.3259551
0
ARC
8
DEFAULT_255_1_234
10
13.9653793
20
24.0347064
40
0.9063478
50
248.2007737
51
252.4528373
0
ARC
8
DEFAULT_255_1_234
10
14.0857518
20
24.4068441
40
1.2974635
50
252.3391078
51
254.3469452
0
ARC
8
DEFAULT_255_1_234
10
13.331522
20
21.7091148
40
1.5037162
50
71.0197183
51
74.4087047
0
ARC
8
DEFAULT_255_1_234
10
13.5009906
20
22.1983111
40
0.9859993
50
66.1847285
51
71.086374
0
ARC
8
DEFAULT_255_1_234
10
13.6566218
20
22.54872
40
0.6025855
50
59.3536294
51
66.2691831
0
ARC
8
DEFAULT_255_1_234
10
13.745487
20
22.6990609
40
0.4279449
50
49.1020879
51
59.3293958
0
ARC
8
DEFAULT_255_1_234
10
13.827361
20
22.7923834
40
0.3038015
50
32.7919921
51
49.2505539
0
ARC
8
DEFAULT_255_1_234
10
13.85947
20
22.8152191
40
0.264448
50
31.1181161
51
32.4005348
0
ARC
8
DEFAULT_255_1_234
10
13.8506238
20
22.8116779
40
0.2738556
50
8.1116974
51
30.7958831
0
ARC
8
DEFAULT_255_1_234
10
13.7695906
20
22.7978753
40
0.3560327
50
359.8389159
51
8.4706516
0
ARC
8
DEFAULT_255_1_234
10
13.8321697
20
22.7930137
40
0.2934776
50
337.4731098
51
0.7537279
0
ARC
8
DEFAULT_255_1_234
10
13.8500392
20
22.7910387
40
0.2762607
50
307.5917067
51
336.4315538
0
ARC
8
DEFAULT_255_1_234
10
13.804022
20
22.8423102
40
0.3449979
50
307.6551545
51
308.4529766
0
ARC
8
DEFAULT_255_1_234
10
13.7809939
20
22.877825
40
0.3871988
50
284.3734338
51
307.1424381
0
ARC
8
DEFAULT_255_1_234
10
13.7314769
20
23.0599932
40
0.5759636
50
272.4382747
51
284.646547
0
ARC
8
DEFAULT_255_1_234
10
13.7187978
20
23.2399893
40
0.7563528
50
269.9708387
51
272.8178037
0
ARC
8
DEFAULT_255_1_234
10
13.7145018
20
23.0361716
40
0.5525489
50
248.2707594
51
270.4055579
0
ARC
8
DEFAULT_255_1_234
10
13.7090759
20
23.0171192
40
0.5328452
50
246.1383403
51
248.0542782
0
ARC
8
DEFAULT_255_1_234
10
13.6672138
20
22.9291843
40
0.4355005
50
233.1670131
51
246.4950969
0
ARC
8
DEFAULT_255_1_234
10
13.6118043
20
22.8543812
40
0.3424126
50
215.3403242
51
233.0843104
0
ARC
8
DEFAULT_255_1_234
10
13.5845474
20
22.8345549
40
0.3087104
50
179.2419209
51
215.2648451
0
ARC
8
DEFAULT_255_1_234
10
13.6613068
20
22.8359666
40
0.2304457
50
179.335461
51
199.1045811
0
ARC
8
DEFAULT_255_1_234
10
13.6280744
20
22.8272766
40
0.1962176
50
199.8828939
51
232.7063202
0
ARC
8
DEFAULT_255_1_234
10
13.6753013
20
22.8866788
40
0.2720938
50
232.3738199
51
255.5136649
0
ARC
8
DEFAULT_255_1_234
10
13.7093879
20
23.0110835
40
0.4010747
50
255.2446292
51
267.5320849
0
ARC
8
DEFAULT_255_1_234
10
13.7181503
20
23.1343702
40
0.5246356
50
267.1557994
51
270.0286766
0
ARC
8
DEFAULT_255_1_234
10
13.7209275
20
23.089995
40
0.4802668
50
269.7000017
51
278.1660162
0
ARC
8
DEFAULT_255_1_234
10
13.746528
20
22.9169515
40
0.3053425
50
278.0231263
51
290.625471
0
ARC
8
DEFAULT_255_1_234
10
13.7812967
20
22.8242025
40
0.206291
50
290.6619762
51
307.0370976
0
ARC
8
DEFAULT_255_1_234
10
13.8113356
20
22.7873504
40
0.1587906
50
306.3943566
51
355.3030547
0
ARC
8
DEFAULT_255_1_234
10
13.7601288
20
22.7950113
40
0.2104809
50
354.3660432
51
0.0698737
0
ARC
8
DEFAULT_255_1_234
10
13.7743633
20
22.7972617
40
0.1962563
50
359.417946
51
16.1971788
0
ARC
8
DEFAULT_255_1_234
10
13.8198943
20
22.8097418
40
0.149053
50
16.4723299
51
52.6262157
0
ARC
8
DEFAULT_255_1_234
10
13.7377997
20
22.7013433
40
0.2850296
50
52.7386432
51
62.4979148
0
ARC
8
DEFAULT_255_1_234
10
13.5993074
20
22.4407283
40
0.5801521
50
62.2515216
51
68.1220564
0
ARC
8
DEFAULT_255_1_234
10
13.4272985
20
22.0179872
40
1.0365451
50
68.0062803
51
71.8053402
0
ARC
8
DEFAULT_255_1_234
10
13.2477356
20
21.4794758
40
1.6042013
50
71.7183119
51
73.9258742
0
LINE
8
DEFAULT_255_1_234
10
14.2621615
20
22.9101218
11
14.2621615
21
22.9374297
0
LINE
8
DEFAULT_255_1_234
10
14.9994751
20
22.9534932
11
14.9994751
21
22.8916488
0
LINE
8
DEFAULT_255_1_234
10
14.9994751
20
22.8916488
11
14.4107487
21
22.8916488
0
LINE
8
DEFAULT_255_1_234
10
14.897472
20
22.7221792
11
14.9882307
21
22.6514999
0
LINE
8
DEFAULT_255_1_234
10
14.4155677
20
23.0137313
11
14.8508879
21
23.0137313
0
LINE
8
DEFAULT_255_1_234
10
14.8508879
20
23.0137313
11
14.8508879
21
23.0249757
0
ARC
8
DEFAULT_255_1_234
10
14.656098
20
22.9212332
40
0.4376191
50
252.3266134
51
270.5810217
0
ARC
8
DEFAULT_255_1_234
10
14.6356069
20
22.8471644
40
0.3608374
50
223.3000567
51
251.8561855
0
ARC
8
DEFAULT_255_1_234
10
14.656743
20
22.8676937
40
0.3902993
50
190.9374509
51
223.3654032
0
ARC
8
DEFAULT_255_1_234
10
14.8292402
20
22.9066885
40
0.5670891
50
179.6531105
51
191.4989439
0
ARC
8
DEFAULT_255_1_234
10
14.8414415
20
22.9406417
40
0.5792888
50
167.4007466
51
180.3176909
0
ARC
8
DEFAULT_255_1_234
10
14.7362476
20
22.9628885
40
0.471777
50
154.1835823
51
167.250763
0
ARC
8
DEFAULT_255_1_234
10
14.6730944
20
22.9961417
40
0.4004528
50
134.3149965
51
154.5315275
0
ARC
8
DEFAULT_255_1_234
10
14.6513439
20
23.0152228
40
0.371612
50
122.8616532
51
133.9707695
0
ARC
8
DEFAULT_255_1_234
10
14.6410013
20
23.0374703
40
0.3473289
50
89.8249009
51
123.4199222
0
ARC
8
DEFAULT_255_1_234
10
14.6460054
20
22.9727967
40
0.4120197
50
74.7876118
51
90.5482747
0
ARC
8
DEFAULT_255_1_234
10
14.6753797
20
23.081303
40
0.2996077
50
39.8178249
51
74.7633718
0
ARC
8
DEFAULT_255_1_234
10
14.6241117
20
23.0413351
40
0.3645855
50
16.8990863
51
39.4829761
0
ARC
8
DEFAULT_255_1_234
10
14.4346414
20
22.9806526
40
0.5635218
50
4.9636328
51
17.2026414
0
ARC
8
DEFAULT_255_1_234
10
14.1928484
20
22.955134
40
0.8066286
50
359.8834553
51
5.2834307
0
ARC
8
DEFAULT_255_1_234
10
14.7966008
20
22.8982803
40
0.3859091
50
180.9846213
51
194.9401313
0
ARC
8
DEFAULT_255_1_234
10
14.6916286
20
22.8695849
40
0.2770883
50
194.80314
51
222.0412631
0
ARC
8
DEFAULT_255_1_234
10
14.6612168
20
22.8394116
40
0.2343055
50
221.5417084
51
268.8614402
0
ARC
8
DEFAULT_255_1_234
10
14.6685163
20
22.9070686
40
0.3021528
50
267.732405
51
270.0097136
0
ARC
8
DEFAULT_255_1_234
10
14.6702973
20
22.9272105
40
0.3222994
50
269.6924892
51
280.4117579
0
ARC
8
DEFAULT_255_1_234
10
14.687938
20
22.8353193
40
0.2287344
50
280.2255091
51
298.6338936
0
ARC
8
DEFAULT_255_1_234
10
14.6996171
20
22.8109223
40
0.2017294
50
299.0430333
51
300.4643464
0
ARC
8
DEFAULT_255_1_234
10
14.6316177
20
22.9243038
40
0.3339357
50
300.6577328
51
322.0378878
0
ARC
8
DEFAULT_255_1_234
10
14.5965716
20
22.9547021
40
0.3802736
50
321.6750233
51
322.3046845
0
ARC
8
DEFAULT_255_1_234
10
14.6896677
20
22.838037
40
0.3520454
50
276.9728461
51
328.0035423
0
ARC
8
DEFAULT_255_1_234
10
14.661973
20
22.9860841
40
0.5024498
50
269.8361028
51
278.0581756
0
ARC
8
DEFAULT_255_1_234
10
14.6392468
20
23.0605757
40
0.202159
50
89.2018686
51
117.2851756
0
ARC
8
DEFAULT_255_1_234
10
14.6445637
20
23.0563752
40
0.2083484
50
118.0551165
51
137.4540413
0
ARC
8
DEFAULT_255_1_234
10
14.6820377
20
23.0223304
40
0.2589774
50
137.5109581
51
158.8516286
0
ARC
8
DEFAULT_255_1_234
10
14.7958212
20
22.9764074
40
0.38167
50
158.5845963
51
170.1721436
0
ARC
8
DEFAULT_255_1_234
10
14.9127601
20
22.9531823
40
0.5008657
50
169.8376422
51
173.0566086
0
ARC
8
DEFAULT_255_1_234
10
14.4430675
20
23.0042509
40
0.4083467
50
2.9091802
51
12.8847116
0
ARC
8
DEFAULT_255_1_234
10
14.5801352
20
23.0365101
40
0.2675383
50
12.6957781
51
28.6404489
0
ARC
8
DEFAULT_255_1_234
10
14.6343023
20
23.0645458
40
0.2065654
50
29.0169854
51
41.1487595
0
ARC
8
DEFAULT_255_1_234
10
14.6545808
20
23.0822003
40
0.1796786
50
41.1646065
51
85.0013516
0
ARC
8
DEFAULT_255_1_234
10
14.6424904
20
23.0087431
40
0.2539726
50
83.7280015
51
90.0964893
0
LINE
8
DEFAULT_255_1_234
10
15.5914142
20
23.3735531
11
15.5914142
21
23.2354072
0
LINE
8
DEFAULT_255_1_234
10
15.3199415
20
23.1165375
11
15.3199415
21
22.4997
0
LINE
8
DEFAULT_255_1_234
10
15.3199415
20
22.4997
11
15.1713543
21
22.4997
0
LINE
8
DEFAULT_255_1_234
10
15.1713543
20
22.4997
11
15.1713543
21
23.3687341
0
LINE
8
DEFAULT_255_1_234
10
15.1713543
20
23.3687341
11
15.3159256
21
23.3687341
0
LINE
8
DEFAULT_255_1_234
10
15.3159256
20
23.3687341
11
15.3183351
21
23.2683374
0
ARC
8
DEFAULT_255_1_234
10
15.5247548
20
22.8294342
40
0.4114092
50
80.6754243
51
86.8932892
0
ARC
8
DEFAULT_255_1_234
10
15.5187082
20
22.73267
40
0.5083596
50
86.8038578
51
90.0431435
0
ARC
8
DEFAULT_255_1_234
10
15.5150063
20
22.9783866
40
0.2626638
50
89.2759698
51
106.6213787
0
ARC
8
DEFAULT_255_1_234
10
15.4945627
20
23.052683
40
0.1856317
50
107.1346045
51
157.6458115
0
ARC
8
DEFAULT_255_1_234
10
15.5637228
20
23.0143311
40
0.2643398
50
155.6586782
51
157.2539184
0
ARC
8
DEFAULT_255_1_234
10
15.543243
20
23.1312157
40
0.2634121
50
127.8165941
51
148.6302098
0
ARC
8
DEFAULT_255_1_234
10
15.5178899
20
23.1572218
40
0.2273596
50
91.3329982
51
126.7875809
0
ARC
8
DEFAULT_255_1_234
10
15.525484
20
23.0857195
40
0.299078
50
89.986594
51
92.4688449
0
ARC
8
DEFAULT_255_1_234
10
15.5263235
20
23.1132078
40
0.2715908
50
85.3589899
51
90.1623399
0
ARC
8
DEFAULT_255_1_234
10
15.534775
20
23.2136164
40
0.1708278
50
78.401942
51
85.4594656
0
ARC
8
DEFAULT_255_1_234
10
15.5492634
20
23.2827236
40
0.1002194
50
67.7858312
51
78.5728455
0
ARC
8
DEFAULT_255_1_234
10
15.5600487
20
23.3106887
40
0.0702548
50
63.4835954
51
67.3062642
0
LINE
8
DEFAULT_255_1_234
10
15.8893917
20
23.3687341
11
15.8893917
21
22.4997
0
LINE
8
DEFAULT_255_1_234
10
15.8893917
20
22.4997
11
15.7408045
21
22.4997
0
LINE
8
DEFAULT_255_1_234
10
15.7408045
20
22.4997
11
15.7408045
21
23.3687341
0
LINE
8
DEFAULT_255_1_234
10
15.7408045
20
23.3687341
11
15.8893917
21
23.3687341
0
ARC
8
DEFAULT_255_1_234
10
15.8266194
20
23.6001889
40
0.097867
50
161.415052
51
180.5526306
0
ARC
8
DEFAULT_255_1_234
10
15.8141972
20
23.6036077
40
0.0850062
50
138.1827368
51
160.9307106
0
ARC
8
DEFAULT_255_1_234
10
15.8031918
20
23.6131588
40
0.0704362
50
104.6368899
51
138.0039868
0
ARC
8
DEFAULT_255_1_234
10
15.8139073
20
23.5764963
40
0.1086221
50
92.0600725
51
105.2189128
0
ARC
8
DEFAULT_255_1_234
10
15.8162421
20
23.5422117
40
0.1429728
50
89.9756393
51
92.5012496
0
ARC
8
DEFAULT_255_1_234
10
15.817244
20
23.5647731
40
0.1204151
50
78.0235316
51
90.4478182
0
ARC
8
DEFAULT_255_1_234
10
15.8264532
20
23.6061295
40
0.0780493
50
55.051506
51
78.3369085
0
ARC
8
DEFAULT_255_1_234
10
15.8314807
20
23.6145711
40
0.0682538
50
42.0501187
51
54.4513741
0
ARC
8
DEFAULT_255_1_234
10
15.8179674
20
23.6021798
40
0.0865878
50
1.7497075
51
42.1496013
0
ARC
8
DEFAULT_255_1_234
10
15.7925007
20
23.5992738
40
0.1121515
50
359.9852656
51
2.8364544
0
ARC
8
DEFAULT_255_1_234
10
15.8090999
20
23.5983229
40
0.0955566
50
342.1070653
51
0.552888
0
ARC
8
DEFAULT_255_1_234
10
15.8233696
20
23.5943904
40
0.0807713
50
316.7107116
51
341.6516965
0
ARC
8
DEFAULT_255_1_234
10
15.8300733
20
23.5883823
40
0.0717724
50
285.4397031
51
316.5324284
0
ARC
8
DEFAULT_255_1_234
10
15.819065
20
23.6249554
40
0.1099597
50
272.3547054
51
285.8953117
0
ARC
8
DEFAULT_255_1_234
10
15.8163808
20
23.6615048
40
0.1465932
50
269.9695369
51
272.8160237
0
ARC
8
DEFAULT_255_1_234
10
15.815399
20
23.6395863
40
0.1246779
50
258.8431134
51
270.4153935
0
ARC
8
DEFAULT_255_1_234
10
15.8064032
20
23.5960414
40
0.0802162
50
238.5431189
51
259.1288175
0
ARC
8
DEFAULT_255_1_234
10
15.7995917
20
23.5836856
40
0.0661247
50
222.5062634
51
237.9906969
0
ARC
8
DEFAULT_255_1_234
10
15.8123504
20
23.5952889
40
0.0833707
50
184.1069131
51
222.460413
0
ARC
8
DEFAULT_255_1_234
10
15.8392745
20
23.5991349
40
0.1105176
50
179.9429482
51
185.0960898
0
LINE
8
DEFAULT_255_1_234
10
16.089382
20
22.9101218
11
16.089382
21
22.9374297
0
LINE
8
DEFAULT_255_1_234
10
16.8266956
20
22.9534932
11
16.8266956
21
22.8916488
0
LINE
8
DEFAULT_255_1_234
10
16.8266956
20
22.8916488
11
16.2379691
21
22.8916488
0
LINE
8
DEFAULT_255_1_234
10
16.7246925
20
22.7221792
11
16.8154511
21
22.6514999
0
LINE
8
DEFAULT_255_1_234
10
16.2427882
20
23.0137313
11
16.6781084
21
23.0137313
0
LINE
8
DEFAULT_255_1_234
10
16.6781084
20
23.0137313
11
16.6781084
21
23.0249757
0
ARC
8
DEFAULT_255_1_234
10
16.4833185
20
22.9212332
40
0.4376191
50
252.3266134
51
270.5810217
0
ARC
8
DEFAULT_255_1_234
10
16.4628274
20
22.8471644
40
0.3608374
50
223.3000567
51
251.8561855
0
ARC
8
DEFAULT_255_1_234
10
16.4839635
20
22.8676937
40
0.3902993
50
190.9374509
51
223.3654032
0
ARC
8
DEFAULT_255_1_234
10
16.6564607
20
22.9066885
40
0.5670891
50
179.6531105
51
191.4989439
0
ARC
8
DEFAULT_255_1_234
10
16.6686619
20
22.9406417
40
0.5792888
50
167.4007466
51
180.3176909
0
ARC
8
DEFAULT_255_1_234
10
16.5634681
20
22.9628885
40
0.471777
50
154.1835823
51
167.250763
0
ARC
8
DEFAULT_255_1_234
10
16.5003148
20
22.9961417
40
0.4004528
50
134.3149965
51
154.5315275
0
ARC
8
DEFAULT_255_1_234
10
16.4785643
20
23.0152228
40
0.371612
50
122.8616532
51
133.9707695
0
ARC
8
DEFAULT_255_1_234
10
16.4682217
20
23.0374703
40
0.3473289
50
89.8249009
51
123.4199222
0
ARC
8
DEFAULT_255_1_234
10
16.4732258
20
22.9727967
40
0.4120197
50
74.7876118
51
90.5482747
0
ARC
8
DEFAULT_255_1_234
10
16.5026002
20
23.081303
40
0.2996077
50
39.8178249
51
74.7633718
0
ARC
8
DEFAULT_255_1_234
10
16.4513322
20
23.0413351
40
0.3645855
50
16.8990863
51
39.4829761
0
ARC
8
DEFAULT_255_1_234
10
16.2618618
20
22.9806526
40
0.5635218
50
4.9636328
51
17.2026414
0
ARC
8
DEFAULT_255_1_234
10
16.0200688
20
22.955134
40
0.8066286
50
359.8834553
51
5.2834307
0
ARC
8
DEFAULT_255_1_234
10
16.6238213
20
22.8982803
40
0.3859091
50
180.9846213
51
194.9401313
0
ARC
8
DEFAULT_255_1_234
10
16.5188491
20
22.8695849
40
0.2770883
50
194.80314
51
222.0412631
0
ARC
8
DEFAULT_255_1_234
10
16.4884373
20
22.8394116
40
0.2343055
50
221.5417084
51
268.8614402
0
ARC
8
DEFAULT_255_1_234
10
16.4957367
20
22.9070686
40
0.3021528
50
267.732405
51
270.0097136
0
ARC
8
DEFAULT_255_1_234
10
16.4975177
20
22.9272105
40
0.3222994
50
269.6924892
51
280.4117579
0
ARC
8
DEFAULT_255_1_234
10
16.5151584
20
22.8353193
40
0.2287344
50
280.2255091
51
298.6338936
0
ARC
8
DEFAULT_255_1_234
10
16.5268376
20
22.8109223
40
0.2017294
50
299.0430333
51
300.4643464
0
ARC
8
DEFAULT_255_1_234
10
16.4588382
20
22.9243038
40
0.3339357
50
300.6577328
51
322.0378878
0
ARC
8
DEFAULT_255_1_234
10
16.4237921
20
22.9547021
40
0.3802736
50
321.6750233
51
322.3046845
0
ARC
8
DEFAULT_255_1_234
10
16.5168882
20
22.838037
40
0.3520454
50
276.9728461
51
328.0035423
0
ARC
8
DEFAULT_255_1_234
10
16.4891935
20
22.9860841
40
0.5024498
50
269.8361028
51
278.0581756
0
ARC
8
DEFAULT_255_1_234
10
16.4664672
20
23.0605757
40
0.202159
50
89.2018686
51
117.2851756
0
ARC
8
DEFAULT_255_1_234
10
16.4717841
20
23.0563752
40
0.2083484
50
118.0551165
51
137.4540413
0
ARC
8
DEFAULT_255_1_234
10
16.5092581
20
23.0223304
40
0.2589774
50
137.5109581
51
158.8516286
0
ARC
8
DEFAULT_255_1_234
10
16.6230417
20
22.9764074
40
0.38167
50
158.5845963
51
170.1721436
0
ARC
8
DEFAULT_255_1_234
10
16.7399806
20
22.9531823
40
0.5008657
50
169.8376422
51
173.0566086
0
ARC
8
DEFAULT_255_1_234
10
16.270288
20
23.0042509
40
0.4083467
50
2.9091802
51
12.8847116
0
ARC
8
DEFAULT_255_1_234
10
16.4073556
20
23.0365101
40
0.2675383
50
12.6957781
51
28.6404489
0
ARC
8
DEFAULT_255_1_234
10
16.4615227
20
23.0645458
40
0.2065654
50
29.0169854
51
41.1487595
0
ARC
8
DEFAULT_255_1_234
10
16.4818012
20
23.0822003
40
0.1796786
50
41.1646065
51
85.0013516
0
ARC
8
DEFAULT_255_1_234
10
16.4697109
20
23.0087431
40
0.2539726
50
83.7280015
51
90.0964893
0
LINE
8
DEFAULT_255_1_234
10
17.6451297
20
23.1133248
11
17.4957394
21
23.1133248
0
LINE
8
DEFAULT_255_1_234
10
16.9624319
20
22.7671569
11
17.1110191
21
22.7671569
0
ARC
8
DEFAULT_255_1_234
10
17.3769212
20
22.7316959
40
0.1276617
50
359.3334982
51
18.5871358
0
ARC
8
DEFAULT_255_1_234
10
17.3977849
20
22.7372133
40
0.1061371
50
19.3540742
51
54.6485071
0
ARC
8
DEFAULT_255_1_234
10
17.3473751
20
22.6676919
40
0.1920087
50
54.3827097
51
65.0622807
0
ARC
8
DEFAULT_255_1_234
10
17.2705148
20
22.50599
40
0.3710447
50
64.8282493
51
71.4200025
0
ARC
8
DEFAULT_255_1_234
10
17.1803023
20
22.2413107
40
0.6506741
50
71.3164301
51
75.8006402
0
ARC
8
DEFAULT_255_1_234
10
17.0961843
20
21.9172561
40
0.9854641
50
75.6809531
51
78.0061883
0
ARC
8
DEFAULT_255_1_234
10
17.5410376
20
24.015177
40
1.1591028
50
254.6901892
51
258.0466452
0
ARC
8
DEFAULT_255_1_234
10
17.4372285
20
23.6392781
40
0.7691345
50
249.9010773
51
254.755261
0
ARC
8
DEFAULT_255_1_234
10
17.3368627
20
23.3666982
40
0.478665
50
243.3097214
51
249.9709442
0
ARC
8
DEFAULT_255_1_234
10
17.2739648
20
23.2412778
40
0.3383568
50
234.4047477
51
243.2862168
0
ARC
8
DEFAULT_255_1_234
10
17.2117172
20
23.1553232
40
0.2322322
50
220.8667099
51
234.5493881
0
ARC
8
DEFAULT_255_1_234
10
17.1775112
20
23.1241817
40
0.1859923
50
214.3062465
51
220.5065136
0
ARC
8
DEFAULT_255_1_234
10
17.1749192
20
23.121088
40
0.1821108
50
186.912965
51
213.9618616
0
ARC
8
DEFAULT_255_1_234
10
17.2281286
20
23.1297009
40
0.2359799
50
179.8808832
51
187.4339886
0
ARC
8
DEFAULT_255_1_234
10
17.212642
20
23.1317088
40
0.2204978
50
132.005434
51
180.3942919
0
ARC
8
DEFAULT_255_1_234
10
17.2783033
20
23.0711083
40
0.3095791
50
129.2319861
51
133.5302299
0
ARC
8
DEFAULT_255_1_234
10
17.2836541
20
23.0616928
40
0.3202615
50
100.4410011
51
128.9081242
0
ARC
8
DEFAULT_255_1_234
10
17.3110425
20
22.9331455
40
0.4516583
50
89.6985377
51
100.9026564
0
ARC
8
DEFAULT_255_1_234
10
17.3167467
20
22.9171166
40
0.4676928
50
77.6965325
51
90.4076836
0
ARC
8
DEFAULT_255_1_234
10
17.3498451
20
23.0598413
40
0.3211988
50
50.7276602
51
78.0399361
0
ARC
8
DEFAULT_255_1_234
10
17.394291
20
23.1116296
40
0.2529778
50
25.7545084
51
51.0957453
0
ARC
8
DEFAULT_255_1_234
10
17.3944134
20
23.1166206
40
0.250738
50
359.2468627
51
24.7394243
0
ARC
8
DEFAULT_255_1_234
10
17.3659586
20
23.1137664
40
0.1297815
50
359.8050318
51
45.1544908
0
ARC
8
DEFAULT_255_1_234
10
17.3252728
20
23.0789794
40
0.1831883
50
43.8047702
51
49.6271585
0
ARC
8
DEFAULT_255_1_234
10
17.326063
20
23.0790678
40
0.18261
50
49.7980766
51
82.1218353
0
ARC
8
DEFAULT_255_1_234
10
17.3141601
20
23.0143998
40
0.2483163
50
81.4465357
51
90.1710293
0
ARC
8
DEFAULT_255_1_234
10
17.3117204
20
22.961788
40
0.300932
50
89.6766211
51
99.1264602
0
ARC
8
DEFAULT_255_1_234
10
17.2945666
20
23.0651537
40
0.1961547
50
98.968313
51
113.4570237
0
ARC
8
DEFAULT_255_1_234
10
17.2749751
20
23.1119965
40
0.1453859
50
113.722589
51
127.4763106
0
ARC
8
DEFAULT_255_1_234
10
17.2581397
20
23.1320124
40
0.1192639
50
126.9083309
51
150.3165862
0
ARC
8
DEFAULT_255_1_234
10
17.253373
20
23.1370981
40
0.112623
50
151.3635175
51
180.0701457
0
ARC
8
DEFAULT_255_1_234
10
17.2842515
20
23.134999
40
0.1435149
50
179.2169974
51
179.9954013
0
ARC
8
DEFAULT_255_1_234
10
17.2481572
20
23.1337056
40
0.1074286
50
179.3040112
51
198.4225446
0
ARC
8
DEFAULT_255_1_234
10
17.2289706
20
23.1287127
40
0.0876573
50
199.2895851
51
238.6034594
0
ARC
8
DEFAULT_255_1_234
10
17.2892552
20
23.223345
40
0.1998512
50
237.9846301
51
246.8744712
0
ARC
8
DEFAULT_255_1_234
10
17.3750497
20
23.4196205
40
0.4140547
50
246.6234531
51
251.8168941
0
ARC
8
DEFAULT_255_1_234
10
17.4781041
20
23.7290905
40
0.7402308
50
251.713434
51
255.0778414
0
ARC
8
DEFAULT_255_1_234
10
17.5980303
20
24.1757563
40
1.2027155
50
255.0367487
51
257.4705983
0
ARC
8
DEFAULT_255_1_234
10
17.0872313
20
21.8743863
40
1.1546601
50
73.6837552
51
77.5016755
0
ARC
8
DEFAULT_255_1_234
10
17.1961088
20
22.2443581
40
0.7690009
50
68.7044154
51
73.7249639
0
ARC
8
DEFAULT_255_1_234
10
17.2864109
20
22.4770654
40
0.5193873
50
63.590599
51
68.6626804
0
ARC
8
DEFAULT_255_1_234
10
17.3635128
20
22.6308123
40
0.3473927
50
54.7106439
51
63.7013633
0
ARC
8
DEFAULT_255_1_234
10
17.4259582
20
22.71804
40
0.2401192
50
41.0622434
51
54.8487496
0
ARC
8
DEFAULT_255_1_234
10
17.4600969
20
22.7493592
40
0.1938094
50
34.4950568
51
40.7105546
0
ARC
8
DEFAULT_255_1_234
10
17.4647776
20
22.7542078
40
0.1872106
50
9.3763373
51
34.0833615
0
ARC
8
DEFAULT_255_1_234
10
17.3994646
20
22.7416728
40
0.2536988
50
359.7694872
51
9.7663171
0
ARC
8
DEFAULT_255_1_234
10
17.4192147
20
22.7373764
40
0.2339696
50
335.8654732
51
0.8022045
0
ARC
8
DEFAULT_255_1_234
10
17.4267192
20
22.7387197
40
0.2277108
50
307.7357725
51
334.7849066
0
ARC
8
DEFAULT_255_1_234
10
17.3866367
20
22.7837645
40
0.2878951
50
307.0241536
51
308.5578354
0
ARC
8
DEFAULT_255_1_234
10
17.3608699
20
22.8223801
40
0.3342515
50
282.9362969
51
306.5646424
0
ARC
8
DEFAULT_255_1_234
10
17.3246996
20
22.9691108
40
0.4853615
50
271.1026298
51
283.2200835
0
ARC
8
DEFAULT_255_1_234
10
17.318324
20
23.0932418
40
0.6096052
50
269.9919117
51
271.4772449
0
ARC
8
DEFAULT_255_1_234
10
17.3156995
20
22.9854436
40
0.5018135
50
259.0723564
51
270.289833
0
ARC
8
DEFAULT_255_1_234
10
17.2944727
20
22.8737271
40
0.388099
50
245.4963068
51
259.0227342
0
ARC
8
DEFAULT_255_1_234
10
17.2666684
20
22.8155615
40
0.3236422
50
228.9684658
51
245.7044727
0
ARC
8
DEFAULT_255_1_234
10
17.2401127
20
22.7828575
40
0.2815426
50
214.4011705
51
228.6759915
0
ARC
8
DEFAULT_255_1_234
10
17.2111868
20
22.767029
40
0.2487548
50
179.9705531
51
215.1572795
0
ARC
8
DEFAULT_255_1_234
10
17.2812468
20
22.7743806
40
0.1703809
50
182.4299387
51
203.0329699
0
ARC
8
DEFAULT_255_1_234
10
17.2628125
20
22.7687396
40
0.1512226
50
203.798802
51
232.548466
0
ARC
8
DEFAULT_255_1_234
10
17.2904647
20
22.8038826
40
0.1959374
50
232.3782728
51
256.3934612
0
ARC
8
DEFAULT_255_1_234
10
17.3135008
20
22.8928842
40
0.2878639
50
256.104506
51
268.4626716
0
ARC
8
DEFAULT_255_1_234
10
17.3181493
20
22.9725487
40
0.3676329
50
268.0715632
51
270.0138206
0
ARC
8
DEFAULT_255_1_234
10
17.3200017
20
22.9453083
40
0.3403971
50
269.7031147
51
278.8341955
0
ARC
8
DEFAULT_255_1_234
10
17.3382111
20
22.8322876
40
0.2259217
50
278.6728789
51
292.8232582
0
ARC
8
DEFAULT_255_1_234
10
17.3582649
20
22.7821449
40
0.171929
50
293.1452328
51
303.6655899
0
ARC
8
DEFAULT_255_1_234
10
17.3847528
20
22.7445204
40
0.1259367
50
303.1248165
51
321.742847
0
ARC
8
DEFAULT_255_1_234
10
17.4033408
20
22.7282156
40
0.1012531
50
322.4748573
51
1.1291126
0
ARC
8
DEFAULT_255_2_778
10
15.2718323
20
26.736689
40
0.3782009
50
0.4397807
51
91.3045231
0
ARC
8
DEFAULT_255_2_778
10
15.2696879
20
26.7344064
40
0.3803695
50
269.0259909
51
0.7811192
0
ARC
8
DEFAULT_255_2_778
10
15.4288293
20
26.7219643
40
0.7639615
50
290.7362057
51
357.8000295
0
ARC
8
DEFAULT_255_2_778
10
15.3436031
20
26.7395235
40
0.8499188
50
356.8376875
51
0.0046095
0
ARC
8
DEFAULT_255_2_778
10
15.3422443
20
26.7395748
40
0.8512778
50
0.0011515
51
85.3589632
0
ARC
8
DEFAULT_255_2_778
10
15.3422371
20
26.7205092
40
0.8702827
50
85.4600549
51
90.0075769
0
ARC
8
DEFAULT_255_2_778
10
20.173385
20
26.7302426
40
0.3845507
50
1.3931151
51
90.158378
0
ARC
8
DEFAULT_255_2_778
10
20.2329096
20
26.7238635
40
0.8684198
50
359.7643557
51
42.1181505
0
ARC
8
DEFAULT_255_2_778
10
20.2353156
20
26.7242931
40
0.866348
50
42.2037872
51
87.9292218
0
ARC
8
DEFAULT_255_2_778
10
20.2305626
20
26.6830097
40
0.9077821
50
87.7235759
51
90.0025578
0
ARC
8
DEFAULT_255_2_778
10
12.9264947
20
26.7371344
40
0.3777354
50
0.3727528
51
91.1638813
0
ARC
8
DEFAULT_255_2_778
10
12.9805692
20
26.7238595
40
0.8684602
50
359.7646302
51
42.1161032
0
ARC
8
DEFAULT_255_2_778
10
12.9830774
20
26.7244127
40
0.8662296
50
42.2002176
51
87.9268901
0
ARC
8
DEFAULT_255_2_778
10
12.9783626
20
26.6833749
40
0.9074169
50
87.7231194
51
90.002558
0
ARC
8
DEFAULT_255_2_778
10
17.559042
20
26.3320858
40
1.2841942
50
233.3100129
51
270.0348017
0
ARC
8
DEFAULT_255_2_778
10
17.5711133
20
26.3524622
40
1.3077482
50
187.7860459
51
233.4193197
0
ARC
8
DEFAULT_255_2_778
10
17.5893588
20
26.3540185
40
1.3260368
50
179.9838663
51
187.7458681
0
ARC
8
DEFAULT_255_2_778
10
17.5478523
20
26.3546375
40
1.2845303
50
143.7084173
51
180.0109545
0
ARC
8
DEFAULT_255_2_778
10
17.5629238
20
26.3495899
40
1.2996747
50
94.9692901
51
143.9223324
0
ARC
8
DEFAULT_255_2_778
10
17.5597032
20
26.3502347
40
1.2987573
50
89.9947559
51
94.8302073
0
ARC
8
DEFAULT_255_2_778
10
17.5619339
20
26.3444304
40
1.3045632
50
58.1407344
51
90.0927508
0
ARC
8
DEFAULT_255_2_778
10
17.5700831
20
26.3500662
40
1.2954809
50
3.5056409
51
58.315291
0
ARC
8
DEFAULT_255_2_778
10
17.5711163
20
26.3541563
40
1.2942058
50
359.9971467
51
3.3277024
0
ARC
8
DEFAULT_255_2_778
10
17.3826088
20
26.3520483
40
1.4827147
50
0.006083
51
0.0789681
0
ARC
8
DEFAULT_255_2_778
10
17.5604187
20
26.3522022
40
1.3049047
50
315.0308293
51
0.0001529
0
ARC
8
DEFAULT_255_2_778
10
17.5609377
20
26.3519521
40
1.3043608
50
270.000667
51
315.0224921
0
LINE
8
DEFAULT_255_2_778
10
17.5609529
20
25.0475914
11
17.5598221
21
25.0475919
0
ARC
8
DEFAULT_255_2_778
10
17.5640812
20
26.3504112
40
0.7580313
50
269.6780691
51
315.5292436
0
ARC
8
DEFAULT_255_2_778
10
17.5610107
20
26.3496878
40
0.7597205
50
315.7303962
51
0.2857903
0
ARC
8
DEFAULT_255_2_778
10
17.8487376
20
26.3539382
40
0.4719845
50
359.944048
51
0.0186519
0
ARC
8
DEFAULT_255_2_778
10
17.5687772
20
26.3529605
40
0.7519457
50
0.086204
51
85.4319233
0
ARC
8
DEFAULT_255_2_778
10
17.5599609
20
26.3105338
40
0.7949581
50
85.0420495
51
90.0100075
0
ARC
8
DEFAULT_255_2_778
10
17.5579396
20
26.3672519
40
0.7382424
50
89.8538973
51
89.9999976
0
ARC
8
DEFAULT_255_2_778
10
17.5580088
20
26.3547109
40
0.7507833
50
90.0052819
51
134.9571409
0
ARC
8
DEFAULT_255_2_778
10
17.5579709
20
26.3541565
40
0.751149
50
134.9252185
51
180.0049334
0
ARC
8
DEFAULT_255_2_778
10
17.5708624
20
26.3501875
40
0.7640503
50
179.7072119
51
222.5790813
0
ARC
8
DEFAULT_255_2_778
10
17.5579296
20
26.3391475
40
0.7470579
50
222.6267201
51
270.1451401
0
ARC
8
DEFAULT_255_2_778
10
9.564442
20
26.3320858
40
1.2841942
50
233.3100129
51
270.0348017
0
ARC
8
DEFAULT_255_2_778
10
9.5765133
20
26.3524622
40
1.3077482
50
187.7860459
51
233.4193197
0
ARC
8
DEFAULT_255_2_778
10
9.5947588
20
26.3540185
40
1.3260368
50
179.9838663
51
187.7458681
0
ARC
8
DEFAULT_255_2_778
10
9.5535129
20
26.3544961
40
1.2847909
50
143.1940819
51
180.0046489
0
ARC
8
DEFAULT_255_2_778
10
9.5683078
20
26.3498006
40
1.2994598
50
94.9233187
51
143.4191345
0
ARC
8
DEFAULT_255_2_778
10
9.5651008
20
26.350512
40
1.2984798
50
89.9946509
51
94.7850278
0
ARC
8
DEFAULT_255_2_778
10
9.5673902
20
26.3443441
40
1.3046496
50
58.1428905
51
90.0952196
0
ARC
8
DEFAULT_255_2_778
10
9.5758177
20
26.3504453
40
1.2950254
50
3.2656058
51
58.3171105
0
ARC
8
DEFAULT_255_2_778
10
9.5763693
20
26.3544485
40
1.2942527
50
359.997494
51
3.0900664
0
ARC
8
DEFAULT_255_2_778
10
9.5936718
20
26.3522448
40
1.276952
50
359.9949307
51
0.0963391
0
ARC
8
DEFAULT_255_2_778
10
9.5659855
20
26.3522925
40
1.3046385
50
315.0321687
51
359.9929412
0
ARC
8
DEFAULT_255_2_778
10
9.5662654
20
26.3524266
40
1.3045353
50
270.0038431
51
315.0193137
0
LINE
8
DEFAULT_255_2_778
10
9.5663529
20
25.0478914
11
9.5652221
21
25.0478919
0
ARC
8
DEFAULT_255_2_778
10
9.5694412
20
26.3504135
40
0.7580334
50
269.6810953
51
315.6152252
0
ARC
8
DEFAULT_255_2_778
10
9.5663839
20
26.3497381
40
0.7597504
50
315.8129036
51
0.3254485
0
ARC
8
DEFAULT_255_2_778
10
9.5738176
20
26.3526565
40
0.7523058
50
0.1093155
51
85.7820321
0
ARC
8
DEFAULT_255_2_778
10
9.5653381
20
26.3111263
40
0.7943655
50
85.3923987
51
90.0083732
0
ARC
8
DEFAULT_255_2_778
10
9.5633385
20
26.3663348
40
0.7391595
50
89.8539942
51
89.9999859
0
ARC
8
DEFAULT_255_2_778
10
9.563405
20
26.3544783
40
0.7510159
50
90.0050654
51
134.9497993
0
ARC
8
DEFAULT_255_2_778
10
9.5632746
20
26.3542963
40
0.7510526
50
134.9329452
51
180.0155944
0
ARC
8
DEFAULT_255_2_778
10
9.5762945
20
26.3501612
40
0.7640826
50
179.7052536
51
222.5741919
0
ARC
8
DEFAULT_255_2_778
10
9.5632805
20
26.3391163
40
0.7470269
50
222.6256588
51
270.1489141
0
LINE
8
DEFAULT_255_2_778
10
14.0768221
20
27.5701919
11
14.0768221
21
25.1073919
0
LINE
8
DEFAULT_255_2_778
10
14.0768221
20
25.1073919
11
14.6203221
21
25.1073919
0
LINE
8
DEFAULT_255_2_778
10
14.6203221
20
25.1073919
11
14.6203221
21
27.1147919
0
LINE
8
DEFAULT_255_2_778
10
14.6203221
20
27.1147919
11
15.2632221
21
27.1147919
0
LINE
8
DEFAULT_255_2_778
10
15.2632221
20
26.3540919
11
14.7986221
21
26.3540919
0
LINE
8
DEFAULT_255_2_778
10
14.7986221
20
26.3540919
11
15.6397221
21
25.1070919
0
LINE
8
DEFAULT_255_2_778
10
15.6397221
20
25.1070919
11
16.3126221
21
25.1070919
0
LINE
8
DEFAULT_255_2_778
10
16.3126221
20
25.1070919
11
15.6993221
21
26.0074919
0
LINE
8
DEFAULT_255_2_778
10
15.3421221
20
27.5907919
11
14.6200221
21
27.5907919
0
LINE
8
DEFAULT_255_2_778
10
14.6200221
20
27.5907919
11
14.0766221
21
27.5701919
0
LINE
8
DEFAULT_255_2_778
10
14.0766221
20
27.5701919
11
14.0768221
21
27.5701919
0
LINE
8
DEFAULT_255_2_778
10
19.0142221
20
27.5701919
11
19.0142221
21
25.1073919
0
LINE
8
DEFAULT_255_2_778
10
19.0142221
20
25.1073919
11
19.5577221
21
25.1073919
0
LINE
8
DEFAULT_255_2_778
10
19.5577221
20
25.1073919
11
19.5577221
21
27.1147919
0
LINE
8
DEFAULT_255_2_778
10
19.5577221
20
27.1147919
11
20.1723221
21
27.1147919
0
LINE
8
DEFAULT_255_2_778
10
20.5578221
20
26.7395919
11
20.5578221
21
25.1073919
0
LINE
8
DEFAULT_255_2_778
10
20.5578221
20
25.1073919
11
21.1013221
21
25.1073919
0
LINE
8
DEFAULT_255_2_778
10
21.1013221
20
25.1073919
11
21.1013221
21
26.7202919
0
LINE
8
DEFAULT_255_2_778
10
20.2305221
20
27.5907919
11
19.5577221
21
27.5907919
0
LINE
8
DEFAULT_255_2_778
10
19.5577221
20
27.5907919
11
19.0142221
21
27.5701919
0
LINE
8
DEFAULT_255_2_778
10
19.0142221
20
27.5701919
11
19.0142221
21
27.5701919
0
LINE
8
DEFAULT_255_2_778
10
11.0196221
20
27.5701919
11
11.0196221
21
25.1073919
0
LINE
8
DEFAULT_255_2_778
10
11.0196221
20
25.1073919
11
11.5628221
21
25.1073919
0
LINE
8
DEFAULT_255_2_778
10
11.5628221
20
25.1073919
11
11.5628221
21
27.1147919
0
LINE
8
DEFAULT_255_2_778
10
11.5628221
20
27.1147919
11
12.1671221
21
27.1147919
0
LINE
8
DEFAULT_255_2_778
10
12.1671221
20
27.1147919
11
12.1671221
21
25.1073919
0
LINE
8
DEFAULT_255_2_778
10
12.1671221
20
25.1073919
11
12.7105221
21
25.1073919
0
LINE
8
DEFAULT_255_2_778
10
12.7105221
20
25.1073919
11
12.7105221
21
27.1147919
0
LINE
8
DEFAULT_255_2_778
10
12.7105221
20
27.1147919
11
12.9188221
21
27.1147919
0
LINE
8
DEFAULT_255_2_778
10
13.3042221
20
26.7395919
11
13.3042221
21
25.1073919
0
LINE
8
DEFAULT_255_2_778
10
13.3042221
20
25.1073919
11
13.8490221
21
25.1073919
0
LINE
8
DEFAULT_255_2_778
10
13.8490221
20
25.1073919
11
13.8490221
21
26.7202919
0
LINE
8
DEFAULT_255_2_778
10
12.9783221
20
27.5907919
11
11.5731221
21
27.5907919
0
LINE
8
DEFAULT_255_2_778
10
11.5731221
20
27.5907919
11
11.0193221
21
27.5701919
0
LINE
8
DEFAULT_255_2_778
10
11.0193221
20
27.5701919
11
11.0196221
21
27.5701919
0
LINE
8
DEFAULT_255_2_778
10
17.5598221
20
25.0475919
11
17.5598221
21
25.0478919
0
LINE
8
DEFAULT_255_2_778
10
9.5652221
20
25.0478919
11
9.5652221
21
25.0478919
0
LINE
8
DEFAULT_255_1_234
10
4.9274119
20
20.6366792
11
4.9274119
21
20.5154
0
LINE
8
DEFAULT_255_1_234
10
4.9274119
20
20.5154
11
4.161184
21
20.5154
0
LINE
8
DEFAULT_255_1_234
10
4.161184
20
20.5154
11
4.161184
21
20.6222221
0
LINE
8
DEFAULT_255_1_234
10
4.161184
20
20.6222221
11
4.5659836
21
21.0719995
0
LINE
8
DEFAULT_255_1_234
10
4.2872823
20
21.3402595
11
4.1386952
21
21.3402595
0
LINE
8
DEFAULT_255_1_234
10
4.6535296
20
20.9764218
11
4.3402918
21
20.6366792
0
LINE
8
DEFAULT_255_1_234
10
4.3402918
20
20.6366792
11
4.9274119
21
20.6366792
0
ARC
8
DEFAULT_255_1_234
10
3.216967
20
22.2649527
40
1.8008286
50
318.5132453
51
320.7828378
0
ARC
8
DEFAULT_255_1_234
10
3.7456644
20
21.8346426
40
1.1191493
50
320.7372736
51
323.9737074
0
ARC
8
DEFAULT_255_1_234
10
4.1376501
20
21.5506361
40
0.6350923
50
323.8961724
51
328.6421089
0
ARC
8
DEFAULT_255_1_234
10
4.3423096
20
21.4244031
40
0.3946393
50
328.8299013
51
331.789948
0
ARC
8
DEFAULT_255_1_234
10
4.4420274
20
21.3729509
40
0.2824501
50
331.4255242
51
352.9364833
0
ARC
8
DEFAULT_255_1_234
10
4.4556775
20
21.3698976
40
0.2685315
50
353.2248685
51
0.0169286
0
ARC
8
DEFAULT_255_1_234
10
4.4766652
20
21.372195
40
0.2475536
50
359.4866256
51
15.9339782
0
ARC
8
DEFAULT_255_1_234
10
4.5273637
20
21.3858286
40
0.1950618
50
16.1714718
51
43.5284424
0
ARC
8
DEFAULT_255_1_234
10
4.5350946
20
21.3935573
40
0.184134
50
43.4415429
51
83.1661404
0
ARC
8
DEFAULT_255_1_234
10
4.5216864
20
21.3198771
40
0.258926
50
82.160215
51
90.1505798
0
ARC
8
DEFAULT_255_1_234
10
4.5185291
20
21.2661865
40
0.3126255
50
89.5460705
51
102.5418777
0
ARC
8
DEFAULT_255_1_234
10
4.4942377
20
21.3692665
40
0.2067346
50
102.1739365
51
129.2061916
0
ARC
8
DEFAULT_255_1_234
10
4.4863449
20
21.3817094
40
0.1921118
50
129.7279328
51
135.7542026
0
ARC
8
DEFAULT_255_1_234
10
4.4984977
20
21.3720045
40
0.2075944
50
136.175737
51
166.3674722
0
ARC
8
DEFAULT_255_1_234
10
4.5991896
20
21.3450182
40
0.3118201
50
165.9092917
51
178.8683903
0
ARC
8
DEFAULT_255_1_234
10
4.6856757
20
21.3403179
40
0.3983935
50
178.438168
51
180.0083905
0
ARC
8
DEFAULT_255_1_234
10
4.5455359
20
21.3442231
40
0.4068601
50
163.2878735
51
180.5581814
0
ARC
8
DEFAULT_255_1_234
10
4.4653621
20
21.366284
40
0.3237344
50
133.454115
51
162.9470031
0
ARC
8
DEFAULT_255_1_234
10
4.4832162
20
21.3473
40
0.349795
50
100.7869394
51
133.4384016
0
ARC
8
DEFAULT_255_1_234
10
4.5179934
20
21.1924319
40
0.5084616
50
89.6605301
51
101.3704185
0
ARC
8
DEFAULT_255_1_234
10
4.5246273
20
21.1985496
40
0.502348
50
78.2171172
51
90.4130393
0
ARC
8
DEFAULT_255_1_234
10
4.5601351
20
21.3609637
40
0.3361092
50
55.9268222
51
78.4888551
0
ARC
8
DEFAULT_255_1_234
10
4.5797791
20
21.3948324
40
0.2970617
50
47.9292255
51
55.4054003
0
ARC
8
DEFAULT_255_1_234
10
4.5899352
20
21.4051502
40
0.2825983
50
4.3347696
51
48.0560701
0
ARC
8
DEFAULT_255_1_234
10
4.4803745
20
21.3881601
40
0.393225
50
359.925209
51
5.5967654
0
ARC
8
DEFAULT_255_1_234
10
4.5232637
20
21.3937816
40
0.3503892
50
337.8914096
51
358.9967724
0
ARC
8
DEFAULT_255_1_234
10
4.2519049
20
21.4984706
40
0.6412172
50
326.9135351
51
338.3505194
0
ARC
8
DEFAULT_255_1_234
10
3.8533353
20
21.7539284
40
1.1146189
50
319.6472867
51
327.095818
0
ARC
8
DEFAULT_255_1_234
10
3.4700356
20
22.0701
40
1.6114559
50
317.2586784
51
319.9046139
0
LINE
8
DEFAULT_255_1_234
10
5.7121127
20
21.6848211
11
5.7121127
21
20.908152
0
LINE
8
DEFAULT_255_1_234
10
5.7121127
20
20.908152
11
5.8743538
21
20.908152
0
LINE
8
DEFAULT_255_1_234
10
5.8743538
20
20.908152
11
5.8743538
21
20.7868728
0
LINE
8
DEFAULT_255_1_234
10
5.8743538
20
20.7868728
11
5.7121127
21
20.7868728
0
LINE
8
DEFAULT_255_1_234
10
5.7121127
20
20.7868728
11
5.7121127
21
20.5154
0
LINE
8
DEFAULT_255_1_234
10
5.7121127
20
20.5154
11
5.5627224
21
20.5154
0
LINE
8
DEFAULT_255_1_234
10
5.5627224
20
20.5154
11
5.5627224
21
20.7868728
0
LINE
8
DEFAULT_255_1_234
10
5.5627224
20
20.7868728
11
5.0302181
21
20.7868728
0
LINE
8
DEFAULT_255_1_234
10
5.0302181
20
20.7868728
11
5.0302181
21
20.8744187
0
LINE
8
DEFAULT_255_1_234
10
5.0302181
20
20.8744187
11
5.5538875
21
21.6848211
0
LINE
8
DEFAULT_255_1_234
10
5.5538875
20
21.6848211
11
5.7121127
21
21.6848211
0
LINE
8
DEFAULT_255_1_234
10
5.5450525
20
21.4494912
11
5.1988846
21
20.908152
0
LINE
8
DEFAULT_255_1_234
10
5.1988846
20
20.908152
11
5.5627224
21
20.908152
0
LINE
8
DEFAULT_255_1_234
10
5.5627224
20
20.908152
11
5.5627224
21
21.4816181
0
LINE
8
DEFAULT_255_1_234
10
5.5627224
20
21.4816181
11
5.5450525
21
21.4494912
0
LINE
8
DEFAULT_255_1_234
10
6.101652
20
21.6848211
11
6.434166
21
20.7202093
0
LINE
8
DEFAULT_255_1_234
10
6.434166
20
20.7202093
11
6.7682863
21
21.6848211
0
LINE
8
DEFAULT_255_1_234
10
6.7682863
20
21.6848211
11
6.9369528
21
21.6848211
0
LINE
8
DEFAULT_255_1_234
10
6.9369528
20
21.6848211
11
6.5032389
21
20.5154
0
LINE
8
DEFAULT_255_1_234
10
6.5032389
20
20.5154
11
6.3666994
21
20.5154
0
LINE
8
DEFAULT_255_1_234
10
6.3666994
20
20.5154
11
5.9337887
21
21.6848211
0
LINE
8
DEFAULT_255_1_234
10
5.9337887
20
21.6848211
11
6.101652
21
21.6848211
0
LINE
8
DEFAULT_255_1_234
10
4.748685
20
5.2829391
11
4.748685
21
5.1568408
0
LINE
8
DEFAULT_255_1_234
10
4.748685
20
5.1568408
11
4.2579458
21
5.1568408
0
LINE
8
DEFAULT_255_1_234
10
4.2579458
20
5.1568408
11
4.2579458
21
4.6404
0
LINE
8
DEFAULT_255_1_234
10
4.2579458
20
4.6404
11
4.1037364
21
4.6404
0
LINE
8
DEFAULT_255_1_234
10
4.1037364
20
4.6404
11
4.1037364
21
5.8098211
0
LINE
8
DEFAULT_255_1_234
10
4.1037364
20
5.8098211
11
4.8281992
21
5.8098211
0
LINE
8
DEFAULT_255_1_234
10
4.8281992
20
5.8098211
11
4.8281992
21
5.6829196
0
LINE
8
DEFAULT_255_1_234
10
4.8281992
20
5.6829196
11
4.2579458
21
5.6829196
0
LINE
8
DEFAULT_255_1_234
10
4.2579458
20
5.6829196
11
4.2579458
21
5.2829391
0
LINE
8
DEFAULT_255_1_234
10
4.2579458
20
5.2829391
11
4.748685
21
5.2829391
0
LINE
8
DEFAULT_255_1_234
10
5.876341
20
5.222701
11
5.876341
21
4.7938062
0
LINE
8
DEFAULT_255_1_234
10
4.97518
20
5.1688884
11
4.97518
21
5.2708915
0
LINE
8
DEFAULT_255_1_234
10
5.876341
20
5.4668659
11
5.7221316
21
5.4668659
0
LINE
8
DEFAULT_255_1_234
10
5.1301925
20
5.2749073
11
5.1301925
21
5.1793296
0
LINE
8
DEFAULT_255_1_234
10
5.7229348
20
4.8347681
11
5.7229348
21
5.0974059
0
LINE
8
DEFAULT_255_1_234
10
5.7229348
20
5.0974059
11
5.4522652
21
5.0974059
0
LINE
8
DEFAULT_255_1_234
10
5.4522652
20
5.0974059
11
5.4522652
21
5.222701
0
LINE
8
DEFAULT_255_1_234
10
5.4522652
20
5.222701
11
5.876341
21
5.222701
0
ARC
8
DEFAULT_255_1_234
10
5.5931916
20
4.9931396
40
0.3462765
50
295.8437914
51
324.8549609
0
ARC
8
DEFAULT_255_1_234
10
5.5515883
20
5.0684567
40
0.4322211
50
291.5695085
51
296.4549398
0
ARC
8
DEFAULT_255_1_234
10
5.5005135
20
5.2049275
40
0.5779178
50
278.6622409
51
291.3045483
0
ARC
8
DEFAULT_255_1_234
10
5.4665626
20
5.4197408
40
0.7953952
50
270.020006
51
278.7494541
0
ARC
8
DEFAULT_255_1_234
10
5.462755
20
5.5514036
40
0.927067
50
269.9969998
51
270.2524872
0
ARC
8
DEFAULT_255_1_234
10
5.4589264
20
5.1430589
40
0.5187361
50
253.5786322
51
270.4175299
0
ARC
8
DEFAULT_255_1_234
10
5.441592
20
5.0759236
40
0.4494451
50
238.8203306
51
253.2788235
0
ARC
8
DEFAULT_255_1_234
10
5.4396293
20
5.0708231
40
0.4440665
50
206.7883783
51
238.6962764
0
ARC
8
DEFAULT_255_1_234
10
5.5170203
20
5.1172405
40
0.5341121
50
206.1129412
51
207.4916643
0
ARC
8
DEFAULT_255_1_234
10
5.5767118
20
5.1426488
40
0.5989041
50
188.6921119
51
205.7821245
0
ARC
8
DEFAULT_255_1_234
10
5.762348
20
5.174223
40
0.7871862
50
180.3882829
51
188.9219216
0
ARC
8
DEFAULT_255_1_234
10
5.8851294
20
5.2765464
40
0.909967
50
170.2024264
51
180.3560651
0
ARC
8
DEFAULT_255_1_234
10
5.5687812
20
5.3331237
40
0.5886083
50
154.2857445
51
170.3893044
0
ARC
8
DEFAULT_255_1_234
10
5.4406015
20
5.391795
40
0.4476743
50
139.8401567
51
153.9332699
0
ARC
8
DEFAULT_255_1_234
10
5.4046751
20
5.4205577
40
0.4016697
50
98.4190291
51
139.6707122
0
ARC
8
DEFAULT_255_1_234
10
5.4426268
20
5.2360328
40
0.5898566
50
89.7659205
51
99.4415478
0
ARC
8
DEFAULT_255_1_234
10
5.4491518
20
5.2425844
40
0.5833147
50
78.0551672
51
90.4042112
0
ARC
8
DEFAULT_255_1_234
10
5.4896028
20
5.4244644
40
0.3970055
50
54.6380464
51
78.3339173
0
ARC
8
DEFAULT_255_1_234
10
5.5086084
20
5.4564795
40
0.3599102
50
50.031736
51
54.1558201
0
ARC
8
DEFAULT_255_1_234
10
5.4978871
20
5.4468766
40
0.3741624
50
18.1092409
51
49.7180913
0
ARC
8
DEFAULT_255_1_234
10
5.3522071
20
5.3935089
40
0.5292424
50
7.9672797
51
18.6984571
0
ARC
8
DEFAULT_255_1_234
10
5.367255
20
5.4058504
40
0.3600838
50
9.7557294
51
27.3215714
0
ARC
8
DEFAULT_255_1_234
10
5.4800021
20
5.4621912
40
0.2340608
50
27.7361077
51
84.5257964
0
ARC
8
DEFAULT_255_1_234
10
5.4472408
20
5.297864
40
0.4011215
50
82.106034
51
90.2001166
0
ARC
8
DEFAULT_255_1_234
10
5.4422625
20
5.3486215
40
0.3503799
50
89.4150119
51
105.5823402
0
ARC
8
DEFAULT_255_1_234
10
5.4165623
20
5.4421867
40
0.2533503
50
105.6678618
51
144.2648758
0
ARC
8
DEFAULT_255_1_234
10
5.5058879
20
5.3786289
40
0.3629787
50
144.3561283
51
162.8564086
0
ARC
8
DEFAULT_255_1_234
10
5.7142788
20
5.3117017
40
0.5818441
50
162.6076014
51
173.6780284
0
ARC
8
DEFAULT_255_1_234
10
6.0203931
20
5.274489
40
0.8902007
50
173.4670142
51
179.9730753
0
ARC
8
DEFAULT_255_1_234
10
5.8295603
20
5.175126
40
0.6993804
50
179.6556203
51
190.0080463
0
ARC
8
DEFAULT_255_1_234
10
5.5979432
20
5.1326375
40
0.4639066
50
189.8116607
51
206.6796816
0
ARC
8
DEFAULT_255_1_234
10
5.5134584
20
5.0932503
40
0.3707421
50
207.1031645
51
217.7074368
0
ARC
8
DEFAULT_255_1_234
10
5.4500273
20
5.0380559
40
0.2868417
50
216.7345547
51
265.6812148
0
ARC
8
DEFAULT_255_1_234
10
5.4631064
20
5.1284855
40
0.3780509
50
264.7366618
51
270.0611241
0
ARC
8
DEFAULT_255_1_234
10
5.4654327
20
5.4125111
40
0.662079
50
269.8335834
51
276.0539546
0
ARC
8
DEFAULT_255_1_234
10
5.4861331
20
5.222356
40
0.4708016
50
275.9894168
51
284.4615085
0
ARC
8
DEFAULT_255_1_234
10
5.5059338
20
5.1390663
40
0.3852094
50
284.7034461
51
286.4953897
0
ARC
8
DEFAULT_255_1_234
10
5.5466352
20
5.0079965
40
0.2479842
50
286.0770838
51
304.2625829
0
ARC
8
DEFAULT_255_1_234
10
5.5599766
20
4.9861594
40
0.2224291
50
304.5891602
51
317.1073298
0
LINE
8
DEFAULT_255_1_234
10
4.2947902
20
13.7473211
11
4.2947902
21
12.5779
0
LINE
8
DEFAULT_255_1_234
10
4.2947902
20
12.5779
11
4.1405808
21
12.5779
0
LINE
8
DEFAULT_255_1_234
10
4.1405808
20
12.5779
11
4.1405808
21
13.7473211
0
LINE
8
DEFAULT_255_1_234
10
4.1405808
20
13.7473211
11
4.2947902
21
13.7473211
0
LINE
8
DEFAULT_255_1_234
10
5.4762589
20
13.1987534
11
5.4762589
21
13.1248614
0
LINE
8
DEFAULT_255_1_234
10
4.5357423
20
13.1144201
11
4.5357423
21
13.1987534
0
LINE
8
DEFAULT_255_1_234
10
5.3228527
20
13.1136169
11
5.3228527
21
13.2003597
0
LINE
8
DEFAULT_255_1_234
10
4.6891485
20
13.210801
11
4.6891485
21
13.1248614
0
ARC
8
DEFAULT_255_1_234
10
4.6120615
20
13.1209015
40
0.8642064
50
350.487711
51
0.2625388
0
ARC
8
DEFAULT_255_1_234
10
4.8413857
20
13.0814578
40
0.631518
50
336.0277639
51
350.5787438
0
ARC
8
DEFAULT_255_1_234
10
4.975868
20
13.0206892
40
0.4839466
50
319.8877444
51
336.1328423
0
ARC
8
DEFAULT_255_1_234
10
5.0361321
20
12.972458
40
0.4067874
50
302.4806467
51
319.6143626
0
ARC
8
DEFAULT_255_1_234
10
5.0246331
20
12.9946202
40
0.4316636
50
275.8195682
51
302.1884709
0
ARC
8
DEFAULT_255_1_234
10
5.0079964
20
13.1088665
40
0.5470306
50
269.9171439
51
276.3397983
0
ARC
8
DEFAULT_255_1_234
10
5.0035174
20
13.0402681
40
0.4784458
50
252.5219675
51
270.4416499
0
ARC
8
DEFAULT_255_1_234
10
4.9891433
20
12.9863592
40
0.422716
50
237.5352116
51
252.1857531
0
ARC
8
DEFAULT_255_1_234
10
4.9980629
20
12.9977363
40
0.4371052
50
209.063312
51
237.3492538
0
ARC
8
DEFAULT_255_1_234
10
5.0850477
20
13.0523685
40
0.5397041
50
205.1183774
51
209.6470015
0
ARC
8
DEFAULT_255_1_234
10
5.1647514
20
13.086183
40
0.6262326
50
188.7215458
51
204.8240747
0
ARC
8
DEFAULT_255_1_234
10
5.3645042
20
13.1198067
40
0.8287794
50
180.3723947
51
188.9252049
0
ARC
8
DEFAULT_255_1_234
10
5.3617794
20
13.2027402
40
0.8260467
50
169.5253763
51
180.2765336
0
ARC
8
DEFAULT_255_1_234
10
5.1715243
20
13.2377309
40
0.6326007
50
155.8315255
51
169.5089989
0
ARC
8
DEFAULT_255_1_234
10
5.0434744
20
13.2971348
40
0.4914567
50
139.6258461
51
156.0379525
0
ARC
8
DEFAULT_255_1_234
10
4.9845077
20
13.3445799
40
0.4158054
50
122.6416387
51
139.3430715
0
ARC
8
DEFAULT_255_1_234
10
4.9945697
20
13.3262451
40
0.4366739
50
93.0223692
51
122.455762
0
ARC
8
DEFAULT_255_1_234
10
5.0053694
20
13.2297709
40
0.5336137
50
89.975342
51
93.6341897
0
ARC
8
DEFAULT_255_1_234
10
5.0092473
20
13.2696242
40
0.4937738
50
73.746375
51
90.4233405
0
ARC
8
DEFAULT_255_1_234
10
5.0268052
20
13.3376287
40
0.4235786
50
57.662753
51
73.4518111
0
ARC
8
DEFAULT_255_1_234
10
5.0260058
20
13.3397832
40
0.4221899
50
29.1440151
51
57.414694
0
ARC
8
DEFAULT_255_1_234
10
4.9325253
20
13.2814005
40
0.5322966
50
24.0982783
51
29.7323517
0
ARC
8
DEFAULT_255_1_234
10
4.8291528
20
13.2385399
40
0.6441673
50
8.6655297
51
23.8241346
0
ARC
8
DEFAULT_255_1_234
10
4.6057266
20
13.2020854
40
0.8705386
50
359.7806941
51
8.8218784
0
ARC
8
DEFAULT_255_1_234
10
4.4910264
20
13.2046345
40
0.8318373
50
359.7055579
51
8.036044
0
ARC
8
DEFAULT_255_1_234
10
4.791027
20
13.2483239
40
0.5286768
50
7.8928306
51
20.2962107
0
ARC
8
DEFAULT_255_1_234
10
4.9537841
20
13.3083395
40
0.3552073
50
20.3231126
51
36.4992797
0
ARC
8
DEFAULT_255_1_234
10
5.0223387
20
13.3611402
40
0.2686974
50
36.1437156
51
85.6627023
0
ARC
8
DEFAULT_255_1_234
10
5.0060933
20
13.2571221
40
0.373739
50
84.3852322
51
90.0757696
0
ARC
8
DEFAULT_255_1_234
10
5.0018605
20
13.3231839
40
0.3076997
50
89.3038458
51
109.9045693
0
ARC
8
DEFAULT_255_1_234
10
4.9925996
20
13.3614062
40
0.2686424
50
110.8228367
51
143.9179474
0
ARC
8
DEFAULT_255_1_234
10
5.0859656
20
13.2901236
40
0.3860887
50
143.5289163
51
163.2980757
0
ARC
8
DEFAULT_255_1_234
10
5.2767477
20
13.2301433
40
0.5860659
50
163.0418846
51
174.3140048
0
ARC
8
DEFAULT_255_1_234
10
5.5171589
20
13.2023854
40
0.8280531
50
174.0509143
51
179.4176892
0
ARC
8
DEFAULT_255_1_234
10
5.4667328
20
13.1206954
40
0.7775954
50
179.6930361
51
188.7906598
0
ARC
8
DEFAULT_255_1_234
10
5.2003807
20
13.0780935
40
0.5078633
50
188.6331305
51
202.5629587
0
ARC
8
DEFAULT_255_1_234
10
5.0749399
20
13.0276996
40
0.3726913
50
202.8081362
51
216.1193925
0
ARC
8
DEFAULT_255_1_234
10
4.9939969
20
12.9625676
40
0.2689577
50
215.0755913
51
264.6379694
0
ARC
8
DEFAULT_255_1_234
10
5.0066919
20
13.0456513
40
0.3528978
50
263.846392
51
270.0833719
0
ARC
8
DEFAULT_255_1_234
10
5.0108309
20
13.0198374
40
0.3271036
50
269.3649385
51
287.5152008
0
ARC
8
DEFAULT_255_1_234
10
5.0286467
20
12.9551238
40
0.2600406
50
288.0630309
51
323.8113348
0
ARC
8
DEFAULT_255_1_234
10
4.9415309
20
13.0201049
40
0.3687189
50
323.6547608
51
342.6590488
0
ARC
8
DEFAULT_255_1_234
10
4.7383924
20
13.0861952
40
0.5823286
50
342.4091907
51
353.6451149
0
ARC
8
DEFAULT_255_1_234
10
4.4552434
20
13.121419
40
0.8676442
50
353.4029884
51
359.4847795
0
LINE
8
DEFAULT_255_1_234
10
6.1573503
20
13.7529433
11
6.1573503
21
12.5779
0
LINE
8
DEFAULT_255_1_234
10
6.1573503
20
12.5779
11
6.00796
21
12.5779
0
LINE
8
DEFAULT_255_1_234
10
6.00796
20
12.5779
11
6.00796
21
13.5682133
0
LINE
8
DEFAULT_255_1_234
10
6.00796
20
13.5682133
11
5.7083761
21
13.4581785
0
LINE
8
DEFAULT_255_1_234
10
5.7083761
20
13.4581785
11
5.7083761
21
13.5931117
0
LINE
8
DEFAULT_255_1_234
10
5.7083761
20
13.5931117
11
6.1340583
21
13.7529433
0
LINE
8
DEFAULT_255_1_234
10
6.1340583
20
13.7529433
11
6.1573503
21
13.7529433
0
LINE
8
DEFAULT_255_1_234
10
23.1659817
20
21.2069327
11
23.1659817
21
21.0141709
0
LINE
8
DEFAULT_255_1_234
10
22.427865
20
20.9940916
11
22.427865
21
21.1924755
0
LINE
8
DEFAULT_255_1_234
10
23.0173946
20
20.9740123
11
23.0173946
21
21.2173739
0
LINE
8
DEFAULT_255_1_234
10
22.5764521
20
21.2286184
11
22.5764521
21
20.9908789
0
ARC
8
DEFAULT_255_1_234
10
21.9412707
20
21.0092805
40
1.2247208
50
353.8441951
51
0.2287902
0
ARC
8
DEFAULT_255_1_234
10
22.4052211
20
20.9574806
40
0.7578929
50
344.4934747
51
353.9765454
0
ARC
8
DEFAULT_255_1_234
10
22.7044801
20
20.8723981
40
0.4467846
50
329.2803592
51
344.7472793
0
ARC
8
DEFAULT_255_1_234
10
22.8037626
20
20.8179018
40
0.3336173
50
324.9352394
51
328.6160465
0
ARC
8
DEFAULT_255_1_234
10
22.8414734
20
20.7915427
40
0.2876076
50
280.580143
51
324.9173126
0
ARC
8
DEFAULT_255_1_234
10
22.8013527
20
20.9586099
40
0.4592847
50
269.5977311
51
281.6734359
0
ARC
8
DEFAULT_255_1_234
10
22.7941433
20
20.9466173
40
0.4472986
50
256.6228859
51
270.51044
0
ARC
8
DEFAULT_255_1_234
10
22.753941
20
20.7917877
40
0.2873874
50
215.8618325
51
257.2788573
0
ARC
8
DEFAULT_255_1_234
10
22.8560442
20
20.8602977
40
0.4102928
50
197.9693508
51
215.2623606
0
ARC
8
DEFAULT_255_1_234
10
23.1045558
20
20.9441709
40
0.6725652
50
187.8816417
51
198.2346507
0
ARC
8
DEFAULT_255_1_234
10
23.5003766
20
21.0013079
40
1.0724845
50
180.8976217
51
188.0055519
0
ARC
8
DEFAULT_255_1_234
10
23.7803954
20
21.0116777
40
1.3526448
50
180.7449369
51
181.1510016
0
ARC
8
DEFAULT_255_1_234
10
23.6226683
20
21.1973042
40
1.1948131
50
173.7675579
51
180.231553
0
ARC
8
DEFAULT_255_1_234
10
23.170883
20
21.2483666
40
0.7401564
50
164.3058563
51
173.9002247
0
ARC
8
DEFAULT_255_1_234
10
22.8796899
20
21.3322656
40
0.4371288
50
148.7922025
51
164.568378
0
ARC
8
DEFAULT_255_1_234
10
22.7845351
20
21.3853929
40
0.3282386
50
144.5883898
51
148.1176286
0
ARC
8
DEFAULT_255_1_234
10
22.7502249
20
21.4093315
40
0.2864044
50
101.6440918
51
144.514236
0
ARC
8
DEFAULT_255_1_234
10
22.7927315
20
21.2404069
40
0.4604934
50
89.5284041
51
102.5819763
0
ARC
8
DEFAULT_255_1_234
10
22.8006403
20
21.2365018
40
0.464401
50
77.0437873
51
90.5081339
0
ARC
8
DEFAULT_255_1_234
10
22.8408405
20
21.4007615
40
0.2953195
50
48.2778575
51
77.4994676
0
ARC
8
DEFAULT_255_1_234
10
22.8481036
20
21.4136746
40
0.2808655
50
36.3142134
51
47.6305865
0
ARC
8
DEFAULT_255_1_234
10
22.7612343
20
21.3551515
40
0.3855453
50
18.2931786
51
35.6769206
0
ARC
8
DEFAULT_255_1_234
10
22.5069102
20
21.2678593
40
0.654423
50
8.024666
51
18.5605216
0
ARC
8
DEFAULT_255_1_234
10
22.0906022
20
21.2063792
40
1.0752407
50
1.1274072
51
8.1718305
0
ARC
8
DEFAULT_255_1_234
10
21.7670213
20
21.1936885
40
1.3990231
50
0.5424119
51
1.3863029
0
ARC
8
DEFAULT_255_1_234
10
21.949159
20
21.2209342
40
1.0682415
50
359.8090433
51
4.9407866
0
ARC
8
DEFAULT_255_1_234
10
22.3701604
20
21.2585113
40
0.6455691
50
4.8362157
51
12.2904523
0
ARC
8
DEFAULT_255_1_234
10
22.6456719
20
21.3198965
40
0.3633074
50
12.0805627
51
23.8173984
0
ARC
8
DEFAULT_255_1_234
10
22.7630425
20
21.3695919
40
0.2358723
50
24.2871213
51
31.3935614
0
ARC
8
DEFAULT_255_1_234
10
22.8155122
20
21.4039233
40
0.1732111
50
30.7407893
51
82.4657128
0
ARC
8
DEFAULT_255_1_234
10
22.7975256
20
21.3155691
40
0.263235
50
81.1060089
51
90.2184952
0
ARC
8
DEFAULT_255_1_234
10
22.7939555
20
21.3413924
40
0.2374236
50
89.3806855
51
105.6762551
0
ARC
8
DEFAULT_255_1_234
10
22.7756186
20
21.4080567
40
0.1682847
50
105.7981136
51
149.7388061
0
ARC
8
DEFAULT_255_1_234
10
22.8820264
20
21.344095
40
0.2924306
50
149.4208916
51
163.6286378
0
ARC
8
DEFAULT_255_1_234
10
23.0911152
20
21.280325
40
0.5110213
50
163.3763315
51
172.1410975
0
ARC
8
DEFAULT_255_1_234
10
23.4211871
20
21.2330518
40
0.8444586
50
172.0259487
51
178.0703232
0
ARC
8
DEFAULT_255_1_234
10
23.724196
20
21.2186906
40
1.1477868
50
177.8631668
51
179.5044149
0
ARC
8
DEFAULT_255_1_234
10
23.6169365
20
20.9872389
40
1.0404907
50
179.7995573
51
185.2460446
0
ARC
8
DEFAULT_255_1_234
10
23.2126404
20
20.9489513
40
0.6343885
50
185.1411642
51
193.0079639
0
ARC
8
DEFAULT_255_1_234
10
22.9482877
20
20.8864641
40
0.3627568
50
192.7897626
51
205.2507664
0
ARC
8
DEFAULT_255_1_234
10
22.8436424
20
20.8397415
40
0.2481908
50
205.8005384
51
211.2537509
0
ARC
8
DEFAULT_255_1_234
10
22.7912864
20
20.804658
40
0.1852521
50
210.3789793
51
238.4008143
0
ARC
8
DEFAULT_255_1_234
10
22.7893386
20
20.8093376
40
0.1882621
50
239.6520629
51
265.9793761
0
ARC
8
DEFAULT_255_1_234
10
22.7978586
20
20.8765427
40
0.2559272
50
265.1315437
51
270.060332
0
ARC
8
DEFAULT_255_1_234
10
22.8007365
20
20.8441534
40
0.2235528
50
269.3314664
51
287.2178029
0
ARC
8
DEFAULT_255_1_234
10
22.8145217
20
20.7938279
40
0.1714108
50
287.7958004
51
329.080874
0
ARC
8
DEFAULT_255_1_234
10
22.7187674
20
20.853593
40
0.2842745
50
328.6634704
51
343.3325132
0
ARC
8
DEFAULT_255_1_234
10
22.5014694
20
20.9212863
40
0.5118644
50
343.0499468
51
351.9393422
0
ARC
8
DEFAULT_255_1_234
10
22.1547994
20
20.9723949
40
0.8622784
50
351.8069023
51
357.7959224
0
ARC
8
DEFAULT_255_1_234
10
21.831255
20
20.9891721
40
1.1862365
50
357.5871873
51
359.2677531
0
LINE
8
DEFAULT_255_1_234
10
23.4495021
20
21.6848211
11
23.7820161
21
20.7202093
0
LINE
8
DEFAULT_255_1_234
10
23.7820161
20
20.7202093
11
24.1161364
21
21.6848211
0
LINE
8
DEFAULT_255_1_234
10
24.1161364
20
21.6848211
11
24.2848029
21
21.6848211
0
LINE
8
DEFAULT_255_1_234
10
24.2848029
20
21.6848211
11
23.851089
21
20.5154
0
LINE
8
DEFAULT_255_1_234
10
23.851089
20
20.5154
11
23.7145495
21
20.5154
0
LINE
8
DEFAULT_255_1_234
10
23.7145495
20
20.5154
11
23.2816388
21
21.6848211
0
LINE
8
DEFAULT_255_1_234
10
23.2816388
20
21.6848211
11
23.4495021
21
21.6848211
0
ENDSEC
0
EOF