0
SECTION
2
HEADER
9
$MEASUREMENT
70
1
0
ENDSEC
0
SECTION
2
TABLES
0
TABLE
2
LTYPE
0
LTYPE
72
65
70
64
2
CONTINUOUS
3
______
73
0
40
0
0
ENDTAB
0
TABLE
2
LAYER
0
LAYER
2
DEFAULT_255_2_778
70
0
62
255
6
CONTINUOUS
0
LAYER
2
DEFAULT_255_1_388
70
0
62
255
6
CONTINUOUS
0
ENDTAB
0
ENDSEC
0
SECTION
2
ENTITIES
0
ARC
8
DEFAULT_255_2_778
10
3.5700693
20
36.1176536
40
0.7914215
50
129.1312896
51
180.1450914
0
ARC
8
DEFAULT_255_2_778
10
3.5703345
20
36.1181407
40
0.7912112
50
89.854026
51
129.1684493
0
ARC
8
DEFAULT_255_2_778
10
25.7993937
20
36.1178272
40
0.7915249
50
39.4792447
51
90.147911
0
ARC
8
DEFAULT_255_2_778
10
25.7999935
20
36.1176739
40
0.7911595
50
359.8533901
51
39.5154338
0
ARC
8
DEFAULT_255_2_778
10
25.7996693
20
-1.9863987
40
0.7914836
50
309.4761667
51
0.1482649
0
ARC
8
DEFAULT_255_2_778
10
25.799398
20
-1.9868298
40
0.7913235
50
269.8517415
51
309.511178
0
ARC
8
DEFAULT_255_2_778
10
3.570342
20
-1.9867716
40
0.7913815
50
219.1282118
51
270.1454017
0
ARC
8
DEFAULT_255_2_778
10
3.5700247
20
-1.9863891
40
0.7913769
50
179.8524075
51
219.1641908
0
LINE
8
DEFAULT_255_2_778
10
3.5723503
20
36.9093494
11
25.7973503
21
36.9093494
0
LINE
8
DEFAULT_255_2_778
10
26.5911503
20
36.1156494
11
26.5911503
21
-1.9843506
0
LINE
8
DEFAULT_255_2_778
10
25.7973503
20
-2.7781506
11
3.5723503
21
-2.7781506
0
LINE
8
DEFAULT_255_2_778
10
2.7786503
20
-1.9843506
11
2.7786503
21
36.1156494
0
LINE
8
DEFAULT_255_1_388
10
10.258691
20
0.6757898
11
10.258691
21
-0.6398
0
LINE
8
DEFAULT_255_1_388
10
10.258691
20
-0.6398
11
10.0843031
21
-0.6398
0
LINE
8
DEFAULT_255_1_388
10
10.0843031
20
-0.6398
11
9.4219903
21
0.3739993
0
LINE
8
DEFAULT_255_1_388
10
9.4219903
20
0.3739993
11
9.4219903
21
-0.6398
0
LINE
8
DEFAULT_255_1_388
10
9.4219903
20
-0.6398
11
9.2476024
21
-0.6398
0
LINE
8
DEFAULT_255_1_388
10
9.2476024
20
-0.6398
11
9.2476024
21
0.6757898
0
LINE
8
DEFAULT_255_1_388
10
9.2476024
20
0.6757898
11
9.4219903
21
0.6757898
0
LINE
8
DEFAULT_255_1_388
10
9.4219903
20
0.6757898
11
10.0861102
21
-0.3425273
0
LINE
8
DEFAULT_255_1_388
10
10.0861102
20
-0.3425273
11
10.0861102
21
0.6757898
0
LINE
8
DEFAULT_255_1_388
10
10.0861102
20
0.6757898
11
10.258691
21
0.6757898
0
LINE
8
DEFAULT_255_1_388
10
11.1179808
20
-0.2584958
11
11.1179808
21
0.6757898
0
LINE
8
DEFAULT_255_1_388
10
11.1179808
20
0.6757898
11
11.2923688
21
0.6757898
0
LINE
8
DEFAULT_255_1_388
10
11.2923688
20
0.6757898
11
11.2923688
21
-0.2557851
0
LINE
8
DEFAULT_255_1_388
10
10.461993
20
-0.2765671
11
10.6354774
21
-0.2765671
0
ARC
8
DEFAULT_255_1_388
10
10.787141
20
-0.2601042
40
0.5052462
50
346.3132364
51
0.4897996
0
ARC
8
DEFAULT_255_1_388
10
10.9410943
20
-0.2995208
40
0.3463431
50
313.3793278
51
346.6225662
0
ARC
8
DEFAULT_255_1_388
10
10.9185026
20
-0.2710814
40
0.3825426
50
281.1587645
51
312.9130978
0
ARC
8
DEFAULT_255_1_388
10
10.8801932
20
-0.1029393
40
0.5549427
50
269.6423454
51
281.6796473
0
ARC
8
DEFAULT_255_1_388
10
10.872471
20
-0.0411501
40
0.6167359
50
258.9989698
51
270.3955842
0
ARC
8
DEFAULT_255_1_388
10
10.8303169
20
-0.2491208
40
0.4045461
50
239.625581
51
259.2387746
0
ARC
8
DEFAULT_255_1_388
10
10.7978162
20
-0.3104362
40
0.3352261
50
227.4961805
51
239.1189042
0
ARC
8
DEFAULT_255_1_388
10
10.7936045
20
-0.3172991
40
0.3273245
50
191.3396895
51
227.2280349
0
ARC
8
DEFAULT_255_1_388
10
10.9516367
20
-0.2799104
40
0.4896551
50
179.6087821
51
191.9932937
0
ARC
8
DEFAULT_255_1_388
10
10.9667112
20
-0.2790784
40
0.3312434
50
179.565607
51
192.0702314
0
ARC
8
DEFAULT_255_1_388
10
10.8574065
20
-0.303644
40
0.2192212
50
191.7655537
51
215.6462731
0
ARC
8
DEFAULT_255_1_388
10
10.8373305
20
-0.3157371
40
0.1958682
50
216.1940686
51
224.3931249
0
ARC
8
DEFAULT_255_1_388
10
10.8381002
20
-0.3127138
40
0.1985399
50
224.861176
51
254.3628599
0
ARC
8
DEFAULT_255_1_388
10
10.8685545
20
-0.2120865
40
0.3036595
50
253.9470645
51
267.395327
0
ARC
8
DEFAULT_255_1_388
10
10.8764845
20
-0.1081654
40
0.4078462
50
266.9458957
51
270.0343693
0
ARC
8
DEFAULT_255_1_388
10
10.8793425
20
-0.2388156
40
0.2772084
50
269.4598277
51
286.1819188
0
ARC
8
DEFAULT_255_1_388
10
10.8952398
20
-0.2971235
40
0.2167824
50
286.4415261
51
315.8045035
0
ARC
8
DEFAULT_255_1_388
10
10.889143
20
-0.2923799
40
0.2244619
50
316.0212602
51
345.479585
0
ARC
8
DEFAULT_255_1_388
10
10.7799589
20
-0.2616247
40
0.3378781
50
345.0729937
51
358.3249855
0
ARC
8
DEFAULT_255_1_388
10
10.6824035
20
-0.2553491
40
0.4355887
50
357.8749464
51
359.5860856
0
LINE
8
DEFAULT_255_1_388
10
12.0938304
20
0.6821148
11
12.0938304
21
-0.6398
0
LINE
8
DEFAULT_255_1_388
10
12.0938304
20
-0.6398
11
11.9257674
21
-0.6398
0
LINE
8
DEFAULT_255_1_388
10
11.9257674
20
-0.6398
11
11.9257674
21
0.474295
0
LINE
8
DEFAULT_255_1_388
10
11.9257674
20
0.474295
11
11.5887379
21
0.3505066
0
LINE
8
DEFAULT_255_1_388
10
11.5887379
20
0.3505066
11
11.5887379
21
0.5023055
0
LINE
8
DEFAULT_255_1_388
10
11.5887379
20
0.5023055
11
12.0676271
21
0.6821148
0
LINE
8
DEFAULT_255_1_388
10
12.0676271
20
0.6821148
11
12.0938304
21
0.6821148
0
LINE
8
DEFAULT_255_1_388
10
13.4085167
20
0.138169
11
13.4085167
21
-0.0786865
0
LINE
8
DEFAULT_255_1_388
10
12.578141
20
-0.1012756
11
12.578141
21
0.1219048
0
LINE
8
DEFAULT_255_1_388
10
13.2413573
20
-0.1238647
11
13.2413573
21
0.1499153
0
LINE
8
DEFAULT_255_1_388
10
12.7453004
20
0.1625652
11
12.7453004
21
-0.1048898
0
ARC
8
DEFAULT_255_1_388
10
12.0307501
20
-0.0841882
40
1.3777776
50
353.8440855
51
0.2287917
0
ARC
8
DEFAULT_255_1_388
10
12.5526518
20
-0.1424586
40
0.852639
50
344.4934746
51
353.9763743
0
ARC
8
DEFAULT_255_1_388
10
12.8893326
20
-0.2381809
40
0.5026273
50
329.2803599
51
344.7473406
0
ARC
8
DEFAULT_255_1_388
10
13.0008821
20
-0.2993962
40
0.3754848
50
324.9361395
51
328.6153007
0
ARC
8
DEFAULT_255_1_388
10
13.0434471
20
-0.3291414
40
0.3235566
50
280.5801797
51
324.9173226
0
ARC
8
DEFAULT_255_1_388
10
12.99831
20
-0.1411764
40
0.5167077
50
269.5979457
51
281.6732777
0
ARC
8
DEFAULT_255_1_388
10
12.9902003
20
-0.1546887
40
0.5032026
50
256.6228565
51
270.5105488
0
ARC
8
DEFAULT_255_1_388
10
12.9449746
20
-0.3288655
40
0.3233092
50
215.8618351
51
257.2787793
0
ARC
8
DEFAULT_255_1_388
10
13.0598453
20
-0.2517894
40
0.4615831
50
197.9695203
51
215.2622745
0
ARC
8
DEFAULT_255_1_388
10
13.3394129
20
-0.1574359
40
0.7566307
50
187.8816486
51
198.2346584
0
ARC
8
DEFAULT_255_1_388
10
13.7847367
20
-0.0931547
40
1.2065653
50
180.8977266
51
188.0054894
0
ARC
8
DEFAULT_255_1_388
10
14.0897581
20
-0.08166
40
1.5117443
50
180.7434591
51
181.152202
0
ARC
8
DEFAULT_255_1_388
10
13.9222576
20
0.1273371
40
1.3441277
50
173.7674302
51
180.2315596
0
ARC
8
DEFAULT_255_1_388
10
13.4140445
20
0.1847779
40
0.8326847
50
164.3058537
51
173.9000553
0
ARC
8
DEFAULT_255_1_388
10
13.0864445
20
0.2791652
40
0.4917711
50
148.7922028
51
164.5682288
0
ARC
8
DEFAULT_255_1_388
10
12.9795183
20
0.3388457
40
0.3694204
50
144.5883979
51
148.1161588
0
ARC
8
DEFAULT_255_1_388
10
12.9407928
20
0.3658667
40
0.322202
50
101.6440149
51
144.5142619
0
ARC
8
DEFAULT_255_1_388
10
12.988612
20
0.1758337
40
0.5180451
50
89.528284
51
102.5820197
0
ARC
8
DEFAULT_255_1_388
10
12.9975112
20
0.1714376
40
0.5224441
50
77.0437914
51
90.508231
0
ARC
8
DEFAULT_255_1_388
10
13.0427366
20
0.3562272
40
0.3322297
50
48.2777708
51
77.4996087
0
ARC
8
DEFAULT_255_1_388
10
13.0509106
20
0.3707557
40
0.315966
50
36.3141586
51
47.6307332
0
ARC
8
DEFAULT_255_1_388
10
12.9531828
20
0.3049159
40
0.4337313
50
18.2931065
51
35.6770203
0
ARC
8
DEFAULT_255_1_388
10
12.6670669
20
0.2067107
40
0.7362203
50
8.0246996
51
18.5605636
0
ARC
8
DEFAULT_255_1_388
10
12.1987024
20
0.1375432
40
1.2096583
50
1.127539
51
8.1718423
0
ARC
8
DEFAULT_255_1_388
10
11.8338158
20
0.1232374
40
1.5747719
50
0.5432713
51
1.38669
0
ARC
8
DEFAULT_255_1_388
10
12.0395537
20
0.1539163
40
1.2018103
50
359.8092569
51
4.9408001
0
ARC
8
DEFAULT_255_1_388
10
12.5132118
20
0.19619
40
0.7262727
50
4.8364937
51
12.2906017
0
ARC
8
DEFAULT_255_1_388
10
12.8231583
20
0.2652485
40
0.4087324
50
12.0806994
51
23.8171225
0
ARC
8
DEFAULT_255_1_388
10
12.9551979
20
0.3211508
40
0.2653719
50
24.2874621
51
31.3934353
0
ARC
8
DEFAULT_255_1_388
10
13.0142415
20
0.3597822
40
0.1948607
50
30.7407708
51
82.4658033
0
ARC
8
DEFAULT_255_1_388
10
12.9940075
20
0.2604017
40
0.2961198
50
81.1057101
51
90.2187368
0
ARC
8
DEFAULT_255_1_388
10
12.9899887
20
0.2894421
40
0.2670929
50
89.380395
51
105.6763916
0
ARC
8
DEFAULT_255_1_388
10
12.9693609
20
0.364432
40
0.1893189
50
105.7980655
51
149.7387869
0
ARC
8
DEFAULT_255_1_388
10
13.0890749
20
0.2924719
40
0.3289892
50
149.4208441
51
163.628295
0
ARC
8
DEFAULT_255_1_388
10
13.3242979
20
0.2207345
40
0.5749004
50
163.3764549
51
172.141138
0
ARC
8
DEFAULT_255_1_388
10
13.69557
20
0.1675582
40
0.9499585
50
172.0258462
51
178.0705453
0
ARC
8
DEFAULT_255_1_388
10
14.0377253
20
0.1513682
40
1.2924734
50
177.8639301
51
179.5036263
0
ARC
8
DEFAULT_255_1_388
10
13.9158272
20
-0.1089849
40
1.170534
50
179.7995545
51
185.246089
0
ARC
8
DEFAULT_255_1_388
10
13.4609865
20
-0.1520596
40
0.7136613
50
185.1411911
51
193.0082205
0
ARC
8
DEFAULT_255_1_388
10
13.1636126
20
-0.2223559
40
0.4080987
50
192.7897338
51
205.2507384
0
ARC
8
DEFAULT_255_1_388
10
13.0458336
20
-0.2749462
40
0.2791522
50
205.8001921
51
211.2545876
0
ARC
8
DEFAULT_255_1_388
10
12.9869875
20
-0.3143868
40
0.2084074
50
210.3789935
51
238.4007996
0
ARC
8
DEFAULT_255_1_388
10
12.9847961
20
-0.3091214
40
0.2117943
50
239.6521916
51
265.9793852
0
ARC
8
DEFAULT_255_1_388
10
12.994381
20
-0.2334642
40
0.2879689
50
265.1324455
51
270.0603288
0
ARC
8
DEFAULT_255_1_388
10
12.9976187
20
-0.2699582
40
0.2514919
50
269.3314378
51
287.2180039
0
ARC
8
DEFAULT_255_1_388
10
13.0131269
20
-0.3265709
40
0.1928357
50
287.7957942
51
329.0808983
0
ARC
8
DEFAULT_255_1_388
10
12.9054026
20
-0.2593349
40
0.319808
50
328.6635261
51
343.3325043
0
ARC
8
DEFAULT_255_1_388
10
12.6609485
20
-0.1831805
40
0.5758408
50
343.0498092
51
351.9392499
0
ARC
8
DEFAULT_255_1_388
10
12.2708806
20
-0.1256795
40
0.9701202
50
351.8071632
51
357.7957897
0
ARC
8
DEFAULT_255_1_388
10
11.9074283
20
-0.1068276
40
1.3340376
50
357.5870923
51
359.2682493
0
LINE
8
DEFAULT_255_1_388
10
14.1720287
20
0.6821148
11
14.1720287
21
-0.6398
0
LINE
8
DEFAULT_255_1_388
10
14.1720287
20
-0.6398
11
14.0039657
21
-0.6398
0
LINE
8
DEFAULT_255_1_388
10
14.0039657
20
-0.6398
11
14.0039657
21
0.474295
0
LINE
8
DEFAULT_255_1_388
10
14.0039657
20
0.474295
11
13.6669361
21
0.3505066
0
LINE
8
DEFAULT_255_1_388
10
13.6669361
20
0.3505066
11
13.6669361
21
0.5023055
0
LINE
8
DEFAULT_255_1_388
10
13.6669361
20
0.5023055
11
14.1458253
21
0.6821148
0
LINE
8
DEFAULT_255_1_388
10
14.1458253
20
0.6821148
11
14.1720287
21
0.6821148
0
LINE
8
DEFAULT_255_1_388
10
15.0268006
20
-0.0127263
11
15.0268006
21
-0.1491645
0
LINE
8
DEFAULT_255_1_388
10
15.0268006
20
-0.1491645
11
14.5858612
21
-0.1491645
0
LINE
8
DEFAULT_255_1_388
10
14.5858612
20
-0.1491645
11
14.5858612
21
-0.0127263
0
LINE
8
DEFAULT_255_1_388
10
14.5858612
20
-0.0127263
11
15.0268006
21
-0.0127263
0
LINE
8
DEFAULT_255_1_388
10
15.9809647
20
0.1499153
11
15.9809647
21
0.1011229
0
LINE
8
DEFAULT_255_1_388
10
15.3710587
20
-0.6407036
11
15.3385304
21
-0.6407036
0
LINE
8
DEFAULT_255_1_388
10
15.3385304
20
-0.6407036
11
15.3385304
21
-0.4997475
0
LINE
8
DEFAULT_255_1_388
10
15.3385304
20
-0.4997475
11
15.3737694
21
-0.4997475
0
LINE
8
DEFAULT_255_1_388
10
15.8138053
20
0.117387
11
15.8138053
21
0.1842508
0
ARC
8
DEFAULT_255_1_388
10
15.4995145
20
0.2012877
40
0.4089973
50
297.4036461
51
320.0168133
0
ARC
8
DEFAULT_255_1_388
10
15.5321325
20
0.1386072
40
0.3383378
50
270.2631886
51
297.3852322
0
ARC
8
DEFAULT_255_1_388
10
15.5283001
20
0.1923343
40
0.3920983
50
269.9969069
51
270.7871389
0
ARC
8
DEFAULT_255_1_388
10
15.5254324
20
0.1905737
40
0.3903482
50
254.5997295
51
270.4178147
0
ARC
8
DEFAULT_255_1_388
10
15.5093856
20
0.1270693
40
0.3248657
50
236.4717231
51
254.3539376
0
ARC
8
DEFAULT_255_1_388
10
15.5269587
20
0.1506999
40
0.3542746
50
208.4727261
51
236.2134628
0
ARC
8
DEFAULT_255_1_388
10
15.5988351
20
0.1946676
40
0.4384402
50
204.3450776
51
209.0455365
0
ARC
8
DEFAULT_255_1_388
10
15.6752727
20
0.22708
40
0.5214459
50
183.9375459
51
204.1275509
0
ARC
8
DEFAULT_255_1_388
10
15.7775033
20
0.2380863
40
0.6242037
50
179.9652726
51
184.3010611
0
ARC
8
DEFAULT_255_1_388
10
15.7504578
20
0.2418004
40
0.5971675
50
166.7585952
51
180.3200491
0
ARC
8
DEFAULT_255_1_388
10
15.6552386
20
0.2624979
40
0.4997418
50
154.6954866
51
166.5679151
0
ARC
8
DEFAULT_255_1_388
10
15.5592627
20
0.3108411
40
0.3923208
50
136.3325251
51
155.0871367
0
ARC
8
DEFAULT_255_1_388
10
15.5276546
20
0.3379271
40
0.3507618
50
121.2365985
51
135.9680081
0
ARC
8
DEFAULT_255_1_388
10
15.5434611
20
0.3086541
40
0.3839917
50
96.8454764
51
120.9881329
0
ARC
8
DEFAULT_255_1_388
10
15.5598417
20
0.2033942
40
0.4904679
50
89.887204
51
97.2797758
0
ARC
8
DEFAULT_255_1_388
10
15.5657389
20
0.2751652
40
0.418725
50
70.6505767
51
90.6748382
0
ARC
8
DEFAULT_255_1_388
10
15.5805086
20
0.3329091
40
0.3593866
50
36.7493297
51
69.8220487
0
ARC
8
DEFAULT_255_1_388
10
15.4681434
20
0.2453446
40
0.5018201
50
15.3958155
51
37.0841102
0
ARC
8
DEFAULT_255_1_388
10
15.2285718
20
0.1755111
40
0.7513436
50
3.9487796
51
15.6798517
0
ARC
8
DEFAULT_255_1_388
10
14.958436
20
0.151181
40
1.0225293
50
359.9290791
51
4.266464
0
ARC
8
DEFAULT_255_1_388
10
14.4403277
20
0.0936372
40
1.5406551
50
352.8365702
51
0.2783851
0
ARC
8
DEFAULT_255_1_388
10
15.0351508
20
0.0163664
40
0.9408425
50
341.8359339
51
352.9884057
0
ARC
8
DEFAULT_255_1_388
10
15.3972496
20
-0.1056856
40
0.5587481
50
322.8579243
51
342.1527461
0
ARC
8
DEFAULT_255_1_388
10
15.4944187
20
-0.171965
40
0.4413099
50
319.3348471
51
322.100194
0
ARC
8
DEFAULT_255_1_388
10
15.4596119
20
-0.1370186
40
0.4904992
50
285.954114
51
318.8878716
0
ARC
8
DEFAULT_255_1_388
10
15.3778556
20
0.1228865
40
0.7628991
50
272.9280841
51
286.4924389
0
ARC
8
DEFAULT_255_1_388
10
15.356486
20
0.376324
40
1.017132
50
270.8209173
51
273.4010121
0
ARC
8
DEFAULT_255_1_388
10
15.3664883
20
0.1715073
40
0.6712943
50
270.6214576
51
281.4062333
0
ARC
8
DEFAULT_255_1_388
10
15.4148608
20
-0.059775
40
0.4350167
50
281.1852583
51
299.0622058
0
ARC
8
DEFAULT_255_1_388
10
15.4568853
20
-0.1408862
40
0.3437146
50
299.5068171
51
313.1200142
0
ARC
8
DEFAULT_255_1_388
10
15.459359
20
-0.1498041
40
0.3355418
50
313.8525725
51
338.5989631
0
ARC
8
DEFAULT_255_1_388
10
15.2766718
20
-0.0747424
40
0.5330317
50
338.2523315
51
351.2431701
0
ARC
8
DEFAULT_255_1_388
10
15.0054469
20
-0.0286506
40
0.8081235
50
350.940933
51
357.6690137
0
ARC
8
DEFAULT_255_1_388
10
15.5556349
20
0.1966048
40
0.2581236
50
269.9447107
51
306.8249644
0
ARC
8
DEFAULT_255_1_388
10
15.5289651
20
0.244206
40
0.3122948
50
305.5071046
51
327.0773808
0
ARC
8
DEFAULT_255_1_388
10
15.5422703
20
0.2335445
40
0.2953369
50
327.4106457
51
336.8396801
0
ARC
8
DEFAULT_255_1_388
10
15.1942417
20
0.1878932
40
0.6195743
50
359.663158
51
10.1176387
0
ARC
8
DEFAULT_255_1_388
10
15.3915179
20
0.2243922
40
0.4189561
50
9.9431549
51
26.7699242
0
ARC
8
DEFAULT_255_1_388
10
15.4587166
20
0.2553796
40
0.3450125
50
27.2018067
51
34.6833639
0
ARC
8
DEFAULT_255_1_388
10
15.5137778
20
0.296756
40
0.2762035
50
34.124913
51
50.30709
0
ARC
8
DEFAULT_255_1_388
10
15.5640261
20
0.3568741
40
0.1978518
50
50.3850304
51
90.6705051
0
ARC
8
DEFAULT_255_1_388
10
15.5587655
20
0.3226074
40
0.2321235
50
89.2729817
51
111.9140267
0
ARC
8
DEFAULT_255_1_388
10
15.5565742
20
0.3384308
40
0.2166604
50
112.9381864
51
142.5320936
0
ARC
8
DEFAULT_255_1_388
10
15.6180231
20
0.2885392
40
0.2957902
50
142.1024021
51
166.3835244
0
ARC
8
DEFAULT_255_1_388
10
15.7509201
20
0.2542213
40
0.4330361
50
166.1100968
51
178.6653563
0
ARC
8
DEFAULT_255_1_388
10
15.8691127
20
0.2476061
40
0.5513642
50
178.2641888
51
180.010994
0
ARC
8
DEFAULT_255_1_388
10
15.7785628
20
0.2444136
40
0.4608248
50
179.6162225
51
191.8786013
0
ARC
8
DEFAULT_255_1_388
10
15.6412938
20
0.214059
40
0.3202502
50
191.6192934
51
215.2970746
0
ARC
8
DEFAULT_255_1_388
10
15.6173594
20
0.1997963
40
0.2924827
50
215.7258926
51
216.5355437
0
ARC
8
DEFAULT_255_1_388
10
15.5585214
20
0.1524919
40
0.2170661
50
215.7486606
51
239.9728403
0
ARC
8
DEFAULT_255_1_388
10
15.5506379
20
0.1467838
40
0.208217
50
241.065081
51
269.280972
0
ARC
8
DEFAULT_255_1_388
10
15.5553538
20
0.2023327
40
0.2638514
50
268.4083352
51
270.0069622
0
LINE
8
DEFAULT_255_1_388
10
17.036328
20
0.138169
11
17.036328
21
-0.0786865
0
LINE
8
DEFAULT_255_1_388
10
16.2059522
20
-0.1012756
11
16.2059522
21
0.1219048
0
LINE
8
DEFAULT_255_1_388
10
16.8691686
20
-0.1238647
11
16.8691686
21
0.1499153
0
LINE
8
DEFAULT_255_1_388
10
16.3731117
20
0.1625652
11
16.3731117
21
-0.1048898
0
ARC
8
DEFAULT_255_1_388
10
15.6585614
20
-0.0841882
40
1.3777776
50
353.8440855
51
0.2287917
0
ARC
8
DEFAULT_255_1_388
10
16.1804631
20
-0.1424586
40
0.852639
50
344.4934746
51
353.9763743
0
ARC
8
DEFAULT_255_1_388
10
16.5171438
20
-0.2381809
40
0.5026273
50
329.2803599
51
344.7473406
0
ARC
8
DEFAULT_255_1_388
10
16.6286934
20
-0.2993962
40
0.3754848
50
324.9361395
51
328.6153007
0
ARC
8
DEFAULT_255_1_388
10
16.6712584
20
-0.3291414
40
0.3235566
50
280.5801797
51
324.9173226
0
ARC
8
DEFAULT_255_1_388
10
16.6261213
20
-0.1411764
40
0.5167077
50
269.5979457
51
281.6732777
0
ARC
8
DEFAULT_255_1_388
10
16.6180116
20
-0.1546887
40
0.5032026
50
256.6228565
51
270.5105488
0
ARC
8
DEFAULT_255_1_388
10
16.5727859
20
-0.3288655
40
0.3233092
50
215.8618351
51
257.2787793
0
ARC
8
DEFAULT_255_1_388
10
16.6876566
20
-0.2517894
40
0.4615831
50
197.9695203
51
215.2622745
0
ARC
8
DEFAULT_255_1_388
10
16.9672241
20
-0.1574359
40
0.7566307
50
187.8816486
51
198.2346584
0
ARC
8
DEFAULT_255_1_388
10
17.412548
20
-0.0931547
40
1.2065653
50
180.8977266
51
188.0054894
0
ARC
8
DEFAULT_255_1_388
10
17.7175693
20
-0.08166
40
1.5117443
50
180.7434591
51
181.152202
0
ARC
8
DEFAULT_255_1_388
10
17.5500689
20
0.1273371
40
1.3441277
50
173.7674302
51
180.2315596
0
ARC
8
DEFAULT_255_1_388
10
17.0418558
20
0.1847779
40
0.8326847
50
164.3058537
51
173.9000553
0
ARC
8
DEFAULT_255_1_388
10
16.7142558
20
0.2791652
40
0.4917711
50
148.7922028
51
164.5682288
0
ARC
8
DEFAULT_255_1_388
10
16.6073296
20
0.3388457
40
0.3694204
50
144.5883979
51
148.1161588
0
ARC
8
DEFAULT_255_1_388
10
16.5686041
20
0.3658667
40
0.322202
50
101.6440149
51
144.5142619
0
ARC
8
DEFAULT_255_1_388
10
16.6164233
20
0.1758337
40
0.5180451
50
89.528284
51
102.5820197
0
ARC
8
DEFAULT_255_1_388
10
16.6253225
20
0.1714376
40
0.5224441
50
77.0437914
51
90.508231
0
ARC
8
DEFAULT_255_1_388
10
16.6705479
20
0.3562272
40
0.3322297
50
48.2777708
51
77.4996087
0
ARC
8
DEFAULT_255_1_388
10
16.6787219
20
0.3707557
40
0.315966
50
36.3141586
51
47.6307332
0
ARC
8
DEFAULT_255_1_388
10
16.5809941
20
0.3049159
40
0.4337313
50
18.2931065
51
35.6770203
0
ARC
8
DEFAULT_255_1_388
10
16.2948782
20
0.2067107
40
0.7362203
50
8.0246996
51
18.5605636
0
ARC
8
DEFAULT_255_1_388
10
15.8265137
20
0.1375432
40
1.2096583
50
1.127539
51
8.1718423
0
ARC
8
DEFAULT_255_1_388
10
15.4616271
20
0.1232374
40
1.5747719
50
0.5432713
51
1.38669
0
ARC
8
DEFAULT_255_1_388
10
15.6673649
20
0.1539163
40
1.2018103
50
359.8092569
51
4.9408001
0
ARC
8
DEFAULT_255_1_388
10
16.1410231
20
0.19619
40
0.7262727
50
4.8364937
51
12.2906017
0
ARC
8
DEFAULT_255_1_388
10
16.4509696
20
0.2652485
40
0.4087324
50
12.0806994
51
23.8171225
0
ARC
8
DEFAULT_255_1_388
10
16.5830091
20
0.3211508
40
0.2653719
50
24.2874621
51
31.3934353
0
ARC
8
DEFAULT_255_1_388
10
16.6420527
20
0.3597822
40
0.1948607
50
30.7407708
51
82.4658033
0
ARC
8
DEFAULT_255_1_388
10
16.6218188
20
0.2604017
40
0.2961198
50
81.1057101
51
90.2187368
0
ARC
8
DEFAULT_255_1_388
10
16.6178
20
0.2894421
40
0.2670929
50
89.380395
51
105.6763916
0
ARC
8
DEFAULT_255_1_388
10
16.5971722
20
0.364432
40
0.1893189
50
105.7980655
51
149.7387869
0
ARC
8
DEFAULT_255_1_388
10
16.7168862
20
0.2924719
40
0.3289892
50
149.4208441
51
163.628295
0
ARC
8
DEFAULT_255_1_388
10
16.9521092
20
0.2207345
40
0.5749004
50
163.3764549
51
172.141138
0
ARC
8
DEFAULT_255_1_388
10
17.3233813
20
0.1675582
40
0.9499585
50
172.0258462
51
178.0705453
0
ARC
8
DEFAULT_255_1_388
10
17.6655366
20
0.1513682
40
1.2924734
50
177.8639301
51
179.5036263
0
ARC
8
DEFAULT_255_1_388
10
17.5436385
20
-0.1089849
40
1.170534
50
179.7995545
51
185.246089
0
ARC
8
DEFAULT_255_1_388
10
17.0887978
20
-0.1520596
40
0.7136613
50
185.1411911
51
193.0082205
0
ARC
8
DEFAULT_255_1_388
10
16.7914238
20
-0.2223559
40
0.4080987
50
192.7897338
51
205.2507384
0
ARC
8
DEFAULT_255_1_388
10
16.6736448
20
-0.2749462
40
0.2791522
50
205.8001921
51
211.2545876
0
ARC
8
DEFAULT_255_1_388
10
16.6147988
20
-0.3143868
40
0.2084074
50
210.3789935
51
238.4007996
0
ARC
8
DEFAULT_255_1_388
10
16.6126074
20
-0.3091214
40
0.2117943
50
239.6521916
51
265.9793852
0
ARC
8
DEFAULT_255_1_388
10
16.6221922
20
-0.2334642
40
0.2879689
50
265.1324455
51
270.0603288
0
ARC
8
DEFAULT_255_1_388
10
16.62543
20
-0.2699582
40
0.2514919
50
269.3314378
51
287.2180039
0
ARC
8
DEFAULT_255_1_388
10
16.6409382
20
-0.3265709
40
0.1928357
50
287.7957942
51
329.0808983
0
ARC
8
DEFAULT_255_1_388
10
16.5332139
20
-0.2593349
40
0.319808
50
328.6635261
51
343.3325043
0
ARC
8
DEFAULT_255_1_388
10
16.2887597
20
-0.1831805
40
0.5758408
50
343.0498092
51
351.9392499
0
ARC
8
DEFAULT_255_1_388
10
15.8986919
20
-0.1256795
40
0.9701202
50
351.8071632
51
357.7957897
0
ARC
8
DEFAULT_255_1_388
10
15.5352396
20
-0.1068276
40
1.3340376
50
357.5870923
51
359.2682493
0
LINE
8
DEFAULT_255_1_388
10
18.1124732
20
-0.5033618
11
18.1124732
21
-0.6398
0
LINE
8
DEFAULT_255_1_388
10
18.1124732
20
-0.6398
11
17.2504728
21
-0.6398
0
LINE
8
DEFAULT_255_1_388
10
17.2504728
20
-0.6398
11
17.2504728
21
-0.5196259
0
LINE
8
DEFAULT_255_1_388
10
17.2504728
20
-0.5196259
11
17.7058692
21
-0.0136298
0
LINE
8
DEFAULT_255_1_388
10
17.3923324
20
0.2881607
11
17.2251729
21
0.2881607
0
LINE
8
DEFAULT_255_1_388
10
17.8043578
20
-0.121154
11
17.4519676
21
-0.5033618
0
LINE
8
DEFAULT_255_1_388
10
17.4519676
20
-0.5033618
11
18.1124732
21
-0.5033618
0
ARC
8
DEFAULT_255_1_388
10
16.1882752
20
1.3283983
40
2.0258655
50
318.5132526
51
320.7829045
0
ARC
8
DEFAULT_255_1_388
10
16.7830709
20
0.8442929
40
1.2589638
50
320.7372878
51
323.9739031
0
ARC
8
DEFAULT_255_1_388
10
17.223964
20
0.5248554
40
0.7145141
50
323.8962701
51
328.64194
0
ARC
8
DEFAULT_255_1_388
10
17.4541898
20
0.3828545
40
0.4440242
50
328.8294576
51
331.7891185
0
ARC
8
DEFAULT_255_1_388
10
17.5664218
20
0.3249374
40
0.3177517
50
331.4254512
51
352.9365785
0
ARC
8
DEFAULT_255_1_388
10
17.5817218
20
0.321505
40
0.3021496
50
353.2257659
51
0.0166158
0
ARC
8
DEFAULT_255_1_388
10
17.6053979
20
0.3240894
40
0.2784847
50
359.486299
51
15.9343185
0
ARC
8
DEFAULT_255_1_388
10
17.6624246
20
0.3394269
40
0.2194403
50
16.1712913
51
43.5286088
0
ARC
8
DEFAULT_255_1_388
10
17.671119
20
0.3481191
40
0.2071504
50
43.4417391
51
83.1661095
0
ARC
8
DEFAULT_255_1_388
10
17.6560351
20
0.2652316
40
0.2912888
50
82.160179
51
90.1505708
0
ARC
8
DEFAULT_255_1_388
10
17.6524833
20
0.2048279
40
0.3517025
50
89.5460741
51
102.5418361
0
ARC
8
DEFAULT_255_1_388
10
17.6251553
20
0.3207933
40
0.2325748
50
102.1738499
51
129.206123
0
ARC
8
DEFAULT_255_1_388
10
17.6163006
20
0.3347664
40
0.2161591
50
129.72865
51
135.753947
0
ARC
8
DEFAULT_255_1_388
10
17.6299488
20
0.3238728
40
0.2335433
50
136.1757367
51
166.3673339
0
ARC
8
DEFAULT_255_1_388
10
17.7432177
20
0.2935148
40
0.3507873
50
165.9090694
51
178.8684636
0
ARC
8
DEFAULT_255_1_388
10
17.8407948
20
0.2882263
40
0.4484624
50
178.4391136
51
180.0083808
0
ARC
8
DEFAULT_255_1_388
10
17.682865
20
0.2926197
40
0.4577138
50
163.2878482
51
180.5581842
0
ARC
8
DEFAULT_255_1_388
10
17.5926691
20
0.3174393
40
0.3641968
50
133.4540601
51
162.947111
0
ARC
8
DEFAULT_255_1_388
10
17.6127573
20
0.2960789
40
0.3935189
50
100.7869829
51
133.4382499
0
ARC
8
DEFAULT_255_1_388
10
17.6518818
20
0.1218399
40
0.5720313
50
89.660664
51
101.3702276
0
ARC
8
DEFAULT_255_1_388
10
17.6593427
20
0.1287263
40
0.5651495
50
78.2172678
51
90.412935
0
ARC
8
DEFAULT_255_1_388
10
17.6992892
20
0.3114511
40
0.378122
50
55.9269121
51
78.4888449
0
ARC
8
DEFAULT_255_1_388
10
17.7213608
20
0.3495187
40
0.3342379
50
47.929771
51
55.4049217
0
ARC
8
DEFAULT_255_1_388
10
17.7328138
20
0.3611618
40
0.3179217
50
4.334829
51
48.0560205
0
ARC
8
DEFAULT_255_1_388
10
17.609594
20
0.3420487
40
0.442341
50
359.9251713
51
5.5971671
0
ARC
8
DEFAULT_255_1_388
10
17.6578094
20
0.3483728
40
0.3941854
50
337.8914027
51
358.9967534
0
ARC
8
DEFAULT_255_1_388
10
17.3525664
20
0.4661295
40
0.7213271
50
326.9132501
51
338.3508308
0
ARC
8
DEFAULT_255_1_388
10
16.9041776
20
0.7535105
40
1.2538973
50
319.6471833
51
327.0959558
0
ARC
8
DEFAULT_255_1_388
10
16.4728434
20
1.109305
40
1.8129975
50
317.2588228
51
319.9045804
0
LINE
8
DEFAULT_255_1_388
10
19.1145262
20
0.138169
11
19.1145262
21
-0.0786865
0
LINE
8
DEFAULT_255_1_388
10
18.2841505
20
-0.1012756
11
18.2841505
21
0.1219048
0
LINE
8
DEFAULT_255_1_388
10
18.9473668
20
-0.1238647
11
18.9473668
21
0.1499153
0
LINE
8
DEFAULT_255_1_388
10
18.4513099
20
0.1625652
11
18.4513099
21
-0.1048898
0
ARC
8
DEFAULT_255_1_388
10
17.7367596
20
-0.0841882
40
1.3777776
50
353.8440855
51
0.2287917
0
ARC
8
DEFAULT_255_1_388
10
18.2586614
20
-0.1424586
40
0.852639
50
344.4934746
51
353.9763743
0
ARC
8
DEFAULT_255_1_388
10
18.5953421
20
-0.2381809
40
0.5026273
50
329.2803599
51
344.7473406
0
ARC
8
DEFAULT_255_1_388
10
18.7068917
20
-0.2993962
40
0.3754848
50
324.9361395
51
328.6153007
0
ARC
8
DEFAULT_255_1_388
10
18.7494566
20
-0.3291414
40
0.3235566
50
280.5801797
51
324.9173226
0
ARC
8
DEFAULT_255_1_388
10
18.7043195
20
-0.1411764
40
0.5167077
50
269.5979457
51
281.6732777
0
ARC
8
DEFAULT_255_1_388
10
18.6962098
20
-0.1546887
40
0.5032026
50
256.6228565
51
270.5105488
0
ARC
8
DEFAULT_255_1_388
10
18.6509841
20
-0.3288655
40
0.3233092
50
215.8618351
51
257.2787793
0
ARC
8
DEFAULT_255_1_388
10
18.7658548
20
-0.2517894
40
0.4615831
50
197.9695203
51
215.2622745
0
ARC
8
DEFAULT_255_1_388
10
19.0454224
20
-0.1574359
40
0.7566307
50
187.8816486
51
198.2346584
0
ARC
8
DEFAULT_255_1_388
10
19.4907462
20
-0.0931547
40
1.2065653
50
180.8977266
51
188.0054894
0
ARC
8
DEFAULT_255_1_388
10
19.7957676
20
-0.08166
40
1.5117443
50
180.7434591
51
181.152202
0
ARC
8
DEFAULT_255_1_388
10
19.6282672
20
0.1273371
40
1.3441277
50
173.7674302
51
180.2315596
0
ARC
8
DEFAULT_255_1_388
10
19.1200541
20
0.1847779
40
0.8326847
50
164.3058537
51
173.9000553
0
ARC
8
DEFAULT_255_1_388
10
18.7924541
20
0.2791652
40
0.4917711
50
148.7922028
51
164.5682288
0
ARC
8
DEFAULT_255_1_388
10
18.6855278
20
0.3388457
40
0.3694204
50
144.5883979
51
148.1161588
0
ARC
8
DEFAULT_255_1_388
10
18.6468023
20
0.3658667
40
0.322202
50
101.6440149
51
144.5142619
0
ARC
8
DEFAULT_255_1_388
10
18.6946216
20
0.1758337
40
0.5180451
50
89.528284
51
102.5820197
0
ARC
8
DEFAULT_255_1_388
10
18.7035207
20
0.1714376
40
0.5224441
50
77.0437914
51
90.508231
0
ARC
8
DEFAULT_255_1_388
10
18.7487461
20
0.3562272
40
0.3322297
50
48.2777708
51
77.4996087
0
ARC
8
DEFAULT_255_1_388
10
18.7569201
20
0.3707557
40
0.315966
50
36.3141586
51
47.6307332
0
ARC
8
DEFAULT_255_1_388
10
18.6591923
20
0.3049159
40
0.4337313
50
18.2931065
51
35.6770203
0
ARC
8
DEFAULT_255_1_388
10
18.3730764
20
0.2067107
40
0.7362203
50
8.0246996
51
18.5605636
0
ARC
8
DEFAULT_255_1_388
10
17.904712
20
0.1375432
40
1.2096583
50
1.127539
51
8.1718423
0
ARC
8
DEFAULT_255_1_388
10
17.5398253
20
0.1232374
40
1.5747719
50
0.5432713
51
1.38669
0
ARC
8
DEFAULT_255_1_388
10
17.7455632
20
0.1539163
40
1.2018103
50
359.8092569
51
4.9408001
0
ARC
8
DEFAULT_255_1_388
10
18.2192213
20
0.19619
40
0.7262727
50
4.8364937
51
12.2906017
0
ARC
8
DEFAULT_255_1_388
10
18.5291678
20
0.2652485
40
0.4087324
50
12.0806994
51
23.8171225
0
ARC
8
DEFAULT_255_1_388
10
18.6612074
20
0.3211508
40
0.2653719
50
24.2874621
51
31.3934353
0
ARC
8
DEFAULT_255_1_388
10
18.720251
20
0.3597822
40
0.1948607
50
30.7407708
51
82.4658033
0
ARC
8
DEFAULT_255_1_388
10
18.7000171
20
0.2604017
40
0.2961198
50
81.1057101
51
90.2187368
0
ARC
8
DEFAULT_255_1_388
10
18.6959982
20
0.2894421
40
0.2670929
50
89.380395
51
105.6763916
0
ARC
8
DEFAULT_255_1_388
10
18.6753704
20
0.364432
40
0.1893189
50
105.7980655
51
149.7387869
0
ARC
8
DEFAULT_255_1_388
10
18.7950845
20
0.2924719
40
0.3289892
50
149.4208441
51
163.628295
0
ARC
8
DEFAULT_255_1_388
10
19.0303074
20
0.2207345
40
0.5749004
50
163.3764549
51
172.141138
0
ARC
8
DEFAULT_255_1_388
10
19.4015796
20
0.1675582
40
0.9499585
50
172.0258462
51
178.0705453
0
ARC
8
DEFAULT_255_1_388
10
19.7437348
20
0.1513682
40
1.2924734
50
177.8639301
51
179.5036263
0
ARC
8
DEFAULT_255_1_388
10
19.6218367
20
-0.1089849
40
1.170534
50
179.7995545
51
185.246089
0
ARC
8
DEFAULT_255_1_388
10
19.166996
20
-0.1520596
40
0.7136613
50
185.1411911
51
193.0082205
0
ARC
8
DEFAULT_255_1_388
10
18.8696221
20
-0.2223559
40
0.4080987
50
192.7897338
51
205.2507384
0
ARC
8
DEFAULT_255_1_388
10
18.7518431
20
-0.2749462
40
0.2791522
50
205.8001921
51
211.2545876
0
ARC
8
DEFAULT_255_1_388
10
18.692997
20
-0.3143868
40
0.2084074
50
210.3789935
51
238.4007996
0
ARC
8
DEFAULT_255_1_388
10
18.6908056
20
-0.3091214
40
0.2117943
50
239.6521916
51
265.9793852
0
ARC
8
DEFAULT_255_1_388
10
18.7003905
20
-0.2334642
40
0.2879689
50
265.1324455
51
270.0603288
0
ARC
8
DEFAULT_255_1_388
10
18.7036282
20
-0.2699582
40
0.2514919
50
269.3314378
51
287.2180039
0
ARC
8
DEFAULT_255_1_388
10
18.7191364
20
-0.3265709
40
0.1928357
50
287.7957942
51
329.0808983
0
ARC
8
DEFAULT_255_1_388
10
18.6114121
20
-0.2593349
40
0.319808
50
328.6635261
51
343.3325043
0
ARC
8
DEFAULT_255_1_388
10
18.366958
20
-0.1831805
40
0.5758408
50
343.0498092
51
351.9392499
0
ARC
8
DEFAULT_255_1_388
10
17.9768901
20
-0.1256795
40
0.9701202
50
351.8071632
51
357.7957897
0
ARC
8
DEFAULT_255_1_388
10
17.6134378
20
-0.1068276
40
1.3340376
50
357.5870923
51
359.2682493
0
ARC
8
DEFAULT_255_2_778
10
15.2718323
20
34.674189
40
0.3782009
50
0.4397807
51
91.3045231
0
ARC
8
DEFAULT_255_2_778
10
15.2696879
20
34.6719064
40
0.3803695
50
269.0259909
51
0.7811192
0
ARC
8
DEFAULT_255_2_778
10
15.4288293
20
34.6594643
40
0.7639615
50
290.7362057
51
357.8000295
0
ARC
8
DEFAULT_255_2_778
10
15.3436031
20
34.6770235
40
0.8499188
50
356.8376875
51
0.0046095
0
ARC
8
DEFAULT_255_2_778
10
15.3422443
20
34.6770748
40
0.8512778
50
0.0011515
51
85.3589632
0
ARC
8
DEFAULT_255_2_778
10
15.3422371
20
34.6580092
40
0.8702827
50
85.4600549
51
90.0075769
0
ARC
8
DEFAULT_255_2_778
10
20.173385
20
34.6677426
40
0.3845507
50
1.3931151
51
90.158378
0
ARC
8
DEFAULT_255_2_778
10
20.2329096
20
34.6613635
40
0.8684198
50
359.7643557
51
42.1181505
0
ARC
8
DEFAULT_255_2_778
10
20.2353156
20
34.6617931
40
0.866348
50
42.2037872
51
87.9292218
0
ARC
8
DEFAULT_255_2_778
10
20.2305626
20
34.6205097
40
0.9077821
50
87.7235759
51
90.0025578
0
ARC
8
DEFAULT_255_2_778
10
12.9264947
20
34.6746344
40
0.3777354
50
0.3727528
51
91.1638813
0
ARC
8
DEFAULT_255_2_778
10
12.9805692
20
34.6613595
40
0.8684602
50
359.7646302
51
42.1161032
0
ARC
8
DEFAULT_255_2_778
10
12.9830774
20
34.6619127
40
0.8662296
50
42.2002176
51
87.9268901
0
ARC
8
DEFAULT_255_2_778
10
12.9783626
20
34.6208749
40
0.9074169
50
87.7231194
51
90.002558
0
ARC
8
DEFAULT_255_2_778
10
17.559042
20
34.2695858
40
1.2841942
50
233.3100129
51
270.0348017
0
ARC
8
DEFAULT_255_2_778
10
17.5711133
20
34.2899622
40
1.3077482
50
187.7860459
51
233.4193197
0
ARC
8
DEFAULT_255_2_778
10
17.5893588
20
34.2915185
40
1.3260368
50
179.9838663
51
187.7458681
0
ARC
8
DEFAULT_255_2_778
10
17.5478523
20
34.2921375
40
1.2845303
50
143.7084173
51
180.0109545
0
ARC
8
DEFAULT_255_2_778
10
17.5629238
20
34.2870899
40
1.2996747
50
94.9692901
51
143.9223324
0
ARC
8
DEFAULT_255_2_778
10
17.5597032
20
34.2877347
40
1.2987573
50
89.9947559
51
94.8302073
0
ARC
8
DEFAULT_255_2_778
10
17.5619339
20
34.2819304
40
1.3045632
50
58.1407344
51
90.0927508
0
ARC
8
DEFAULT_255_2_778
10
17.5700831
20
34.2875662
40
1.2954809
50
3.5056409
51
58.315291
0
ARC
8
DEFAULT_255_2_778
10
17.5711163
20
34.2916563
40
1.2942058
50
359.9971467
51
3.3277024
0
ARC
8
DEFAULT_255_2_778
10
17.3826088
20
34.2895483
40
1.4827147
50
0.006083
51
0.0789681
0
ARC
8
DEFAULT_255_2_778
10
17.5604187
20
34.2897022
40
1.3049047
50
315.0308293
51
0.0001529
0
ARC
8
DEFAULT_255_2_778
10
17.5609377
20
34.2894521
40
1.3043608
50
270.000667
51
315.0224921
0
LINE
8
DEFAULT_255_2_778
10
17.5609529
20
32.9850914
11
17.5598221
21
32.9850919
0
ARC
8
DEFAULT_255_2_778
10
17.5640812
20
34.2879112
40
0.7580313
50
269.6780691
51
315.5292436
0
ARC
8
DEFAULT_255_2_778
10
17.5610107
20
34.2871878
40
0.7597205
50
315.7303962
51
0.2857903
0
ARC
8
DEFAULT_255_2_778
10
17.8487376
20
34.2914382
40
0.4719845
50
359.944048
51
0.0186519
0
ARC
8
DEFAULT_255_2_778
10
17.5687772
20
34.2904605
40
0.7519457
50
0.086204
51
85.4319233
0
ARC
8
DEFAULT_255_2_778
10
17.5599609
20
34.2480338
40
0.7949581
50
85.0420495
51
90.0100075
0
ARC
8
DEFAULT_255_2_778
10
17.5579396
20
34.3047519
40
0.7382424
50
89.8538973
51
89.9999976
0
ARC
8
DEFAULT_255_2_778
10
17.558077
20
34.2918044
40
0.7511899
50
90.01048
51
134.9443097
0
ARC
8
DEFAULT_255_2_778
10
17.5582947
20
34.2916222
40
0.7514726
50
134.9462486
51
180.0023145
0
ARC
8
DEFAULT_255_2_778
10
17.5708624
20
34.2876875
40
0.7640503
50
179.7072119
51
222.5790813
0
ARC
8
DEFAULT_255_2_778
10
17.5579296
20
34.2766475
40
0.7470579
50
222.6267201
51
270.1451401
0
ARC
8
DEFAULT_255_2_778
10
9.564442
20
34.2695858
40
1.2841942
50
233.3100129
51
270.0348017
0
ARC
8
DEFAULT_255_2_778
10
9.5765133
20
34.2899622
40
1.3077482
50
187.7860459
51
233.4193197
0
ARC
8
DEFAULT_255_2_778
10
9.5947588
20
34.2915185
40
1.3260368
50
179.9838663
51
187.7458681
0
ARC
8
DEFAULT_255_2_778
10
9.5535129
20
34.2919961
40
1.2847909
50
143.1940819
51
180.0046489
0
ARC
8
DEFAULT_255_2_778
10
9.5683078
20
34.2873006
40
1.2994598
50
94.9233187
51
143.4191345
0
ARC
8
DEFAULT_255_2_778
10
9.5651008
20
34.288012
40
1.2984798
50
89.9946509
51
94.7850278
0
ARC
8
DEFAULT_255_2_778
10
9.5673902
20
34.2818441
40
1.3046496
50
58.1428905
51
90.0952196
0
ARC
8
DEFAULT_255_2_778
10
9.5758177
20
34.2879453
40
1.2950254
50
3.2656058
51
58.3171105
0
ARC
8
DEFAULT_255_2_778
10
9.5763693
20
34.2919485
40
1.2942527
50
359.997494
51
3.0900664
0
ARC
8
DEFAULT_255_2_778
10
9.5936718
20
34.2897448
40
1.276952
50
359.9949307
51
0.0963391
0
ARC
8
DEFAULT_255_2_778
10
9.5663093
20
34.2897585
40
1.3043147
50
315.0200668
51
359.994431
0
ARC
8
DEFAULT_255_2_778
10
9.5663338
20
34.28952
40
1.3041287
50
270.0008363
51
315.026719
0
LINE
8
DEFAULT_255_2_778
10
9.5663529
20
32.9853914
11
9.5652221
21
32.9853919
0
ARC
8
DEFAULT_255_2_778
10
9.5694412
20
34.2879135
40
0.7580334
50
269.6810953
51
315.6152252
0
ARC
8
DEFAULT_255_2_778
10
9.5663839
20
34.2872381
40
0.7597504
50
315.8129036
51
0.3254485
0
ARC
8
DEFAULT_255_2_778
10
9.5738176
20
34.2901565
40
0.7523058
50
0.1093155
51
85.7820321
0
ARC
8
DEFAULT_255_2_778
10
9.5653381
20
34.2486263
40
0.7943655
50
85.3923987
51
90.0083732
0
ARC
8
DEFAULT_255_2_778
10
9.5633385
20
34.3038348
40
0.7391595
50
89.8539942
51
89.9999859
0
ARC
8
DEFAULT_255_2_778
10
9.563405
20
34.2919783
40
0.7510159
50
90.0050654
51
134.9497993
0
ARC
8
DEFAULT_255_2_778
10
9.5632746
20
34.2917963
40
0.7510526
50
134.9329452
51
180.0155944
0
ARC
8
DEFAULT_255_2_778
10
9.5762945
20
34.2876612
40
0.7640826
50
179.7052536
51
222.5741919
0
ARC
8
DEFAULT_255_2_778
10
9.5632805
20
34.2766163
40
0.7470269
50
222.6256588
51
270.1489141
0
LINE
8
DEFAULT_255_2_778
10
14.0768221
20
35.5076919
11
14.0768221
21
33.0448919
0
LINE
8
DEFAULT_255_2_778
10
14.0768221
20
33.0448919
11
14.6203221
21
33.0448919
0
LINE
8
DEFAULT_255_2_778
10
14.6203221
20
33.0448919
11
14.6203221
21
35.0522919
0
LINE
8
DEFAULT_255_2_778
10
14.6203221
20
35.0522919
11
15.2632221
21
35.0522919
0
LINE
8
DEFAULT_255_2_778
10
15.2632221
20
34.2915919
11
14.7986221
21
34.2915919
0
LINE
8
DEFAULT_255_2_778
10
14.7986221
20
34.2915919
11
15.6397221
21
33.0445919
0
LINE
8
DEFAULT_255_2_778
10
15.6397221
20
33.0445919
11
16.3126221
21
33.0445919
0
LINE
8
DEFAULT_255_2_778
10
16.3126221
20
33.0445919
11
15.6993221
21
33.9449919
0
LINE
8
DEFAULT_255_2_778
10
15.3421221
20
35.5282919
11
14.6200221
21
35.5282919
0
LINE
8
DEFAULT_255_2_778
10
14.6200221
20
35.5282919
11
14.0766221
21
35.5076919
0
LINE
8
DEFAULT_255_2_778
10
14.0766221
20
35.5076919
11
14.0768221
21
35.5076919
0
LINE
8
DEFAULT_255_2_778
10
19.0142221
20
35.5076919
11
19.0142221
21
33.0448919
0
LINE
8
DEFAULT_255_2_778
10
19.0142221
20
33.0448919
11
19.5577221
21
33.0448919
0
LINE
8
DEFAULT_255_2_778
10
19.5577221
20
33.0448919
11
19.5577221
21
35.0522919
0
LINE
8
DEFAULT_255_2_778
10
19.5577221
20
35.0522919
11
20.1723221
21
35.0522919
0
LINE
8
DEFAULT_255_2_778
10
20.5578221
20
34.6770919
11
20.5578221
21
33.0448919
0
LINE
8
DEFAULT_255_2_778
10
20.5578221
20
33.0448919
11
21.1013221
21
33.0448919
0
LINE
8
DEFAULT_255_2_778
10
21.1013221
20
33.0448919
11
21.1013221
21
34.6577919
0
LINE
8
DEFAULT_255_2_778
10
20.2305221
20
35.5282919
11
19.5577221
21
35.5282919
0
LINE
8
DEFAULT_255_2_778
10
19.5577221
20
35.5282919
11
19.0142221
21
35.5076919
0
LINE
8
DEFAULT_255_2_778
10
19.0142221
20
35.5076919
11
19.0142221
21
35.5076919
0
LINE
8
DEFAULT_255_2_778
10
11.0196221
20
35.5076919
11
11.0196221
21
33.0448919
0
LINE
8
DEFAULT_255_2_778
10
11.0196221
20
33.0448919
11
11.5628221
21
33.0448919
0
LINE
8
DEFAULT_255_2_778
10
11.5628221
20
33.0448919
11
11.5628221
21
35.0522919
0
LINE
8
DEFAULT_255_2_778
10
11.5628221
20
35.0522919
11
12.1671221
21
35.0522919
0
LINE
8
DEFAULT_255_2_778
10
12.1671221
20
35.0522919
11
12.1671221
21
33.0448919
0
LINE
8
DEFAULT_255_2_778
10
12.1671221
20
33.0448919
11
12.7105221
21
33.0448919
0
LINE
8
DEFAULT_255_2_778
10
12.7105221
20
33.0448919
11
12.7105221
21
35.0522919
0
LINE
8
DEFAULT_255_2_778
10
12.7105221
20
35.0522919
11
12.9188221
21
35.0522919
0
LINE
8
DEFAULT_255_2_778
10
13.3042221
20
34.6770919
11
13.3042221
21
33.0448919
0
LINE
8
DEFAULT_255_2_778
10
13.3042221
20
33.0448919
11
13.8490221
21
33.0448919
0
LINE
8
DEFAULT_255_2_778
10
13.8490221
20
33.0448919
11
13.8490221
21
34.6577919
0
LINE
8
DEFAULT_255_2_778
10
12.9783221
20
35.5282919
11
11.5731221
21
35.5282919
0
LINE
8
DEFAULT_255_2_778
10
11.5731221
20
35.5282919
11
11.0193221
21
35.5076919
0
LINE
8
DEFAULT_255_2_778
10
11.0193221
20
35.5076919
11
11.0196221
21
35.5076919
0
LINE
8
DEFAULT_255_2_778
10
17.5598221
20
32.9850919
11
17.5598221
21
32.9853919
0
LINE
8
DEFAULT_255_2_778
10
9.5652221
20
32.9853919
11
9.5652221
21
32.9853919
0
LINE
8
DEFAULT_255_1_388
10
11.350791
20
31.7643898
11
11.350791
21
30.4488
0
LINE
8
DEFAULT_255_1_388
10
11.350791
20
30.4488
11
11.1764031
21
30.4488
0
LINE
8
DEFAULT_255_1_388
10
11.1764031
20
30.4488
11
10.5140903
21
31.4625993
0
LINE
8
DEFAULT_255_1_388
10
10.5140903
20
31.4625993
11
10.5140903
21
30.4488
0
LINE
8
DEFAULT_255_1_388
10
10.5140903
20
30.4488
11
10.3397024
21
30.4488
0
LINE
8
DEFAULT_255_1_388
10
10.3397024
20
30.4488
11
10.3397024
21
31.7643898
0
LINE
8
DEFAULT_255_1_388
10
10.3397024
20
31.7643898
11
10.5140903
21
31.7643898
0
LINE
8
DEFAULT_255_1_388
10
10.5140903
20
31.7643898
11
11.1782102
21
30.7460727
0
LINE
8
DEFAULT_255_1_388
10
11.1782102
20
30.7460727
11
11.1782102
21
31.7643898
0
LINE
8
DEFAULT_255_1_388
10
11.1782102
20
31.7643898
11
11.350791
21
31.7643898
0
LINE
8
DEFAULT_255_1_388
10
12.2100808
20
30.8301042
11
12.2100808
21
31.7643898
0
LINE
8
DEFAULT_255_1_388
10
12.2100808
20
31.7643898
11
12.3844688
21
31.7643898
0
LINE
8
DEFAULT_255_1_388
10
12.3844688
20
31.7643898
11
12.3844688
21
30.8328149
0
LINE
8
DEFAULT_255_1_388
10
11.554093
20
30.8120329
11
11.7275774
21
30.8120329
0
ARC
8
DEFAULT_255_1_388
10
11.879241
20
30.8284958
40
0.5052462
50
346.3132364
51
0.4897996
0
ARC
8
DEFAULT_255_1_388
10
12.0331943
20
30.7890792
40
0.3463431
50
313.3793278
51
346.6225662
0
ARC
8
DEFAULT_255_1_388
10
12.0106026
20
30.8175186
40
0.3825426
50
281.1587645
51
312.9130978
0
ARC
8
DEFAULT_255_1_388
10
11.9722932
20
30.9856607
40
0.5549427
50
269.6423454
51
281.6796473
0
ARC
8
DEFAULT_255_1_388
10
11.964571
20
31.0474499
40
0.6167359
50
258.9989698
51
270.3955842
0
ARC
8
DEFAULT_255_1_388
10
11.9224169
20
30.8394792
40
0.4045461
50
239.625581
51
259.2387746
0
ARC
8
DEFAULT_255_1_388
10
11.8899162
20
30.7781638
40
0.3352261
50
227.4961805
51
239.1189042
0
ARC
8
DEFAULT_255_1_388
10
11.8857045
20
30.7713009
40
0.3273245
50
191.3396895
51
227.2280349
0
ARC
8
DEFAULT_255_1_388
10
12.0437367
20
30.8086896
40
0.4896551
50
179.6087821
51
191.9932937
0
ARC
8
DEFAULT_255_1_388
10
12.0588112
20
30.8095216
40
0.3312434
50
179.565607
51
192.0702314
0
ARC
8
DEFAULT_255_1_388
10
11.9495065
20
30.784956
40
0.2192212
50
191.7655537
51
215.6462731
0
ARC
8
DEFAULT_255_1_388
10
11.9294305
20
30.7728629
40
0.1958682
50
216.1940686
51
224.3931249
0
ARC
8
DEFAULT_255_1_388
10
11.9302002
20
30.7758862
40
0.1985399
50
224.861176
51
254.3628599
0
ARC
8
DEFAULT_255_1_388
10
11.9606545
20
30.8765135
40
0.3036595
50
253.9470645
51
267.395327
0
ARC
8
DEFAULT_255_1_388
10
11.9685845
20
30.9804346
40
0.4078462
50
266.9458957
51
270.0343693
0
ARC
8
DEFAULT_255_1_388
10
11.9714425
20
30.8497844
40
0.2772084
50
269.4598277
51
286.1819188
0
ARC
8
DEFAULT_255_1_388
10
11.9873398
20
30.7914765
40
0.2167824
50
286.4415261
51
315.8045035
0
ARC
8
DEFAULT_255_1_388
10
11.981243
20
30.7962201
40
0.2244619
50
316.0212602
51
345.479585
0
ARC
8
DEFAULT_255_1_388
10
11.8720589
20
30.8269753
40
0.3378781
50
345.0729937
51
358.3249855
0
ARC
8
DEFAULT_255_1_388
10
11.7745035
20
30.8332509
40
0.4355887
50
357.8749464
51
359.5860856
0
LINE
8
DEFAULT_255_1_388
10
13.0016033
20
31.0758737
11
13.0016033
21
30.9394355
0
LINE
8
DEFAULT_255_1_388
10
13.0016033
20
30.9394355
11
12.5606638
21
30.9394355
0
LINE
8
DEFAULT_255_1_388
10
12.5606638
20
30.9394355
11
12.5606638
21
31.0758737
0
LINE
8
DEFAULT_255_1_388
10
12.5606638
20
31.0758737
11
13.0016033
21
31.0758737
0
LINE
8
DEFAULT_255_1_388
10
14.0632915
20
31.3839892
11
13.8889036
21
31.3839892
0
LINE
8
DEFAULT_255_1_388
10
13.110031
20
30.8301042
11
13.2844189
21
30.8301042
0
ARC
8
DEFAULT_255_1_388
10
13.9629763
20
32.3903821
40
1.4087688
50
248.9196578
51
254.1442424
0
ARC
8
DEFAULT_255_1_388
10
13.7739643
20
31.9037805
40
0.8867498
50
241.6337352
51
249.0064643
0
ARC
8
DEFAULT_255_1_388
10
13.6019956
20
31.5886764
40
0.5277799
50
230.4982261
51
241.8087583
0
ARC
8
DEFAULT_255_1_388
10
13.5137727
20
31.4762686
40
0.3849419
50
227.4062979
51
229.9877433
0
ARC
8
DEFAULT_255_1_388
10
13.4589074
20
31.4227155
40
0.3084129
50
200.6782127
51
228.1765252
0
ARC
8
DEFAULT_255_1_388
10
13.4670443
20
31.4210277
40
0.315461
50
179.506278
51
199.8695278
0
ARC
8
DEFAULT_255_1_388
10
13.4660031
20
31.4293671
40
0.3144584
50
132.4834401
51
181.0242352
0
ARC
8
DEFAULT_255_1_388
10
13.5329236
20
31.3661788
40
0.4063094
50
129.2526113
51
133.4249077
0
ARC
8
DEFAULT_255_1_388
10
13.5494828
20
31.3413619
40
0.436014
50
101.9878945
51
128.8741833
0
ARC
8
DEFAULT_255_1_388
10
13.5943244
20
31.147736
40
0.6347415
50
89.5906376
51
102.3170567
0
ARC
8
DEFAULT_255_1_388
10
13.6022555
20
31.1835586
40
0.5989122
50
77.2359491
51
90.3248968
0
ARC
8
DEFAULT_255_1_388
10
13.6255486
20
31.2923554
40
0.4876594
50
63.8379856
51
77.0808925
0
ARC
8
DEFAULT_255_1_388
10
13.656802
20
31.3505882
40
0.4216191
50
45.9863127
51
64.1608798
0
ARC
8
DEFAULT_255_1_388
10
13.6861413
20
31.384099
40
0.3771394
50
32.2747934
51
45.6544796
0
ARC
8
DEFAULT_255_1_388
10
13.693622
20
31.3862426
40
0.3696765
50
359.6507495
51
32.6129943
0
ARC
8
DEFAULT_255_1_388
10
13.5875402
20
31.3867788
40
0.3013762
50
359.469654
51
14.983205
0
ARC
8
DEFAULT_255_1_388
10
13.6668655
20
31.4080288
40
0.2192542
50
14.9781954
51
48.2004799
0
ARC
8
DEFAULT_255_1_388
10
13.6483766
20
31.3847937
40
0.2489048
50
48.5926661
51
74.1242559
0
ARC
8
DEFAULT_255_1_388
10
13.6108568
20
31.2609607
40
0.3782845
50
73.7889321
51
86.6653996
0
ARC
8
DEFAULT_255_1_388
10
13.5993383
20
31.1251955
40
0.5145025
50
86.2642725
51
90.0533288
0
ARC
8
DEFAULT_255_1_388
10
13.5961475
20
31.1696376
40
0.4700681
50
89.669455
51
99.2313411
0
ARC
8
DEFAULT_255_1_388
10
13.5688635
20
31.3321401
40
0.3052945
50
99.0695987
51
113.7659242
0
ARC
8
DEFAULT_255_1_388
10
13.5380629
20
31.4047772
40
0.226407
50
114.0402885
51
127.9848946
0
ARC
8
DEFAULT_255_1_388
10
13.5110106
20
31.4380884
40
0.1835045
50
127.7287217
51
176.7106493
0
ARC
8
DEFAULT_255_1_388
10
13.5873771
20
31.426721
40
0.2604907
50
175.1780759
51
180.0581213
0
ARC
8
DEFAULT_255_1_388
10
13.4925114
20
31.4253411
40
0.1656287
50
179.6140658
51
228.124674
0
ARC
8
DEFAULT_255_1_388
10
13.5422472
20
31.471394
40
0.2332038
50
226.5785315
51
230.8792476
0
ARC
8
DEFAULT_255_1_388
10
13.5951958
20
31.5416908
40
0.3211664
50
231.4636401
51
241.9261664
0
ARC
8
DEFAULT_255_1_388
10
13.7298742
20
31.7895349
40
0.6032345
50
241.7177136
51
248.3259138
0
ARC
8
DEFAULT_255_1_388
10
13.8857337
20
32.1756771
40
1.0196417
50
248.2007377
51
252.4527713
0
ARC
8
DEFAULT_255_1_388
10
14.0210863
20
32.5941092
40
1.4594143
50
252.3388938
51
254.347037
0
ARC
8
DEFAULT_255_1_388
10
13.1726164
20
29.5593095
40
1.6917621
50
71.0197462
51
74.4085467
0
ARC
8
DEFAULT_255_1_388
10
13.3633252
20
30.1098144
40
1.1091618
50
66.1845203
51
71.086519
0
ARC
8
DEFAULT_255_1_388
10
13.53838
20
30.5039439
40
0.6779073
50
59.3537334
51
66.269255
0
ARC
8
DEFAULT_255_1_388
10
13.6383526
20
30.6730777
40
0.4814366
50
49.1021732
51
59.3294421
0
ARC
8
DEFAULT_255_1_388
10
13.7304515
20
30.7780575
40
0.3417875
50
32.7924183
51
49.2503526
0
ARC
8
DEFAULT_255_1_388
10
13.7654129
20
30.8030311
40
0.2988789
50
31.121225
51
32.3977355
0
ARC
8
DEFAULT_255_1_388
10
13.7566307
20
30.7997728
40
0.3080861
50
8.1116803
51
30.7958224
0
ARC
8
DEFAULT_255_1_388
10
13.6654652
20
30.7842437
40
0.4005385
50
359.8390945
51
8.4707348
0
ARC
8
DEFAULT_255_1_388
10
13.73587
20
30.7787751
40
0.3301608
50
337.4732479
51
0.7538283
0
ARC
8
DEFAULT_255_1_388
10
13.7559725
20
30.7765554
40
0.3107929
50
307.5917028
51
336.4313755
0
ARC
8
DEFAULT_255_1_388
10
13.7048783
20
30.8333509
40
0.3870096
50
307.6560665
51
308.4561779
0
ARC
8
DEFAULT_255_1_388
10
13.6782999
20
30.8741832
40
0.435591
50
284.3733666
51
307.1426212
0
ARC
8
DEFAULT_255_1_388
10
13.6225894
20
31.0791391
40
0.6479685
50
272.4384566
51
284.6464689
0
ARC
8
DEFAULT_255_1_388
10
13.6083279
20
31.2815434
40
0.8508149
50
269.9708517
51
272.8180721
0
ARC
8
DEFAULT_255_1_388
10
13.6034961
20
31.0523283
40
0.6216151
50
248.2707343
51
270.4054609
0
ARC
8
DEFAULT_255_1_388
10
13.5973833
20
31.0308673
40
0.5994203
50
246.1380358
51
248.054058
0
ARC
8
DEFAULT_255_1_388
10
13.5502975
20
30.9319705
40
0.4899388
50
233.1671897
51
246.4951656
0
ARC
8
DEFAULT_255_1_388
10
13.487961
20
30.8478137
40
0.3852115
50
215.3403381
51
233.084328
0
ARC
8
DEFAULT_255_1_388
10
13.4572975
20
30.8255093
40
0.3472969
50
179.2419235
51
215.2648426
0
ARC
8
DEFAULT_255_1_388
10
13.5436525
20
30.8270979
40
0.259251
50
179.3355796
51
199.1045873
0
ARC
8
DEFAULT_255_1_388
10
13.5062667
20
30.8173223
40
0.2207454
50
199.8830064
51
232.7061328
0
ARC
8
DEFAULT_255_1_388
10
13.5593942
20
30.8841456
40
0.306101
50
232.3736206
51
255.5136621
0
ARC
8
DEFAULT_255_1_388
10
13.5977447
20
31.0241177
40
0.4512213
50
255.2447928
51
267.5318292
0
ARC
8
DEFAULT_255_1_388
10
13.6075914
20
31.1627709
40
0.5901825
50
267.1564563
51
270.0294721
0
ARC
8
DEFAULT_255_1_388
10
13.610724
20
31.1128623
40
0.5402814
50
269.6999944
51
278.1662446
0
ARC
8
DEFAULT_255_1_388
10
13.6395267
20
30.9181974
40
0.3435003
50
278.0229022
51
290.6255326
0
ARC
8
DEFAULT_255_1_388
10
13.6786434
20
30.8138547
40
0.2320666
50
290.6616368
51
307.0374127
0
ARC
8
DEFAULT_255_1_388
10
13.7124334
20
30.772404
40
0.1786372
50
306.3942078
51
355.303191
0
ARC
8
DEFAULT_255_1_388
10
13.6548627
20
30.7810186
40
0.2367516
50
354.3662092
51
0.0709489
0
ARC
8
DEFAULT_255_1_388
10
13.6708496
20
30.7835561
40
0.2207761
50
359.4175379
51
16.1975911
0
ARC
8
DEFAULT_255_1_388
10
13.7220613
20
30.7975954
40
0.1676828
50
16.4721294
51
52.6261798
0
ARC
8
DEFAULT_255_1_388
10
13.6297121
20
30.6756606
40
0.3206412
50
52.7381828
51
62.4979144
0
ARC
8
DEFAULT_255_1_388
10
13.4738873
20
30.3824236
40
0.6527035
50
62.2517425
51
68.1219454
0
ARC
8
DEFAULT_255_1_388
10
13.2804362
20
29.9069951
40
1.1659797
50
68.006043
51
71.8055127
0
ARC
8
DEFAULT_255_1_388
10
13.0784269
20
29.3011723
40
1.8045908
50
71.718361
51
73.9260743
0
LINE
8
DEFAULT_255_1_388
10
14.2196082
20
30.9105214
11
14.2196082
21
30.9412426
0
LINE
8
DEFAULT_255_1_388
10
15.0490803
20
30.9593139
11
15.0490803
21
30.8897395
0
LINE
8
DEFAULT_255_1_388
10
15.0490803
20
30.8897395
11
14.3867676
21
30.8897395
0
LINE
8
DEFAULT_255_1_388
10
14.9343276
20
30.6990874
11
15.0364304
21
30.6195737
0
LINE
8
DEFAULT_255_1_388
10
14.392189
20
31.0270813
11
14.8819209
21
31.0270813
0
LINE
8
DEFAULT_255_1_388
10
14.8819209
20
31.0270813
11
14.8819209
21
31.0397312
0
ARC
8
DEFAULT_255_1_388
10
14.6627843
20
30.923021
40
0.4923176
50
252.326534
51
270.5809615
0
ARC
8
DEFAULT_255_1_388
10
14.6397307
20
30.839694
40
0.4059384
50
223.3000488
51
251.8562489
0
ARC
8
DEFAULT_255_1_388
10
14.6635087
20
30.8627898
40
0.4390832
50
190.9374369
51
223.3654369
0
ARC
8
DEFAULT_255_1_388
10
14.8575765
20
30.9066598
40
0.63798
50
179.6531919
51
191.4988561
0
ARC
8
DEFAULT_255_1_388
10
14.8712792
20
30.9448571
40
0.6516811
50
167.4005523
51
180.3177836
0
ARC
8
DEFAULT_255_1_388
10
14.7529463
20
30.9698853
40
0.5307402
50
154.1835149
51
167.2508278
0
ARC
8
DEFAULT_255_1_388
10
14.6819054
20
31.0072925
40
0.4505076
50
134.3150225
51
154.5315008
0
ARC
8
DEFAULT_255_1_388
10
14.6574389
20
31.028755
40
0.4180662
50
122.8617482
51
133.9707159
0
ARC
8
DEFAULT_255_1_388
10
14.6457996
20
31.0537882
40
0.3907416
50
89.8248474
51
123.4199325
0
ARC
8
DEFAULT_255_1_388
10
14.6514295
20
30.9810352
40
0.4635141
50
74.7874349
51
90.5482648
0
ARC
8
DEFAULT_255_1_388
10
14.6844758
20
31.1030987
40
0.3370565
50
39.8178888
51
74.7634383
0
ARC
8
DEFAULT_255_1_388
10
14.6268001
20
31.0581356
40
0.4101553
50
16.8990848
51
39.4830125
0
ARC
8
DEFAULT_255_1_388
10
14.4136615
20
30.9898711
40
0.6339427
50
4.9634768
51
17.2027767
0
ARC
8
DEFAULT_255_1_388
10
14.141602
20
30.96116
40
0.9074803
50
359.8834402
51
5.2832409
0
ARC
8
DEFAULT_255_1_388
10
14.8208378
20
30.8971981
40
0.4341343
50
180.9844233
51
194.9402766
0
ARC
8
DEFAULT_255_1_388
10
14.7027543
20
30.864917
40
0.3117211
50
194.8030557
51
222.0412897
0
ARC
8
DEFAULT_255_1_388
10
14.6685415
20
30.8309715
40
0.2635903
50
221.541578
51
268.8616004
0
ARC
8
DEFAULT_255_1_388
10
14.6767536
20
30.907028
40
0.3398611
50
267.7321071
51
270.009808
0
ARC
8
DEFAULT_255_1_388
10
14.6787599
20
30.9297178
40
0.3625561
50
269.6921218
51
280.4122297
0
ARC
8
DEFAULT_255_1_388
10
14.6986011
20
30.8263767
40
0.2573323
50
280.2257165
51
298.633539
0
ARC
8
DEFAULT_255_1_388
10
14.7111425
20
30.7999578
40
0.2281403
50
299.0485543
51
300.4624141
0
ARC
8
DEFAULT_255_1_388
10
14.6352405
20
30.9264796
40
0.3756797
50
300.6578578
51
322.037749
0
ARC
8
DEFAULT_255_1_388
10
14.5981927
20
30.9588266
40
0.4247956
50
321.671786
51
322.3059078
0
ARC
8
DEFAULT_255_1_388
10
14.7005489
20
30.8294267
40
0.3960488
50
276.9729088
51
328.0035579
0
ARC
8
DEFAULT_255_1_388
10
14.669396
20
30.9959609
40
0.5652345
50
269.8358003
51
278.0581296
0
ARC
8
DEFAULT_255_1_388
10
14.6438259
20
31.079782
40
0.2274263
50
89.2017936
51
117.2852353
0
ARC
8
DEFAULT_255_1_388
10
14.649801
20
31.0750637
40
0.2343798
50
118.0546404
51
137.4544511
0
ARC
8
DEFAULT_255_1_388
10
14.6919653
20
31.0367556
40
0.2913471
50
137.5109688
51
158.8516701
0
ARC
8
DEFAULT_255_1_388
10
14.8199754
20
30.9850902
40
0.4293804
50
158.5845496
51
170.1719753
0
ARC
8
DEFAULT_255_1_388
10
14.9516089
20
30.9589519
40
0.5635533
50
169.8378964
51
173.0563877
0
ARC
8
DEFAULT_255_1_388
10
14.4231373
20
31.0164187
40
0.4593755
50
2.9089079
51
12.88469
0
ARC
8
DEFAULT_255_1_388
10
14.5773293
20
31.0527082
40
0.3009753
50
12.6957404
51
28.6405841
0
ARC
8
DEFAULT_255_1_388
10
14.6382789
20
31.0842577
40
0.232366
50
29.016559
51
41.1492981
0
ARC
8
DEFAULT_255_1_388
10
14.6610768
20
31.104108
40
0.2021373
50
41.1646967
51
85.001362
0
ARC
8
DEFAULT_255_1_388
10
14.6474773
20
31.0214775
40
0.2857091
50
83.728216
51
90.0968824
0
LINE
8
DEFAULT_255_1_388
10
15.7150073
20
31.4318781
11
15.7150073
21
31.276465
0
LINE
8
DEFAULT_255_1_388
10
15.4096025
20
31.1427375
11
15.4096025
21
30.4488
0
LINE
8
DEFAULT_255_1_388
10
15.4096025
20
30.4488
11
15.2424431
21
30.4488
0
LINE
8
DEFAULT_255_1_388
10
15.2424431
20
30.4488
11
15.2424431
21
31.4264567
0
LINE
8
DEFAULT_255_1_388
10
15.2424431
20
31.4264567
11
15.4050847
21
31.4264567
0
LINE
8
DEFAULT_255_1_388
10
15.4050847
20
31.4264567
11
15.4077954
21
31.3135112
0
ARC
8
DEFAULT_255_1_388
10
15.6400233
20
30.8198068
40
0.4627735
50
80.6751522
51
86.893806
0
ARC
8
DEFAULT_255_1_388
10
15.6332063
20
30.7106103
40
0.5721798
50
86.8046851
51
90.0423898
0
ARC
8
DEFAULT_255_1_388
10
15.6290483
20
30.9873197
40
0.2954939
50
89.2758283
51
106.6212906
0
ARC
8
DEFAULT_255_1_388
10
15.6060507
20
31.0709009
40
0.2088351
50
107.1347109
51
157.6456887
0
ARC
8
DEFAULT_255_1_388
10
15.6828569
20
31.0281908
40
0.296292
50
155.6557383
51
157.256838
0
ARC
8
DEFAULT_255_1_388
10
15.6608184
20
31.1592472
40
0.296341
50
127.8167201
51
148.6300223
0
ARC
8
DEFAULT_255_1_388
10
15.6322931
20
31.1885066
40
0.2557782
50
91.3329934
51
126.7875218
0
ARC
8
DEFAULT_255_1_388
10
15.6408318
20
31.1081718
40
0.3363561
50
89.9858247
51
92.4688453
0
ARC
8
DEFAULT_255_1_388
10
15.6417811
20
31.1390114
40
0.3055179
50
85.3587643
51
90.1624243
0
ARC
8
DEFAULT_255_1_388
10
15.6512876
20
31.2519458
40
0.1921848
50
78.4019195
51
85.4592653
0
ARC
8
DEFAULT_255_1_388
10
15.6675937
20
31.3297142
40
0.1127267
50
67.7849217
51
78.573798
0
ARC
8
DEFAULT_255_1_388
10
15.6797571
20
31.3612374
40
0.0789473
50
63.4805074
51
67.3074739
0
LINE
8
DEFAULT_255_1_388
10
16.0502297
20
31.4264567
11
16.0502297
21
30.4488
0
LINE
8
DEFAULT_255_1_388
10
16.0502297
20
30.4488
11
15.8830703
21
30.4488
0
LINE
8
DEFAULT_255_1_388
10
15.8830703
20
30.4488
11
15.8830703
21
31.4264567
0
LINE
8
DEFAULT_255_1_388
10
15.8830703
20
31.4264567
11
16.0502297
21
31.4264567
0
ARC
8
DEFAULT_255_1_388
10
15.9796065
20
31.6868428
40
0.1100948
50
161.4148232
51
180.5532607
0
ARC
8
DEFAULT_255_1_388
10
15.9656375
20
31.6906875
40
0.0956324
50
138.1830164
51
160.9307633
0
ARC
8
DEFAULT_255_1_388
10
15.9532562
20
31.7014313
40
0.0792417
50
104.6371663
51
138.0036136
0
ARC
8
DEFAULT_255_1_388
10
15.9653101
20
31.6601963
40
0.1221906
50
92.0601206
51
105.2198859
0
ARC
8
DEFAULT_255_1_388
10
15.9679465
20
31.6213583
40
0.161103
50
89.9790681
51
92.5006086
0
ARC
8
DEFAULT_255_1_388
10
15.9690641
20
31.6469998
40
0.1354654
50
78.0234649
51
90.4478111
0
ARC
8
DEFAULT_255_1_388
10
15.9794226
20
31.6935203
40
0.0878096
50
55.0521508
51
78.336297
0
ARC
8
DEFAULT_255_1_388
10
15.985076
20
31.7030168
40
0.0767913
50
42.0506198
51
54.4508489
0
ARC
8
DEFAULT_255_1_388
10
15.9698793
20
31.6890821
40
0.0974091
50
1.7493657
51
42.1498724
0
ARC
8
DEFAULT_255_1_388
10
15.9412699
20
31.6858166
40
0.1261276
50
359.9832635
51
2.8353994
0
ARC
8
DEFAULT_255_1_388
10
15.9599109
20
31.6847412
40
0.1074916
50
342.1062453
51
0.5535864
0
ARC
8
DEFAULT_255_1_388
10
15.9759533
20
31.6803197
40
0.0908695
50
316.7110111
51
341.6513114
0
ARC
8
DEFAULT_255_1_388
10
15.9834965
20
31.6735607
40
0.0807447
50
285.4398289
51
316.5320129
0
ARC
8
DEFAULT_255_1_388
10
15.9711135
20
31.7147023
40
0.1237022
50
272.3543902
51
285.8951677
0
ARC
8
DEFAULT_255_1_388
10
15.9680845
20
31.7562742
40
0.1653687
50
269.9725761
51
272.8112722
0
ARC
8
DEFAULT_255_1_388
10
15.9669897
20
31.7311727
40
0.1402709
50
258.8433431
51
270.4148607
0
ARC
8
DEFAULT_255_1_388
10
15.9568677
20
31.6821739
40
0.0902407
50
238.54281
51
259.1289544
0
ARC
8
DEFAULT_255_1_388
10
15.9491999
20
31.6682694
40
0.0743817
50
222.5056676
51
237.9918132
0
ARC
8
DEFAULT_255_1_388
10
15.9635592
20
31.6813295
40
0.0937918
50
184.1070774
51
222.4604165
0
ARC
8
DEFAULT_255_1_388
10
15.9938006
20
31.6856538
40
0.1242838
50
179.9419581
51
185.0970785
0
LINE
8
DEFAULT_255_1_388
10
16.2752173
20
30.9105214
11
16.2752173
21
30.9412426
0
LINE
8
DEFAULT_255_1_388
10
17.1046895
20
30.9593139
11
17.1046895
21
30.8897395
0
LINE
8
DEFAULT_255_1_388
10
17.1046895
20
30.8897395
11
16.4423767
21
30.8897395
0
LINE
8
DEFAULT_255_1_388
10
16.9899368
20
30.6990874
11
17.0920396
21
30.6195737
0
LINE
8
DEFAULT_255_1_388
10
16.4477981
20
31.0270813
11
16.93753
21
31.0270813
0
LINE
8
DEFAULT_255_1_388
10
16.93753
20
31.0270813
11
16.93753
21
31.0397312
0
ARC
8
DEFAULT_255_1_388
10
16.7183934
20
30.923021
40
0.4923176
50
252.326534
51
270.5809615
0
ARC
8
DEFAULT_255_1_388
10
16.6953398
20
30.839694
40
0.4059384
50
223.3000488
51
251.8562489
0
ARC
8
DEFAULT_255_1_388
10
16.7191178
20
30.8627898
40
0.4390832
50
190.9374369
51
223.3654369
0
ARC
8
DEFAULT_255_1_388
10
16.9131856
20
30.9066598
40
0.63798
50
179.6531919
51
191.4988561
0
ARC
8
DEFAULT_255_1_388
10
16.9268883
20
30.9448571
40
0.6516811
50
167.4005523
51
180.3177836
0
ARC
8
DEFAULT_255_1_388
10
16.8085555
20
30.9698853
40
0.5307402
50
154.1835149
51
167.2508278
0
ARC
8
DEFAULT_255_1_388
10
16.7375146
20
31.0072925
40
0.4505076
50
134.3150225
51
154.5315008
0
ARC
8
DEFAULT_255_1_388
10
16.7130481
20
31.028755
40
0.4180662
50
122.8617482
51
133.9707159
0
ARC
8
DEFAULT_255_1_388
10
16.7014088
20
31.0537882
40
0.3907416
50
89.8248474
51
123.4199325
0
ARC
8
DEFAULT_255_1_388
10
16.7070386
20
30.9810352
40
0.4635141
50
74.7874349
51
90.5482648
0
ARC
8
DEFAULT_255_1_388
10
16.740085
20
31.1030987
40
0.3370565
50
39.8178888
51
74.7634383
0
ARC
8
DEFAULT_255_1_388
10
16.6824092
20
31.0581356
40
0.4101553
50
16.8990848
51
39.4830125
0
ARC
8
DEFAULT_255_1_388
10
16.4692706
20
30.9898711
40
0.6339427
50
4.9634768
51
17.2027767
0
ARC
8
DEFAULT_255_1_388
10
16.1972111
20
30.96116
40
0.9074803
50
359.8834402
51
5.2832409
0
ARC
8
DEFAULT_255_1_388
10
16.8764469
20
30.8971981
40
0.4341343
50
180.9844233
51
194.9402766
0
ARC
8
DEFAULT_255_1_388
10
16.7583635
20
30.864917
40
0.3117211
50
194.8030557
51
222.0412897
0
ARC
8
DEFAULT_255_1_388
10
16.7241507
20
30.8309715
40
0.2635903
50
221.541578
51
268.8616004
0
ARC
8
DEFAULT_255_1_388
10
16.7323627
20
30.907028
40
0.3398611
50
267.7321071
51
270.009808
0
ARC
8
DEFAULT_255_1_388
10
16.7343691
20
30.9297178
40
0.3625561
50
269.6921218
51
280.4122297
0
ARC
8
DEFAULT_255_1_388
10
16.7542102
20
30.8263767
40
0.2573323
50
280.2257165
51
298.633539
0
ARC
8
DEFAULT_255_1_388
10
16.7667516
20
30.7999578
40
0.2281403
50
299.0485543
51
300.4624141
0
ARC
8
DEFAULT_255_1_388
10
16.6908496
20
30.9264796
40
0.3756797
50
300.6578578
51
322.037749
0
ARC
8
DEFAULT_255_1_388
10
16.6538018
20
30.9588266
40
0.4247956
50
321.671786
51
322.3059078
0
ARC
8
DEFAULT_255_1_388
10
16.7561581
20
30.8294267
40
0.3960488
50
276.9729088
51
328.0035579
0
ARC
8
DEFAULT_255_1_388
10
16.7250051
20
30.9959609
40
0.5652345
50
269.8358003
51
278.0581296
0
ARC
8
DEFAULT_255_1_388
10
16.699435
20
31.079782
40
0.2274263
50
89.2017936
51
117.2852353
0
ARC
8
DEFAULT_255_1_388
10
16.7054101
20
31.0750637
40
0.2343798
50
118.0546404
51
137.4544511
0
ARC
8
DEFAULT_255_1_388
10
16.7475745
20
31.0367556
40
0.2913471
50
137.5109688
51
158.8516701
0
ARC
8
DEFAULT_255_1_388
10
16.8755845
20
30.9850902
40
0.4293804
50
158.5845496
51
170.1719753
0
ARC
8
DEFAULT_255_1_388
10
17.0072181
20
30.9589519
40
0.5635533
50
169.8378964
51
173.0563877
0
ARC
8
DEFAULT_255_1_388
10
16.4787464
20
31.0164187
40
0.4593755
50
2.9089079
51
12.88469
0
ARC
8
DEFAULT_255_1_388
10
16.6329384
20
31.0527082
40
0.3009753
50
12.6957404
51
28.6405841
0
ARC
8
DEFAULT_255_1_388
10
16.6938881
20
31.0842577
40
0.232366
50
29.016559
51
41.1492981
0
ARC
8
DEFAULT_255_1_388
10
16.716686
20
31.104108
40
0.2021373
50
41.1646967
51
85.001362
0
ARC
8
DEFAULT_255_1_388
10
16.7030864
20
31.0214775
40
0.2857091
50
83.728216
51
90.0968824
0
LINE
8
DEFAULT_255_1_388
10
18.0254216
20
31.1391232
11
17.8573586
21
31.1391232
0
LINE
8
DEFAULT_255_1_388
10
17.2573918
20
30.749687
11
17.4245513
21
30.749687
0
ARC
8
DEFAULT_255_1_388
10
17.7236877
20
30.7097935
40
0.1436198
50
359.3335374
51
18.5869869
0
ARC
8
DEFAULT_255_1_388
10
17.7471617
20
30.7160015
40
0.1194022
50
19.3538149
51
54.6486387
0
ARC
8
DEFAULT_255_1_388
10
17.6904604
20
30.6378077
40
0.2159877
50
54.3821575
51
65.0627557
0
ARC
8
DEFAULT_255_1_388
10
17.6039951
20
30.4559032
40
0.4173927
50
64.8282172
51
71.4204388
0
ARC
8
DEFAULT_255_1_388
10
17.5024847
20
30.1580782
40
0.7320403
50
71.3166092
51
75.8005927
0
ARC
8
DEFAULT_255_1_388
10
17.4078732
20
29.7935881
40
1.108605
50
75.6810806
51
78.0063886
0
ARC
8
DEFAULT_255_1_388
10
17.9083321
20
32.153753
40
1.3040363
50
254.69024
51
258.0465557
0
ARC
8
DEFAULT_255_1_388
10
17.791519
20
31.7307742
40
0.8652254
50
249.9010634
51
254.7555005
0
ARC
8
DEFAULT_255_1_388
10
17.6786242
20
31.424168
40
0.5384962
50
243.3097375
51
249.970939
0
ARC
8
DEFAULT_255_1_388
10
17.6078656
20
31.2830721
40
0.380652
50
234.4047808
51
243.2861752
0
ARC
8
DEFAULT_255_1_388
10
17.5378292
20
31.1863645
40
0.2612502
50
220.8665526
51
234.5497192
0
ARC
8
DEFAULT_255_1_388
10
17.4993291
20
31.1513203
40
0.2092097
50
214.3063391
51
220.5075055
0
ARC
8
DEFAULT_255_1_388
10
17.4964405
20
31.1478577
40
0.2048755
50
186.9131438
51
213.9617385
0
ARC
8
DEFAULT_255_1_388
10
17.5562795
20
31.1575431
40
0.2654563
50
179.8802037
51
187.4338578
0
ARC
8
DEFAULT_255_1_388
10
17.5388759
20
31.1598049
40
0.2480581
50
132.0053393
51
180.3942351
0
ARC
8
DEFAULT_255_1_388
10
17.6127672
20
31.0915997
40
0.3483116
50
129.2317021
51
133.5294826
0
ARC
8
DEFAULT_255_1_388
10
17.6187641
20
31.0810383
40
0.360291
50
100.440976
51
128.9081567
0
ARC
8
DEFAULT_255_1_388
10
17.6495759
20
30.9364357
40
0.5080996
50
89.6985063
51
100.9029043
0
ARC
8
DEFAULT_255_1_388
10
17.6559914
20
30.9183739
40
0.5261675
50
77.6967144
51
90.4074623
0
ARC
8
DEFAULT_255_1_388
10
17.6932266
20
31.0789503
40
0.3613511
50
50.7278431
51
78.0397473
0
ARC
8
DEFAULT_255_1_388
10
17.7432309
20
31.1372173
40
0.2845966
50
25.754382
51
51.0957456
0
ARC
8
DEFAULT_255_1_388
10
17.7433676
20
31.1428311
40
0.2820785
50
359.2468358
51
24.7393861
0
ARC
8
DEFAULT_255_1_388
10
17.7113563
20
31.1396204
40
0.1460032
50
359.8048924
51
45.1543866
0
ARC
8
DEFAULT_255_1_388
10
17.6655297
20
31.1004291
40
0.2061641
50
43.8053172
51
49.625485
0
ARC
8
DEFAULT_255_1_388
10
17.6664739
20
31.1005849
40
0.2054344
50
49.7979696
51
82.121802
0
ARC
8
DEFAULT_255_1_388
10
17.6530822
20
31.0278473
40
0.2793404
50
81.4458692
51
90.1707936
0
ARC
8
DEFAULT_255_1_388
10
17.6503399
20
30.9686478
40
0.3385438
50
89.6768097
51
99.1267111
0
ARC
8
DEFAULT_255_1_388
10
17.6310381
20
31.0849405
40
0.2206627
50
98.9679878
51
113.4573418
0
ARC
8
DEFAULT_255_1_388
10
17.6090061
20
31.1376193
40
0.1635691
50
113.7230234
51
127.4758155
0
ARC
8
DEFAULT_255_1_388
10
17.5900644
20
31.1601433
40
0.1341757
50
126.9086647
51
150.3160891
0
ARC
8
DEFAULT_255_1_388
10
17.5846974
20
31.165868
40
0.1266992
50
151.363328
51
180.0701537
0
ARC
8
DEFAULT_255_1_388
10
17.6157195
20
31.163523
40
0.1577364
50
179.2045432
51
180.0012892
0
ARC
8
DEFAULT_255_1_388
10
17.5788307
20
31.1620515
40
0.1208564
50
179.3040542
51
198.4225767
0
ARC
8
DEFAULT_255_1_388
10
17.5572448
20
31.1564337
40
0.0986126
50
199.2893055
51
238.6036855
0
ARC
8
DEFAULT_255_1_388
10
17.6250541
20
31.2628752
40
0.2248082
50
237.9844191
51
246.8751643
0
ARC
8
DEFAULT_255_1_388
10
17.7215401
20
31.4835861
40
0.4656832
50
246.6226408
51
251.8174794
0
ARC
8
DEFAULT_255_1_388
10
17.8375869
20
31.8320909
40
0.8329993
50
251.7140983
51
255.0775146
0
ARC
8
DEFAULT_255_1_388
10
17.9725393
20
32.3347708
40
1.3534786
50
255.0370864
51
257.4701577
0
ARC
8
DEFAULT_255_1_388
10
17.3977938
20
29.7453535
40
1.298957
50
73.6835762
51
77.5015749
0
ARC
8
DEFAULT_255_1_388
10
17.5202852
20
30.1615699
40
0.8650912
50
68.7042835
51
73.7249997
0
ARC
8
DEFAULT_255_1_388
10
17.6218416
20
30.4232853
40
0.584363
50
63.5907059
51
68.6622978
0
ARC
8
DEFAULT_255_1_388
10
17.7086157
20
30.5963157
40
0.3907955
50
54.7106507
51
63.7018033
0
ARC
8
DEFAULT_255_1_388
10
17.7788545
20
30.6944287
40
0.2701345
50
41.0624597
51
54.8488532
0
ARC
8
DEFAULT_255_1_388
10
17.8172323
20
30.7296439
40
0.2180695
50
34.4952722
51
40.7097584
0
ARC
8
DEFAULT_255_1_388
10
17.8225288
20
30.7351204
40
0.2106083
50
9.3761233
51
34.0834046
0
ARC
8
DEFAULT_255_1_388
10
17.7490417
20
30.7210174
40
0.2854177
50
359.7695264
51
9.7660556
0
ARC
8
DEFAULT_255_1_388
10
17.771271
20
30.7161841
40
0.2632121
50
335.8653103
51
0.8022272
0
ARC
8
DEFAULT_255_1_388
10
17.7797115
20
30.7176951
40
0.2561728
50
307.7357819
51
334.7849324
0
ARC
8
DEFAULT_255_1_388
10
17.7351756
20
30.7676553
40
0.3229737
50
307.0217048
51
308.5596894
0
ARC
8
DEFAULT_255_1_388
10
17.7056341
20
30.8118063
40
0.3760237
50
282.9361285
51
306.5649033
0
ARC
8
DEFAULT_255_1_388
10
17.6649402
20
30.9768871
40
0.5460314
50
271.1026197
51
283.2199962
0
ARC
8
DEFAULT_255_1_388
10
17.6577591
20
31.1169744
40
0.6862456
50
269.9926344
51
271.4770056
0
ARC
8
DEFAULT_255_1_388
10
17.6548161
20
30.9952633
40
0.5645418
50
259.0723633
51
270.2897324
0
ARC
8
DEFAULT_255_1_388
10
17.6309386
20
30.8695887
40
0.4366198
50
245.4965026
51
259.0225745
0
ARC
8
DEFAULT_255_1_388
10
17.5996603
20
30.8041491
40
0.3641037
50
228.9686619
51
245.7042678
0
ARC
8
DEFAULT_255_1_388
10
17.5697877
20
30.7673573
40
0.3167435
50
214.4015391
51
228.6759028
0
ARC
8
DEFAULT_255_1_388
10
17.5372374
20
30.7495429
40
0.2798456
50
179.9704983
51
215.1574389
0
ARC
8
DEFAULT_255_1_388
10
17.6160587
20
30.7578148
40
0.1916798
50
182.430239
51
203.0329751
0
ARC
8
DEFAULT_255_1_388
10
17.5953183
20
30.7514675
40
0.1701248
50
203.7987464
51
232.5483345
0
ARC
8
DEFAULT_255_1_388
10
17.6264267
20
30.7910049
40
0.2204299
50
232.3784541
51
256.3934343
0
ARC
8
DEFAULT_255_1_388
10
17.6523414
20
30.8911359
40
0.3238512
50
256.1048329
51
268.4627478
0
ARC
8
DEFAULT_255_1_388
10
17.6575834
20
30.9815297
40
0.4143627
50
268.0734924
51
270.0121004
0
ARC
8
DEFAULT_255_1_388
10
17.6596552
20
30.9501191
40
0.3829573
50
269.7031202
51
278.8338867
0
ARC
8
DEFAULT_255_1_388
10
17.6801416
20
30.8229553
40
0.2541568
50
278.6727378
51
292.82331
0
ARC
8
DEFAULT_255_1_388
10
17.7026963
20
30.7665546
40
0.1934264
50
293.1457581
51
303.6656964
0
ARC
8
DEFAULT_255_1_388
10
17.7325036
20
30.7242159
40
0.1416713
50
303.1245849
51
321.7434683
0
ARC
8
DEFAULT_255_1_388
10
17.7534117
20
30.705878
40
0.1139081
50
322.4747616
51
1.1293039
0
LINE
8
DEFAULT_255_1_388
10
4.8809318
20
28.6008382
11
4.8809318
21
28.4644
0
LINE
8
DEFAULT_255_1_388
10
4.8809318
20
28.4644
11
4.0189313
21
28.4644
0
LINE
8
DEFAULT_255_1_388
10
4.0189313
20
28.4644
11
4.0189313
21
28.5845741
0
LINE
8
DEFAULT_255_1_388
10
4.0189313
20
28.5845741
11
4.4743278
21
29.0905702
0
LINE
8
DEFAULT_255_1_388
10
4.1607909
20
29.3923607
11
3.9936315
21
29.3923607
0
LINE
8
DEFAULT_255_1_388
10
4.5728163
20
28.983046
11
4.2204262
21
28.6008382
0
LINE
8
DEFAULT_255_1_388
10
4.2204262
20
28.6008382
11
4.8809318
21
28.6008382
0
ARC
8
DEFAULT_255_1_388
10
2.9567337
20
30.4325983
40
2.0258655
50
318.5132526
51
320.7829045
0
ARC
8
DEFAULT_255_1_388
10
3.5515294
20
29.9484929
40
1.2589638
50
320.7372878
51
323.9739031
0
ARC
8
DEFAULT_255_1_388
10
3.9924226
20
29.6290554
40
0.7145141
50
323.8962701
51
328.64194
0
ARC
8
DEFAULT_255_1_388
10
4.2226484
20
29.4870545
40
0.4440242
50
328.8294576
51
331.7891185
0
ARC
8
DEFAULT_255_1_388
10
4.3348804
20
29.4291374
40
0.3177517
50
331.4254512
51
352.9365785
0
ARC
8
DEFAULT_255_1_388
10
4.3501804
20
29.425705
40
0.3021496
50
353.2257659
51
0.0166158
0
ARC
8
DEFAULT_255_1_388
10
4.3738564
20
29.4282894
40
0.2784847
50
359.486299
51
15.9343185
0
ARC
8
DEFAULT_255_1_388
10
4.4308831
20
29.4436269
40
0.2194403
50
16.1712913
51
43.5286088
0
ARC
8
DEFAULT_255_1_388
10
4.4395776
20
29.4523191
40
0.2071504
50
43.4417391
51
83.1661095
0
ARC
8
DEFAULT_255_1_388
10
4.4244937
20
29.3694316
40
0.2912888
50
82.160179
51
90.1505708
0
ARC
8
DEFAULT_255_1_388
10
4.4209418
20
29.3090279
40
0.3517025
50
89.5460741
51
102.5418361
0
ARC
8
DEFAULT_255_1_388
10
4.3936138
20
29.4249933
40
0.2325748
50
102.1738499
51
129.206123
0
ARC
8
DEFAULT_255_1_388
10
4.3847592
20
29.4389664
40
0.2161591
50
129.72865
51
135.753947
0
ARC
8
DEFAULT_255_1_388
10
4.3984074
20
29.4280728
40
0.2335433
50
136.1757367
51
166.3673339
0
ARC
8
DEFAULT_255_1_388
10
4.5116762
20
29.3977148
40
0.3507873
50
165.9090694
51
178.8684636
0
ARC
8
DEFAULT_255_1_388
10
4.6092534
20
29.3924263
40
0.4484624
50
178.4391136
51
180.0083808
0
ARC
8
DEFAULT_255_1_388
10
4.4513235
20
29.3968197
40
0.4577138
50
163.2878482
51
180.5581842
0
ARC
8
DEFAULT_255_1_388
10
4.3611276
20
29.4216393
40
0.3641968
50
133.4540601
51
162.947111
0
ARC
8
DEFAULT_255_1_388
10
4.3812158
20
29.4002789
40
0.3935189
50
100.7869829
51
133.4382499
0
ARC
8
DEFAULT_255_1_388
10
4.4203403
20
29.2260399
40
0.5720313
50
89.660664
51
101.3702276
0
ARC
8
DEFAULT_255_1_388
10
4.4278012
20
29.2329263
40
0.5651495
50
78.2172678
51
90.412935
0
ARC
8
DEFAULT_255_1_388
10
4.4677478
20
29.4156511
40
0.378122
50
55.9269121
51
78.4888449
0
ARC
8
DEFAULT_255_1_388
10
4.4898193
20
29.4537187
40
0.3342379
50
47.929771
51
55.4049217
0
ARC
8
DEFAULT_255_1_388
10
4.5012723
20
29.4653618
40
0.3179217
50
4.334829
51
48.0560205
0
ARC
8
DEFAULT_255_1_388
10
4.3780525
20
29.4462487
40
0.442341
50
359.9251713
51
5.5971671
0
ARC
8
DEFAULT_255_1_388
10
4.426268
20
29.4525728
40
0.3941854
50
337.8914027
51
358.9967534
0
ARC
8
DEFAULT_255_1_388
10
4.121025
20
29.5703295
40
0.7213271
50
326.9132501
51
338.3508308
0
ARC
8
DEFAULT_255_1_388
10
3.6726362
20
29.8577105
40
1.2538973
50
319.6471833
51
327.0959558
0
ARC
8
DEFAULT_255_1_388
10
3.241302
20
30.213505
40
1.8129975
50
317.2588228
51
319.9045804
0
LINE
8
DEFAULT_255_1_388
10
5.7637143
20
29.7799898
11
5.7637143
21
28.906243
0
LINE
8
DEFAULT_255_1_388
10
5.7637143
20
28.906243
11
5.9462343
21
28.906243
0
LINE
8
DEFAULT_255_1_388
10
5.9462343
20
28.906243
11
5.9462343
21
28.7698048
0
LINE
8
DEFAULT_255_1_388
10
5.9462343
20
28.7698048
11
5.7637143
21
28.7698048
0
LINE
8
DEFAULT_255_1_388
10
5.7637143
20
28.7698048
11
5.7637143
21
28.4644
0
LINE
8
DEFAULT_255_1_388
10
5.7637143
20
28.4644
11
5.5956513
21
28.4644
0
LINE
8
DEFAULT_255_1_388
10
5.5956513
20
28.4644
11
5.5956513
21
28.7698048
0
LINE
8
DEFAULT_255_1_388
10
5.5956513
20
28.7698048
11
4.996588
21
28.7698048
0
LINE
8
DEFAULT_255_1_388
10
4.996588
20
28.7698048
11
4.996588
21
28.8682933
0
LINE
8
DEFAULT_255_1_388
10
4.996588
20
28.8682933
11
5.5857121
21
29.7799898
0
LINE
8
DEFAULT_255_1_388
10
5.5857121
20
29.7799898
11
5.7637143
21
29.7799898
0
LINE
8
DEFAULT_255_1_388
10
5.5757729
20
29.5152455
11
5.1863366
21
28.906243
0
LINE
8
DEFAULT_255_1_388
10
5.1863366
20
28.906243
11
5.5956513
21
28.906243
0
LINE
8
DEFAULT_255_1_388
10
5.5956513
20
28.906243
11
5.5956513
21
29.551388
0
LINE
8
DEFAULT_255_1_388
10
5.5956513
20
29.551388
11
5.5757729
21
29.5152455
0
LINE
8
DEFAULT_255_1_388
10
6.201943
20
29.7799898
11
6.5760187
21
28.6948089
0
LINE
8
DEFAULT_255_1_388
10
6.5760187
20
28.6948089
11
6.9519015
21
29.7799898
0
LINE
8
DEFAULT_255_1_388
10
6.9519015
20
29.7799898
11
7.14165
21
29.7799898
0
LINE
8
DEFAULT_255_1_388
10
7.14165
20
29.7799898
11
6.6537252
21
28.4644
0
LINE
8
DEFAULT_255_1_388
10
6.6537252
20
28.4644
11
6.5001193
21
28.4644
0
LINE
8
DEFAULT_255_1_388
10
6.5001193
20
28.4644
11
6.013098
21
29.7799898
0
LINE
8
DEFAULT_255_1_388
10
6.013098
20
29.7799898
11
6.201943
21
29.7799898
0
LINE
8
DEFAULT_255_1_388
10
4.826568
20
5.9674898
11
5.000956
21
5.9674898
0
LINE
8
DEFAULT_255_1_388
10
5.000956
20
5.9674898
11
5.000956
21
5.072961
0
LINE
8
DEFAULT_255_1_388
10
4.5690521
20
4.6356358
11
4.5229704
21
4.6338287
0
LINE
8
DEFAULT_255_1_388
10
4.048599
20
5.0711539
11
4.048599
21
5.9674898
0
LINE
8
DEFAULT_255_1_388
10
4.048599
20
5.9674898
11
4.2202763
21
5.9674898
0
LINE
8
DEFAULT_255_1_388
10
4.2202763
20
5.9674898
11
4.2202763
21
5.0765753
0
LINE
8
DEFAULT_255_1_388
10
4.826568
20
5.0756717
11
4.826568
21
5.9674898
0
ARC
8
DEFAULT_255_1_388
10
4.5112358
20
5.070727
40
0.4897252
50
343.0897723
51
0.2613727
0
ARC
8
DEFAULT_255_1_388
10
4.6044329
20
5.044727
40
0.3930016
50
315.3344451
51
342.7642569
0
ARC
8
DEFAULT_255_1_388
10
4.5792825
20
5.0708085
40
0.4292244
50
284.6605441
51
315.2183439
0
ARC
8
DEFAULT_255_1_388
10
4.5280605
20
5.2447508
40
0.6104926
50
273.8500371
51
285.1796441
0
ARC
8
DEFAULT_255_1_388
10
4.5181669
20
5.2831762
40
0.6493653
50
257.6315393
51
270.4238259
0
ARC
8
DEFAULT_255_1_388
10
4.4703753
20
5.0782915
40
0.4390079
50
230.6086859
51
257.9965362
0
ARC
8
DEFAULT_255_1_388
10
4.4557811
20
5.0553643
40
0.4120404
50
227.745033
51
230.1538266
0
ARC
8
DEFAULT_255_1_388
10
4.440434
20
5.0369253
40
0.3880742
50
189.2524335
51
227.5915299
0
ARC
8
DEFAULT_255_1_388
10
4.6116211
20
5.0737735
40
0.5630282
50
180.2665782
51
190.1525221
0
ARC
8
DEFAULT_255_1_388
10
4.6365939
20
5.0734254
40
0.4163296
50
179.566507
51
191.9954402
0
ARC
8
DEFAULT_255_1_388
10
4.4984628
20
5.0426151
40
0.274815
50
191.6974619
51
215.1403758
0
ARC
8
DEFAULT_255_1_388
10
4.471702
20
5.0266689
40
0.2437647
50
215.6958251
51
224.8509274
0
ARC
8
DEFAULT_255_1_388
10
4.4779496
20
5.0356016
40
0.2545012
50
225.2846515
51
255.0110023
0
ARC
8
DEFAULT_255_1_388
10
4.5143943
20
5.1609017
40
0.384974
50
254.5945979
51
267.9129427
0
ARC
8
DEFAULT_255_1_388
10
4.5227636
20
5.2826444
40
0.506956
50
267.4687563
51
270.0233681
0
ARC
8
DEFAULT_255_1_388
10
4.5261631
20
5.2166288
40
0.440952
50
269.5851384
51
281.1845308
0
ARC
8
DEFAULT_255_1_388
10
4.5575235
20
5.0644469
40
0.2855802
50
280.9345159
51
300.9740496
0
ARC
8
DEFAULT_255_1_388
10
4.5814415
20
5.0204128
40
0.2355257
50
301.4982546
51
315.1468616
0
ARC
8
DEFAULT_255_1_388
10
4.5651912
20
5.0337488
40
0.2564594
50
315.5952932
51
345.6679188
0
ARC
8
DEFAULT_255_1_388
10
4.4392469
20
5.0688235
40
0.3871766
50
345.2525685
51
358.6303941
0
ARC
8
DEFAULT_255_1_388
10
4.3248859
20
5.0755695
40
0.5016822
50
358.1723541
51
0.0116795
0
LINE
8
DEFAULT_255_1_388
10
6.1475792
20
5.5870892
11
5.9731913
21
5.5870892
0
LINE
8
DEFAULT_255_1_388
10
5.1943188
20
5.0332042
11
5.3687067
21
5.0332042
0
ARC
8
DEFAULT_255_1_388
10
6.047264
20
6.5934821
40
1.4087688
50
248.9196578
51
254.1442424
0
ARC
8
DEFAULT_255_1_388
10
5.858252
20
6.1068805
40
0.8867498
50
241.6337352
51
249.0064643
0
ARC
8
DEFAULT_255_1_388
10
5.6862833
20
5.7917764
40
0.5277799
50
230.4982261
51
241.8087583
0
ARC
8
DEFAULT_255_1_388
10
5.5980605
20
5.6793686
40
0.3849419
50
227.4062979
51
229.9877433
0
ARC
8
DEFAULT_255_1_388
10
5.5431951
20
5.6258155
40
0.3084129
50
200.6782127
51
228.1765252
0
ARC
8
DEFAULT_255_1_388
10
5.551332
20
5.6241277
40
0.315461
50
179.506278
51
199.8695278
0
ARC
8
DEFAULT_255_1_388
10
5.5502909
20
5.6324671
40
0.3144584
50
132.4834401
51
181.0242352
0
ARC
8
DEFAULT_255_1_388
10
5.6172113
20
5.5692788
40
0.4063094
50
129.2526113
51
133.4249077
0
ARC
8
DEFAULT_255_1_388
10
5.6337706
20
5.5444619
40
0.436014
50
101.9878945
51
128.8741833
0
ARC
8
DEFAULT_255_1_388
10
5.6786121
20
5.350836
40
0.6347415
50
89.5906376
51
102.3170567
0
ARC
8
DEFAULT_255_1_388
10
5.6865432
20
5.3866586
40
0.5989122
50
77.2359491
51
90.3248968
0
ARC
8
DEFAULT_255_1_388
10
5.7098363
20
5.4954554
40
0.4876594
50
63.8379856
51
77.0808925
0
ARC
8
DEFAULT_255_1_388
10
5.7410897
20
5.5536882
40
0.4216191
50
45.9863127
51
64.1608798
0
ARC
8
DEFAULT_255_1_388
10
5.7704291
20
5.587199
40
0.3771394
50
32.2747934
51
45.6544796
0
ARC
8
DEFAULT_255_1_388
10
5.7779097
20
5.5893426
40
0.3696765
50
359.6507495
51
32.6129943
0
ARC
8
DEFAULT_255_1_388
10
5.671828
20
5.5898788
40
0.3013762
50
359.469654
51
14.983205
0
ARC
8
DEFAULT_255_1_388
10
5.7511532
20
5.6111288
40
0.2192542
50
14.9781954
51
48.2004799
0
ARC
8
DEFAULT_255_1_388
10
5.7326643
20
5.5878937
40
0.2489048
50
48.5926661
51
74.1242559
0
ARC
8
DEFAULT_255_1_388
10
5.6951445
20
5.4640607
40
0.3782845
50
73.7889321
51
86.6653996
0
ARC
8
DEFAULT_255_1_388
10
5.683626
20
5.3282955
40
0.5145025
50
86.2642725
51
90.0533288
0
ARC
8
DEFAULT_255_1_388
10
5.6804353
20
5.3727376
40
0.4700681
50
89.669455
51
99.2313411
0
ARC
8
DEFAULT_255_1_388
10
5.6531512
20
5.5352401
40
0.3052945
50
99.0695987
51
113.7659242
0
ARC
8
DEFAULT_255_1_388
10
5.6223507
20
5.6078772
40
0.226407
50
114.0402885
51
127.9848946
0
ARC
8
DEFAULT_255_1_388
10
5.5952983
20
5.6411884
40
0.1835045
50
127.7287217
51
176.7106493
0
ARC
8
DEFAULT_255_1_388
10
5.6716648
20
5.629821
40
0.2604907
50
175.1780759
51
180.0581213
0
ARC
8
DEFAULT_255_1_388
10
5.5767992
20
5.6284411
40
0.1656287
50
179.6140658
51
228.124674
0
ARC
8
DEFAULT_255_1_388
10
5.6265349
20
5.674494
40
0.2332038
50
226.5785315
51
230.8792476
0
ARC
8
DEFAULT_255_1_388
10
5.6794836
20
5.7447908
40
0.3211664
50
231.4636401
51
241.9261664
0
ARC
8
DEFAULT_255_1_388
10
5.8141619
20
5.9926349
40
0.6032345
50
241.7177136
51
248.3259138
0
ARC
8
DEFAULT_255_1_388
10
5.9700214
20
6.3787771
40
1.0196417
50
248.2007377
51
252.4527713
0
ARC
8
DEFAULT_255_1_388
10
6.105374
20
6.7972092
40
1.4594143
50
252.3388938
51
254.347037
0
ARC
8
DEFAULT_255_1_388
10
5.2569041
20
3.7624095
40
1.6917621
50
71.0197462
51
74.4085467
0
ARC
8
DEFAULT_255_1_388
10
5.4476129
20
4.3129144
40
1.1091618
50
66.1845203
51
71.086519
0
ARC
8
DEFAULT_255_1_388
10
5.6226678
20
4.7070439
40
0.6779073
50
59.3537334
51
66.269255
0
ARC
8
DEFAULT_255_1_388
10
5.7226404
20
4.8761777
40
0.4814366
50
49.1021732
51
59.3294421
0
ARC
8
DEFAULT_255_1_388
10
5.8147392
20
4.9811575
40
0.3417875
50
32.7924183
51
49.2503526
0
ARC
8
DEFAULT_255_1_388
10
5.8497006
20
5.0061311
40
0.2988789
50
31.121225
51
32.3977355
0
ARC
8
DEFAULT_255_1_388
10
5.8409184
20
5.0028728
40
0.3080861
50
8.1116803
51
30.7958224
0
ARC
8
DEFAULT_255_1_388
10
5.749753
20
4.9873437
40
0.4005385
50
359.8390945
51
8.4707348
0
ARC
8
DEFAULT_255_1_388
10
5.8201578
20
4.9818751
40
0.3301608
50
337.4732479
51
0.7538283
0
ARC
8
DEFAULT_255_1_388
10
5.8402603
20
4.9796554
40
0.3107929
50
307.5917028
51
336.4313755
0
ARC
8
DEFAULT_255_1_388
10
5.789166
20
5.0364509
40
0.3870096
50
307.6560665
51
308.4561779
0
ARC
8
DEFAULT_255_1_388
10
5.7625877
20
5.0772832
40
0.435591
50
284.3733666
51
307.1426212
0
ARC
8
DEFAULT_255_1_388
10
5.7068771
20
5.2822391
40
0.6479685
50
272.4384566
51
284.6464689
0
ARC
8
DEFAULT_255_1_388
10
5.6926156
20
5.4846434
40
0.8508149
50
269.9708517
51
272.8180721
0
ARC
8
DEFAULT_255_1_388
10
5.6877839
20
5.2554283
40
0.6216151
50
248.2707343
51
270.4054609
0
ARC
8
DEFAULT_255_1_388
10
5.681671
20
5.2339673
40
0.5994203
50
246.1380358
51
248.054058
0
ARC
8
DEFAULT_255_1_388
10
5.6345853
20
5.1350705
40
0.4899388
50
233.1671897
51
246.4951656
0
ARC
8
DEFAULT_255_1_388
10
5.5722488
20
5.0509137
40
0.3852115
50
215.3403381
51
233.084328
0
ARC
8
DEFAULT_255_1_388
10
5.5415852
20
5.0286093
40
0.3472969
50
179.2419235
51
215.2648426
0
ARC
8
DEFAULT_255_1_388
10
5.6279403
20
5.0301979
40
0.259251
50
179.3355796
51
199.1045873
0
ARC
8
DEFAULT_255_1_388
10
5.5905545
20
5.0204223
40
0.2207454
50
199.8830064
51
232.7061328
0
ARC
8
DEFAULT_255_1_388
10
5.6436819
20
5.0872456
40
0.306101
50
232.3736206
51
255.5136621
0
ARC
8
DEFAULT_255_1_388
10
5.6820325
20
5.2272177
40
0.4512213
50
255.2447928
51
267.5318292
0
ARC
8
DEFAULT_255_1_388
10
5.6918792
20
5.3658709
40
0.5901825
50
267.1564563
51
270.0294721
0
ARC
8
DEFAULT_255_1_388
10
5.6950117
20
5.3159623
40
0.5402814
50
269.6999944
51
278.1662446
0
ARC
8
DEFAULT_255_1_388
10
5.7238145
20
5.1212974
40
0.3435003
50
278.0229022
51
290.6255326
0
ARC
8
DEFAULT_255_1_388
10
5.7629311
20
5.0169547
40
0.2320666
50
290.6616368
51
307.0374127
0
ARC
8
DEFAULT_255_1_388
10
5.7967211
20
4.975504
40
0.1786372
50
306.3942078
51
355.303191
0
ARC
8
DEFAULT_255_1_388
10
5.7391504
20
4.9841186
40
0.2367516
50
354.3662092
51
0.0709489
0
ARC
8
DEFAULT_255_1_388
10
5.7551373
20
4.9866561
40
0.2207761
50
359.4175379
51
16.1975911
0
ARC
8
DEFAULT_255_1_388
10
5.8063491
20
5.0006954
40
0.1676828
50
16.4721294
51
52.6261798
0
ARC
8
DEFAULT_255_1_388
10
5.7139998
20
4.8787606
40
0.3206412
50
52.7381828
51
62.4979144
0
ARC
8
DEFAULT_255_1_388
10
5.5581751
20
4.5855236
40
0.6527035
50
62.2517425
51
68.1219454
0
ARC
8
DEFAULT_255_1_388
10
5.3647239
20
4.1100951
40
1.1659797
50
68.006043
51
71.8055127
0
ARC
8
DEFAULT_255_1_388
10
5.1627147
20
3.5042723
40
1.8045908
50
71.718361
51
73.9260743
0
LINE
8
DEFAULT_255_1_388
10
6.8288668
20
4.6519
11
6.3725668
21
4.6519
0
LINE
8
DEFAULT_255_1_388
10
6.3725668
20
4.6519
11
6.3725668
21
5.9674898
0
LINE
8
DEFAULT_255_1_388
10
6.3725668
20
5.9674898
11
6.8026635
21
5.9674898
0
LINE
8
DEFAULT_255_1_388
10
6.8351918
20
5.2672274
11
6.5460512
21
5.2672274
0
LINE
8
DEFAULT_255_1_388
10
6.5460512
20
5.2672274
11
6.5460512
21
4.7937596
0
LINE
8
DEFAULT_255_1_388
10
6.5460512
20
4.7937596
11
6.8324811
21
4.7937596
0
LINE
8
DEFAULT_255_1_388
10
6.5460512
20
5.8247267
11
6.5460512
21
5.4063763
0
LINE
8
DEFAULT_255_1_388
10
6.5460512
20
5.4063763
11
6.8080849
21
5.4063763
0
LINE
8
DEFAULT_255_1_388
10
6.8026635
20
5.8247267
11
6.5460512
21
5.8247267
0
ARC
8
DEFAULT_255_1_388
10
6.8069055
20
5.1386824
40
0.8288183
50
82.1256322
51
90.2932506
0
ARC
8
DEFAULT_255_1_388
10
6.850663
20
5.444459
40
0.5199321
50
69.9044202
51
82.2857574
0
ARC
8
DEFAULT_255_1_388
10
6.9148623
20
5.6179993
40
0.3348993
50
51.1840204
51
70.018125
0
ARC
8
DEFAULT_255_1_388
10
6.9435455
20
5.6596945
40
0.2844579
50
12.1018086
51
50.421322
0
ARC
8
DEFAULT_255_1_388
10
6.7878326
20
5.6205937
40
0.4449429
50
359.5252354
51
12.8212369
0
ARC
8
DEFAULT_255_1_388
10
6.9655756
20
5.6127943
40
0.2672162
50
323.4907456
51
0.8818258
0
ARC
8
DEFAULT_255_1_388
10
6.9185169
20
5.6491523
40
0.3266736
50
298.6824053
51
323.2758285
0
ARC
8
DEFAULT_255_1_388
10
6.8778461
20
5.7167509
40
0.4055105
50
293.1994739
51
299.139634
0
ARC
8
DEFAULT_255_1_388
10
6.953541
20
5.0321651
40
0.3229926
50
54.0009997
51
74.9168635
0
ARC
8
DEFAULT_255_1_388
10
6.9666337
20
5.0543511
40
0.2973581
50
36.3578854
51
53.5293172
0
ARC
8
DEFAULT_255_1_388
10
6.9523705
20
5.044185
40
0.3148715
50
4.8189348
51
36.3090187
0
ARC
8
DEFAULT_255_1_388
10
6.8646729
20
5.0318383
40
0.4033265
50
359.9373213
51
5.5201284
0
ARC
8
DEFAULT_255_1_388
10
6.8282059
20
5.0272733
40
0.4398126
50
344.7479357
51
0.5372278
0
ARC
8
DEFAULT_255_1_388
10
6.9396958
20
4.9972205
40
0.3243441
50
311.1785587
51
344.6887681
0
ARC
8
DEFAULT_255_1_388
10
6.9068501
20
5.0381084
40
0.3767511
50
286.0417804
51
310.8440924
0
ARC
8
DEFAULT_255_1_388
10
6.849791
20
5.2233885
40
0.5705957
50
274.1044074
51
286.4070149
0
ARC
8
DEFAULT_255_1_388
10
6.8299126
20
5.4351901
40
0.7832907
50
269.9235077
51
274.4458593
0
ARC
8
DEFAULT_255_1_388
10
6.8350844
20
5.1720462
40
0.3782955
50
269.6057074
51
281.3740795
0
ARC
8
DEFAULT_255_1_388
10
6.8610342
20
5.0490569
40
0.2526069
50
281.105298
51
302.5134029
0
ARC
8
DEFAULT_255_1_388
10
6.877573
20
5.0193944
40
0.2187131
50
303.0365425
51
311.8818034
0
ARC
8
DEFAULT_255_1_388
10
6.8855907
20
5.0098602
40
0.2062624
50
311.9916937
51
351.7143773
0
ARC
8
DEFAULT_255_1_388
10
6.7936932
20
5.0284271
40
0.2999202
50
350.7343295
51
0.2221526
0
ARC
8
DEFAULT_255_1_388
10
6.781602
20
5.034787
40
0.3120525
50
359.045729
51
17.2295312
0
ARC
8
DEFAULT_255_1_388
10
6.898505
20
5.0695155
40
0.1901144
50
17.6685208
51
78.9940245
0
ARC
8
DEFAULT_255_1_388
10
6.8403411
20
4.8607011
40
0.4065575
50
76.565218
51
90.7103392
0
LINE
8
DEFAULT_255_1_388
10
6.8353008
20
5.2672274
11
6.8351918
21
5.2672274
0
ARC
8
DEFAULT_255_1_388
10
6.8106237
20
5.7759949
40
0.3696273
50
269.6064514
51
281.4533785
0
ARC
8
DEFAULT_255_1_388
10
6.8356878
20
5.6577283
40
0.2487412
50
281.2044438
51
302.5143998
0
ARC
8
DEFAULT_255_1_388
10
6.8511132
20
5.6299576
40
0.2170405
50
303.0211308
51
309.8378766
0
ARC
8
DEFAULT_255_1_388
10
6.8717249
20
5.6068486
40
0.1860946
50
309.5229446
51
356.9509628
0
ARC
8
DEFAULT_255_1_388
10
6.7971375
20
5.6175831
40
0.2612347
50
355.4699226
51
0.0498632
0
ARC
8
DEFAULT_255_1_388
10
6.7657049
20
5.6200789
40
0.2926762
50
359.5558955
51
11.2092924
0
ARC
8
DEFAULT_255_1_388
10
6.8734016
20
5.6423667
40
0.1827036
50
10.9185717
51
31.322519
0
ARC
8
DEFAULT_255_1_388
10
6.9055564
20
5.6602571
40
0.1459418
50
31.8850633
51
52.1415586
0
ARC
8
DEFAULT_255_1_388
10
6.8746993
20
5.6166674
40
0.1993088
50
52.8283418
51
71.9850132
0
ARC
8
DEFAULT_255_1_388
10
6.8324154
20
5.4922158
40
0.3307407
50
71.686634
51
82.8453416
0
ARC
8
DEFAULT_255_1_388
10
6.8054801
20
5.2886892
40
0.536039
50
82.6981895
51
90.1730083
0
ARC
8
DEFAULT_255_1_388
10
6.8029633
20
5.3765836
40
0.4481429
50
89.8851568
51
90.0383283
0
LINE
8
DEFAULT_255_1_388
10
4.4821094
20
13.1044317
11
4.1721868
21
13.1044317
0
LINE
8
DEFAULT_255_1_388
10
4.1721868
20
13.1044317
11
4.1721868
21
12.5894
0
LINE
8
DEFAULT_255_1_388
10
4.1721868
20
12.5894
11
3.9987024
21
12.5894
0
LINE
8
DEFAULT_255_1_388
10
3.9987024
20
12.5894
11
3.9987024
21
13.9049898
0
LINE
8
DEFAULT_255_1_388
10
3.9987024
20
13.9049898
11
4.4839165
21
13.9049898
0
LINE
8
DEFAULT_255_1_388
10
4.1721868
20
13.7622267
11
4.1721868
21
13.2462914
0
LINE
8
DEFAULT_255_1_388
10
4.1721868
20
13.2462914
11
4.4839165
21
13.2462914
0
LINE
8
DEFAULT_255_1_388
10
4.4938557
20
13.7622267
11
4.1721868
21
13.7622267
0
ARC
8
DEFAULT_255_1_388
10
4.4886538
20
13.2233334
40
0.6816729
50
78.8380084
51
90.398184
0
ARC
8
DEFAULT_255_1_388
10
4.5354569
20
13.4506796
40
0.449571
50
58.9633273
51
79.0810717
0
ARC
8
DEFAULT_255_1_388
10
4.5693953
20
13.5136823
40
0.3781049
50
48.0194715
51
58.4475592
0
ARC
8
DEFAULT_255_1_388
10
4.5793773
20
13.5232818
40
0.3642936
50
3.3374546
51
48.1766642
0
ARC
8
DEFAULT_255_1_388
10
4.440858
20
13.5033581
40
0.5038766
50
359.9483251
51
4.6822857
0
ARC
8
DEFAULT_255_1_388
10
4.4548503
20
13.4985779
40
0.4899031
50
346.1879032
51
0.5059221
0
ARC
8
DEFAULT_255_1_388
10
4.6077295
20
13.4588763
40
0.3319729
50
310.8832219
51
346.5426612
0
ARC
8
DEFAULT_255_1_388
10
4.5730143
20
13.5057853
40
0.3901853
50
286.6925305
51
310.228778
0
ARC
8
DEFAULT_255_1_388
10
4.5089873
20
13.7071585
40
0.6014737
50
274.6848219
51
287.0247342
0
ARC
8
DEFAULT_255_1_388
10
4.4836422
20
13.9556088
40
0.8511785
50
269.8968222
51
275.0192639
0
ARC
8
DEFAULT_255_1_388
10
4.4867415
20
13.7218144
40
0.4755314
50
269.6596206
51
279.4150542
0
ARC
8
DEFAULT_255_1_388
10
4.5156873
20
13.5540945
40
0.3053379
50
279.2050006
51
294.9901776
0
ARC
8
DEFAULT_255_1_388
10
4.5483508
20
13.4812353
40
0.2255036
50
295.2886769
51
311.2912669
0
ARC
8
DEFAULT_255_1_388
10
4.5563249
20
13.4693938
40
0.2113522
50
311.7853512
51
347.2860549
0
ARC
8
DEFAULT_255_1_388
10
4.445641
20
13.497843
40
0.3256011
50
346.6891629
51
0.1057086
0
ARC
8
DEFAULT_255_1_388
10
4.353387
20
13.5011247
40
0.417863
50
359.63239
51
359.9961329
0
ARC
8
DEFAULT_255_1_388
10
4.4698475
20
13.5038987
40
0.3014155
50
359.4673371
51
15.5931159
0
ARC
8
DEFAULT_255_1_388
10
4.5401538
20
13.5228937
40
0.2285918
50
15.7441779
51
46.620186
0
ARC
8
DEFAULT_255_1_388
10
4.5235298
20
13.5037361
40
0.2539359
50
46.8628482
51
75.6676625
0
ARC
8
DEFAULT_255_1_388
10
4.4904354
20
13.3846243
40
0.3775415
50
75.2763152
51
88.2916439
0
ARC
8
DEFAULT_255_1_388
10
4.4838354
20
13.2844097
40
0.4779221
50
87.8589087
51
88.7986197
0
LINE
8
DEFAULT_255_1_388
10
5.9847371
20
12.7258382
11
5.9847371
21
12.5894
0
LINE
8
DEFAULT_255_1_388
10
5.9847371
20
12.5894
11
5.1227366
21
12.5894
0
LINE
8
DEFAULT_255_1_388
10
5.1227366
20
12.5894
11
5.1227366
21
12.7095741
0
LINE
8
DEFAULT_255_1_388
10
5.1227366
20
12.7095741
11
5.5781331
21
13.2155702
0
LINE
8
DEFAULT_255_1_388
10
5.2645962
20
13.5173607
11
5.0974368
21
13.5173607
0
LINE
8
DEFAULT_255_1_388
10
5.6766216
20
13.108046
11
5.3242314
21
12.7258382
0
LINE
8
DEFAULT_255_1_388
10
5.3242314
20
12.7258382
11
5.9847371
21
12.7258382
0
ARC
8
DEFAULT_255_1_388
10
4.060539
20
14.5575983
40
2.0258655
50
318.5132526
51
320.7829045
0
ARC
8
DEFAULT_255_1_388
10
4.6553347
20
14.0734929
40
1.2589638
50
320.7372878
51
323.9739031
0
ARC
8
DEFAULT_255_1_388
10
5.0962279
20
13.7540554
40
0.7145141
50
323.8962701
51
328.64194
0
ARC
8
DEFAULT_255_1_388
10
5.3264536
20
13.6120545
40
0.4440242
50
328.8294576
51
331.7891185
0
ARC
8
DEFAULT_255_1_388
10
5.4386856
20
13.5541374
40
0.3177517
50
331.4254512
51
352.9365785
0
ARC
8
DEFAULT_255_1_388
10
5.4539856
20
13.550705
40
0.3021496
50
353.2257659
51
0.0166158
0
ARC
8
DEFAULT_255_1_388
10
5.4776617
20
13.5532894
40
0.2784847
50
359.486299
51
15.9343185
0
ARC
8
DEFAULT_255_1_388
10
5.5346884
20
13.5686269
40
0.2194403
50
16.1712913
51
43.5286088
0
ARC
8
DEFAULT_255_1_388
10
5.5433828
20
13.5773191
40
0.2071504
50
43.4417391
51
83.1661095
0
ARC
8
DEFAULT_255_1_388
10
5.5282989
20
13.4944316
40
0.2912888
50
82.160179
51
90.1505708
0
ARC
8
DEFAULT_255_1_388
10
5.5247471
20
13.4340279
40
0.3517025
50
89.5460741
51
102.5418361
0
ARC
8
DEFAULT_255_1_388
10
5.4974191
20
13.5499933
40
0.2325748
50
102.1738499
51
129.206123
0
ARC
8
DEFAULT_255_1_388
10
5.4885644
20
13.5639664
40
0.2161591
50
129.72865
51
135.753947
0
ARC
8
DEFAULT_255_1_388
10
5.5022127
20
13.5530728
40
0.2335433
50
136.1757367
51
166.3673339
0
ARC
8
DEFAULT_255_1_388
10
5.6154815
20
13.5227148
40
0.3507873
50
165.9090694
51
178.8684636
0
ARC
8
DEFAULT_255_1_388
10
5.7130586
20
13.5174263
40
0.4484624
50
178.4391136
51
180.0083808
0
ARC
8
DEFAULT_255_1_388
10
5.5551288
20
13.5218197
40
0.4577138
50
163.2878482
51
180.5581842
0
ARC
8
DEFAULT_255_1_388
10
5.4649329
20
13.5466393
40
0.3641968
50
133.4540601
51
162.947111
0
ARC
8
DEFAULT_255_1_388
10
5.4850211
20
13.5252789
40
0.3935189
50
100.7869829
51
133.4382499
0
ARC
8
DEFAULT_255_1_388
10
5.5241456
20
13.3510399
40
0.5720313
50
89.660664
51
101.3702276
0
ARC
8
DEFAULT_255_1_388
10
5.5316065
20
13.3579263
40
0.5651495
50
78.2172678
51
90.412935
0
ARC
8
DEFAULT_255_1_388
10
5.5715531
20
13.5406511
40
0.378122
50
55.9269121
51
78.4888449
0
ARC
8
DEFAULT_255_1_388
10
5.5936246
20
13.5787187
40
0.3342379
50
47.929771
51
55.4049217
0
ARC
8
DEFAULT_255_1_388
10
5.6050776
20
13.5903618
40
0.3179217
50
4.334829
51
48.0560205
0
ARC
8
DEFAULT_255_1_388
10
5.4818578
20
13.5712487
40
0.442341
50
359.9251713
51
5.5971671
0
ARC
8
DEFAULT_255_1_388
10
5.5300732
20
13.5775728
40
0.3941854
50
337.8914027
51
358.9967534
0
ARC
8
DEFAULT_255_1_388
10
5.2248303
20
13.6953295
40
0.7213271
50
326.9132501
51
338.3508308
0
ARC
8
DEFAULT_255_1_388
10
4.7764414
20
13.9827105
40
1.2538973
50
319.6471833
51
327.0959558
0
ARC
8
DEFAULT_255_1_388
10
4.3451073
20
14.338505
40
1.8129975
50
317.2588228
51
319.9045804
0
LINE
8
DEFAULT_255_1_388
10
4.4746094
20
21.0419317
11
4.1646868
21
21.0419317
0
LINE
8
DEFAULT_255_1_388
10
4.1646868
20
21.0419317
11
4.1646868
21
20.5269
0
LINE
8
DEFAULT_255_1_388
10
4.1646868
20
20.5269
11
3.9912024
21
20.5269
0
LINE
8
DEFAULT_255_1_388
10
3.9912024
20
20.5269
11
3.9912024
21
21.8424898
0
LINE
8
DEFAULT_255_1_388
10
3.9912024
20
21.8424898
11
4.4764165
21
21.8424898
0
LINE
8
DEFAULT_255_1_388
10
4.1646868
20
21.6997267
11
4.1646868
21
21.1837914
0
LINE
8
DEFAULT_255_1_388
10
4.1646868
20
21.1837914
11
4.4764165
21
21.1837914
0
LINE
8
DEFAULT_255_1_388
10
4.4863557
20
21.6997267
11
4.1646868
21
21.6997267
0
ARC
8
DEFAULT_255_1_388
10
4.4811538
20
21.1608334
40
0.6816729
50
78.8380084
51
90.398184
0
ARC
8
DEFAULT_255_1_388
10
4.5279569
20
21.3881796
40
0.449571
50
58.9633273
51
79.0810717
0
ARC
8
DEFAULT_255_1_388
10
4.5618953
20
21.4511823
40
0.3781049
50
48.0194715
51
58.4475592
0
ARC
8
DEFAULT_255_1_388
10
4.5718773
20
21.4607818
40
0.3642936
50
3.3374546
51
48.1766642
0
ARC
8
DEFAULT_255_1_388
10
4.433358
20
21.4408581
40
0.5038766
50
359.9483251
51
4.6822857
0
ARC
8
DEFAULT_255_1_388
10
4.4473503
20
21.4360779
40
0.4899031
50
346.1879032
51
0.5059221
0
ARC
8
DEFAULT_255_1_388
10
4.6002295
20
21.3963763
40
0.3319729
50
310.8832219
51
346.5426612
0
ARC
8
DEFAULT_255_1_388
10
4.5655143
20
21.4432853
40
0.3901853
50
286.6925305
51
310.228778
0
ARC
8
DEFAULT_255_1_388
10
4.5014873
20
21.6446585
40
0.6014737
50
274.6848219
51
287.0247342
0
ARC
8
DEFAULT_255_1_388
10
4.4761422
20
21.8931088
40
0.8511785
50
269.8968222
51
275.0192639
0
ARC
8
DEFAULT_255_1_388
10
4.4792415
20
21.6593144
40
0.4755314
50
269.6596206
51
279.4150542
0
ARC
8
DEFAULT_255_1_388
10
4.5081873
20
21.4915945
40
0.3053379
50
279.2050006
51
294.9901776
0
ARC
8
DEFAULT_255_1_388
10
4.5408508
20
21.4187353
40
0.2255036
50
295.2886769
51
311.2912669
0
ARC
8
DEFAULT_255_1_388
10
4.5488249
20
21.4068938
40
0.2113522
50
311.7853512
51
347.2860549
0
ARC
8
DEFAULT_255_1_388
10
4.438141
20
21.435343
40
0.3256011
50
346.6891629
51
0.1057086
0
ARC
8
DEFAULT_255_1_388
10
4.345887
20
21.4386247
40
0.417863
50
359.63239
51
359.9961329
0
ARC
8
DEFAULT_255_1_388
10
4.4623475
20
21.4413987
40
0.3014155
50
359.4673371
51
15.5931159
0
ARC
8
DEFAULT_255_1_388
10
4.5326538
20
21.4603937
40
0.2285918
50
15.7441779
51
46.620186
0
ARC
8
DEFAULT_255_1_388
10
4.5160298
20
21.4412361
40
0.2539359
50
46.8628482
51
75.6676625
0
ARC
8
DEFAULT_255_1_388
10
4.4829354
20
21.3221243
40
0.3775415
50
75.2763152
51
88.2916439
0
ARC
8
DEFAULT_255_1_388
10
4.4763354
20
21.2219097
40
0.4779221
50
87.8589087
51
88.7986197
0
LINE
8
DEFAULT_255_1_388
10
5.6646038
20
21.8488148
11
5.6646038
21
20.5269
0
LINE
8
DEFAULT_255_1_388
10
5.6646038
20
20.5269
11
5.4965408
21
20.5269
0
LINE
8
DEFAULT_255_1_388
10
5.4965408
20
20.5269
11
5.4965408
21
21.640995
0
LINE
8
DEFAULT_255_1_388
10
5.4965408
20
21.640995
11
5.1595112
21
21.5172066
0
LINE
8
DEFAULT_255_1_388
10
5.1595112
20
21.5172066
11
5.1595112
21
21.6690055
0
LINE
8
DEFAULT_255_1_388
10
5.1595112
20
21.6690055
11
5.6384004
21
21.8488148
0
LINE
8
DEFAULT_255_1_388
10
5.6384004
20
21.8488148
11
5.6646038
21
21.8488148
0
LINE
8
DEFAULT_255_1_388
10
23.1198856
20
29.242369
11
23.1198856
21
29.0255135
0
LINE
8
DEFAULT_255_1_388
10
22.2895099
20
29.0029244
11
22.2895099
21
29.2261048
0
LINE
8
DEFAULT_255_1_388
10
22.9527262
20
28.9803353
11
22.9527262
21
29.2541153
0
LINE
8
DEFAULT_255_1_388
10
22.4566693
20
29.2667652
11
22.4566693
21
28.9993102
0
ARC
8
DEFAULT_255_1_388
10
21.742119
20
29.0200118
40
1.3777776
50
353.8440855
51
0.2287917
0
ARC
8
DEFAULT_255_1_388
10
22.2640208
20
28.9617414
40
0.852639
50
344.4934746
51
353.9763743
0
ARC
8
DEFAULT_255_1_388
10
22.6007015
20
28.8660191
40
0.5026273
50
329.2803599
51
344.7473406
0
ARC
8
DEFAULT_255_1_388
10
22.7122511
20
28.8048038
40
0.3754848
50
324.9361395
51
328.6153007
0
ARC
8
DEFAULT_255_1_388
10
22.7548161
20
28.7750586
40
0.3235566
50
280.5801797
51
324.9173226
0
ARC
8
DEFAULT_255_1_388
10
22.7096789
20
28.9630236
40
0.5167077
50
269.5979457
51
281.6732777
0
ARC
8
DEFAULT_255_1_388
10
22.7015693
20
28.9495113
40
0.5032026
50
256.6228565
51
270.5105488
0
ARC
8
DEFAULT_255_1_388
10
22.6563435
20
28.7753345
40
0.3233092
50
215.8618351
51
257.2787793
0
ARC
8
DEFAULT_255_1_388
10
22.7712142
20
28.8524106
40
0.4615831
50
197.9695203
51
215.2622745
0
ARC
8
DEFAULT_255_1_388
10
23.0507818
20
28.9467641
40
0.7566307
50
187.8816486
51
198.2346584
0
ARC
8
DEFAULT_255_1_388
10
23.4961056
20
29.0110453
40
1.2065653
50
180.8977266
51
188.0054894
0
ARC
8
DEFAULT_255_1_388
10
23.801127
20
29.02254
40
1.5117443
50
180.7434591
51
181.152202
0
ARC
8
DEFAULT_255_1_388
10
23.6336266
20
29.2315371
40
1.3441277
50
173.7674302
51
180.2315596
0
ARC
8
DEFAULT_255_1_388
10
23.1254135
20
29.2889779
40
0.8326847
50
164.3058537
51
173.9000553
0
ARC
8
DEFAULT_255_1_388
10
22.7978135
20
29.3833652
40
0.4917711
50
148.7922028
51
164.5682288
0
ARC
8
DEFAULT_255_1_388
10
22.6908872
20
29.4430457
40
0.3694204
50
144.5883979
51
148.1161588
0
ARC
8
DEFAULT_255_1_388
10
22.6521618
20
29.4700667
40
0.322202
50
101.6440149
51
144.5142619
0
ARC
8
DEFAULT_255_1_388
10
22.699981
20
29.2800337
40
0.5180451
50
89.528284
51
102.5820197
0
ARC
8
DEFAULT_255_1_388
10
22.7088802
20
29.2756376
40
0.5224441
50
77.0437914
51
90.508231
0
ARC
8
DEFAULT_255_1_388
10
22.7541055
20
29.4604272
40
0.3322297
50
48.2777708
51
77.4996087
0
ARC
8
DEFAULT_255_1_388
10
22.7622795
20
29.4749557
40
0.315966
50
36.3141586
51
47.6307332
0
ARC
8
DEFAULT_255_1_388
10
22.6645518
20
29.4091159
40
0.4337313
50
18.2931065
51
35.6770203
0
ARC
8
DEFAULT_255_1_388
10
22.3784358
20
29.3109107
40
0.7362203
50
8.0246996
51
18.5605636
0
ARC
8
DEFAULT_255_1_388
10
21.9100714
20
29.2417432
40
1.2096583
50
1.127539
51
8.1718423
0
ARC
8
DEFAULT_255_1_388
10
21.5451847
20
29.2274374
40
1.5747719
50
0.5432713
51
1.38669
0
ARC
8
DEFAULT_255_1_388
10
21.7509226
20
29.2581163
40
1.2018103
50
359.8092569
51
4.9408001
0
ARC
8
DEFAULT_255_1_388
10
22.2245807
20
29.30039
40
0.7262727
50
4.8364937
51
12.2906017
0
ARC
8
DEFAULT_255_1_388
10
22.5345272
20
29.3694485
40
0.4087324
50
12.0806994
51
23.8171225
0
ARC
8
DEFAULT_255_1_388
10
22.6665668
20
29.4253508
40
0.2653719
50
24.2874621
51
31.3934353
0
ARC
8
DEFAULT_255_1_388
10
22.7256104
20
29.4639822
40
0.1948607
50
30.7407708
51
82.4658033
0
ARC
8
DEFAULT_255_1_388
10
22.7053765
20
29.3646017
40
0.2961198
50
81.1057101
51
90.2187368
0
ARC
8
DEFAULT_255_1_388
10
22.7013577
20
29.3936421
40
0.2670929
50
89.380395
51
105.6763916
0
ARC
8
DEFAULT_255_1_388
10
22.6807299
20
29.468632
40
0.1893189
50
105.7980655
51
149.7387869
0
ARC
8
DEFAULT_255_1_388
10
22.8004439
20
29.3966719
40
0.3289892
50
149.4208441
51
163.628295
0
ARC
8
DEFAULT_255_1_388
10
23.0356668
20
29.3249345
40
0.5749004
50
163.3764549
51
172.141138
0
ARC
8
DEFAULT_255_1_388
10
23.406939
20
29.2717582
40
0.9499585
50
172.0258462
51
178.0705453
0
ARC
8
DEFAULT_255_1_388
10
23.7490943
20
29.2555682
40
1.2924734
50
177.8639301
51
179.5036263
0
ARC
8
DEFAULT_255_1_388
10
23.6271961
20
28.9952151
40
1.170534
50
179.7995545
51
185.246089
0
ARC
8
DEFAULT_255_1_388
10
23.1723554
20
28.9521404
40
0.7136613
50
185.1411911
51
193.0082205
0
ARC
8
DEFAULT_255_1_388
10
22.8749815
20
28.8818441
40
0.4080987
50
192.7897338
51
205.2507384
0
ARC
8
DEFAULT_255_1_388
10
22.7572025
20
28.8292538
40
0.2791522
50
205.8001921
51
211.2545876
0
ARC
8
DEFAULT_255_1_388
10
22.6983564
20
28.7898132
40
0.2084074
50
210.3789935
51
238.4007996
0
ARC
8
DEFAULT_255_1_388
10
22.696165
20
28.7950786
40
0.2117943
50
239.6521916
51
265.9793852
0
ARC
8
DEFAULT_255_1_388
10
22.7057499
20
28.8707358
40
0.2879689
50
265.1324455
51
270.0603288
0
ARC
8
DEFAULT_255_1_388
10
22.7089876
20
28.8342418
40
0.2514919
50
269.3314378
51
287.2180039
0
ARC
8
DEFAULT_255_1_388
10
22.7244958
20
28.7776291
40
0.1928357
50
287.7957942
51
329.0808983
0
ARC
8
DEFAULT_255_1_388
10
22.6167715
20
28.8448651
40
0.319808
50
328.6635261
51
343.3325043
0
ARC
8
DEFAULT_255_1_388
10
22.3723174
20
28.9210195
40
0.5758408
50
343.0498092
51
351.9392499
0
ARC
8
DEFAULT_255_1_388
10
21.9822496
20
28.9785205
40
0.9701202
50
351.8071632
51
357.7957897
0
ARC
8
DEFAULT_255_1_388
10
21.6187973
20
28.9973724
40
1.3340376
50
357.5870923
51
359.2682493
0
LINE
8
DEFAULT_255_1_388
10
23.4388439
20
29.7799898
11
23.8129196
21
28.6948089
0
LINE
8
DEFAULT_255_1_388
10
23.8129196
20
28.6948089
11
24.1888024
21
29.7799898
0
LINE
8
DEFAULT_255_1_388
10
24.1888024
20
29.7799898
11
24.3785509
21
29.7799898
0
LINE
8
DEFAULT_255_1_388
10
24.3785509
20
29.7799898
11
23.8906261
21
28.4644
0
LINE
8
DEFAULT_255_1_388
10
23.8906261
20
28.4644
11
23.7370202
21
28.4644
0
LINE
8
DEFAULT_255_1_388
10
23.7370202
20
28.4644
11
23.2499989
21
29.7799898
0
LINE
8
DEFAULT_255_1_388
10
23.2499989
20
29.7799898
11
23.4388439
21
29.7799898
0
ENDSEC
0
EOF