0
SECTION
2
HEADER
9
$MEASUREMENT
70
1
0
ENDSEC
0
SECTION
2
TABLES
0
TABLE
2
LTYPE
0
LTYPE
72
65
70
64
2
CONTINUOUS
3
______
73
0
40
0
0
ENDTAB
0
TABLE
2
LAYER
0
LAYER
2
DEFAULT_255_2_778
70
0
62
255
6
CONTINUOUS
0
ENDTAB
0
ENDSEC
0
SECTION
2
ENTITIES
0
LINE
8
DEFAULT_255_2_778
10
31.5718223
20
103.4213748
11
31.5718223
21
13.4400748
0
LINE
8
DEFAULT_255_2_778
10
31.5718223
20
13.4400748
11
0.5782223
21
13.4400748
0
LINE
8
DEFAULT_255_2_778
10
0.5782223
20
13.4400748
11
0.5782223
21
103.4213748
0
LINE
8
DEFAULT_255_2_778
10
0.5782223
20
103.4213748
11
31.5718223
21
103.4213748
0
ARC
8
DEFAULT_255_2_778
10
13.6255949
20
18.7390134
40
0.3253748
50
180.030765
51
269.9516137
0
ARC
8
DEFAULT_255_2_778
10
13.625659
20
52.1318999
40
0.3254389
50
90.0596538
51
179.9579675
0
ARC
8
DEFAULT_255_2_778
10
16.6242931
20
18.1384477
40
0.2751917
50
43.9788088
51
89.8694479
0
ARC
8
DEFAULT_255_2_778
10
16.62417
20
18.1384116
40
0.2753053
50
0.0132038
51
43.9664209
0
ARC
8
DEFAULT_255_2_778
10
16.6241163
20
18.1384824
40
0.275359
50
358.0762319
51
359.9984687
0
ARC
8
DEFAULT_255_2_778
10
24.5227814
20
18.7393775
40
0.3254389
50
270.0420325
51
359.9403462
0
ARC
8
DEFAULT_255_2_778
10
21.5242283
20
18.1384301
40
0.2752089
50
90.1058081
51
179.8733052
0
ARC
8
DEFAULT_255_2_778
10
20.9236453
20
15.4399134
40
0.3253748
50
270.0483863
51
359.969235
0
ARC
8
DEFAULT_255_2_778
10
17.224716
20
15.4399345
40
0.325396
50
180.0344871
51
269.9655041
0
ARC
8
DEFAULT_255_2_778
10
5.7773444
20
75.8268143
40
0.3255245
50
90.0570761
51
179.9429114
0
LINE
8
DEFAULT_255_2_778
10
13.6253201
20
18.4136387
11
16.6246201
21
18.4136387
0
LINE
8
DEFAULT_255_2_778
10
24.0732201
20
23.1380387
11
14.0754201
21
23.1380387
0
LINE
8
DEFAULT_255_2_778
10
3.0777201
20
10.7404387
11
3.0777201
21
10.9404387
0
LINE
8
DEFAULT_255_2_778
10
2.6777201
20
10.7404387
11
2.6777201
21
10.9404387
0
LINE
8
DEFAULT_255_2_778
10
3.6775201
20
10.9404387
11
3.6775201
21
10.7404387
0
LINE
8
DEFAULT_255_2_778
10
3.6775201
20
10.7404387
11
2.0779201
21
10.7404387
0
LINE
8
DEFAULT_255_2_778
10
2.0779201
20
10.7404387
11
2.0779201
21
10.9404387
0
LINE
8
DEFAULT_255_2_778
10
4.6274201
20
12.5401387
11
1.1280201
21
12.5401387
0
LINE
8
DEFAULT_255_2_778
10
4.6274201
20
12.1403387
11
1.1280201
21
12.1403387
0
LINE
8
DEFAULT_255_2_778
10
4.6274201
20
11.7403387
11
1.1280201
21
11.7403387
0
LINE
8
DEFAULT_255_2_778
10
4.6274201
20
11.3402387
11
1.1280201
21
11.3402387
0
LINE
8
DEFAULT_255_2_778
10
4.6274201
20
13.4397387
11
4.6274201
21
10.9402387
0
LINE
8
DEFAULT_255_2_778
10
4.6274201
20
10.9402387
11
1.1280201
21
10.9402387
0
LINE
8
DEFAULT_255_2_778
10
1.1280201
20
10.9402387
11
1.1280201
21
13.4397387
0
LINE
8
DEFAULT_255_2_778
10
13.3002201
20
52.1321387
11
13.3002201
21
18.7390387
0
LINE
8
DEFAULT_255_2_778
10
17.2247201
20
15.1142387
11
20.9239201
21
15.1142387
0
LINE
8
DEFAULT_255_2_778
10
16.8993201
20
18.1292387
11
16.8993201
21
15.4397387
0
LINE
8
DEFAULT_255_2_778
10
24.8482201
20
18.7390387
11
24.8482201
21
52.1371387
0
LINE
8
DEFAULT_255_2_778
10
21.2490201
20
15.4394387
11
21.2490201
21
18.1390387
0
LINE
8
DEFAULT_255_2_778
10
21.5237201
20
18.4136387
11
24.5230201
21
18.4136387
0
LINE
8
DEFAULT_255_2_778
10
14.0754201
20
28.9369387
11
15.5250201
21
28.9369387
0
LINE
8
DEFAULT_255_2_778
10
5.4518201
20
75.8271387
11
5.4518201
21
70.9440387
0
LINE
8
DEFAULT_255_2_778
10
12.5008201
20
71.9780387
11
12.5008201
21
75.8359387
0
LINE
8
DEFAULT_255_2_778
10
16.6246367
20
52.457285
11
13.6253367
21
52.457285
0
LINE
8
DEFAULT_255_2_778
10
15.5250367
20
41.934085
11
14.0754367
21
41.934085
0
LINE
8
DEFAULT_255_2_778
10
14.0754367
20
47.732885
11
24.0732367
21
47.732885
0
LINE
8
DEFAULT_255_2_778
10
4.7517367
20
49.757285
11
6.5019367
21
49.757285
0
LINE
8
DEFAULT_255_2_778
10
6.5019367
20
49.757285
11
6.5019367
21
55.106885
0
LINE
8
DEFAULT_255_2_778
10
6.5019367
20
55.106885
11
4.7517367
21
55.106885
0
LINE
8
DEFAULT_255_2_778
10
4.7517367
20
55.106885
11
4.7517367
21
49.757285
0
LINE
8
DEFAULT_255_2_778
10
24.0732367
20
44.283585
11
20.8238367
21
44.283585
0
LINE
8
DEFAULT_255_2_778
10
20.8238367
20
44.283585
11
20.8238367
21
45.733185
0
LINE
8
DEFAULT_255_2_778
10
20.8238367
20
45.733185
11
17.3247367
21
45.733185
0
LINE
8
DEFAULT_255_2_778
10
17.3247367
20
45.733185
11
17.3247367
21
43.283685
0
LINE
8
DEFAULT_255_2_778
10
17.3247367
20
43.283685
11
15.5250367
21
43.283685
0
LINE
8
DEFAULT_255_2_778
10
15.5250367
20
43.283685
11
15.5250367
21
27.586985
0
LINE
8
DEFAULT_255_2_778
10
15.5250367
20
27.586985
11
17.3247367
21
27.586985
0
LINE
8
DEFAULT_255_2_778
10
17.3247367
20
27.586985
11
17.3247367
21
25.137485
0
LINE
8
DEFAULT_255_2_778
10
17.3247367
20
25.137485
11
20.8241367
21
25.137485
0
LINE
8
DEFAULT_255_2_778
10
20.8241367
20
25.137485
11
20.8241367
21
26.587185
0
LINE
8
DEFAULT_255_2_778
10
20.8241367
20
26.587185
11
24.0734367
21
26.587185
0
LINE
8
DEFAULT_255_2_778
10
22.6238367
20
26.587185
11
22.6238367
21
44.283585
0
LINE
8
DEFAULT_255_2_778
10
20.9238367
20
55.756685
11
17.2247367
21
55.756685
0
ARC
8
DEFAULT_255_2_778
10
16.6241639
20
52.7325093
40
0.275209
50
270.1058186
51
359.8733157
0
ARC
8
DEFAULT_255_2_778
10
20.9236332
20
55.430962
40
0.325439
50
0.0420413
51
89.9403249
0
ARC
8
DEFAULT_255_2_778
10
17.2251605
20
55.4308123
40
0.3255887
50
90.0683429
51
179.9316307
0
ARC
8
DEFAULT_255_2_778
10
21.5242804
20
52.7325094
40
0.2752089
50
180.1266948
51
269.8941919
0
ARC
8
DEFAULT_255_2_778
10
24.5226835
20
52.1317122
40
0.3255889
50
0.0683906
51
89.9316058
0
ARC
8
DEFAULT_255_2_778
10
4.825743
20
65.4255117
40
1.2460705
50
230.1551577
51
254.1058062
0
ARC
8
DEFAULT_255_2_778
10
4.8270753
20
65.4313802
40
1.2520796
50
254.1207115
51
270.0067185
0
ARC
8
DEFAULT_255_2_778
10
4.8280142
20
65.426813
40
1.2475124
50
269.9636254
51
302.7696111
0
ARC
8
DEFAULT_255_2_778
10
4.8230588
20
65.4335208
40
1.2558351
50
302.7940672
51
309.8083773
0
ARC
8
DEFAULT_255_2_778
10
5.3575746
20
65.4294109
40
0.9976976
50
285.6713793
51
359.9936815
0
ARC
8
DEFAULT_255_2_778
10
5.3576929
20
65.4291805
40
0.9975793
50
0.0069114
51
74.3337737
0
ARC
8
DEFAULT_255_2_778
10
5.7769827
20
58.0311115
40
0.3253106
50
180.0194824
51
269.9629175
0
ARC
8
DEFAULT_255_2_778
10
10.877339
20
59.2771652
40
0.9963651
50
269.9271505
51
311.6428705
0
ARC
8
DEFAULT_255_2_778
10
10.878472
20
59.2796548
40
0.9974759
50
311.4992117
51
358.2576555
0
ARC
8
DEFAULT_255_2_778
10
10.8579816
20
59.2807598
40
1.0179904
50
358.2305527
51
359.9910523
0
ARC
8
DEFAULT_255_2_778
10
6.5771695
20
58.7810982
40
0.5000974
50
180.0340722
51
269.9659335
0
ARC
8
DEFAULT_255_2_778
10
11.4757031
20
58.7809698
40
0.499969
50
270.019379
51
359.9806382
0
ARC
8
DEFAULT_255_2_778
10
12.4757693
20
62.2296035
40
0.5000972
50
90.0340388
51
179.9659392
0
ARC
8
DEFAULT_255_2_778
10
7.2754307
20
59.27701
40
0.9962099
50
228.3537353
51
270.0714032
0
ARC
8
DEFAULT_255_2_778
10
7.2744139
20
59.2796599
40
0.9975176
50
181.7425644
51
228.4985214
0
ARC
8
DEFAULT_255_2_778
10
7.2948627
20
59.2807598
40
1.0179904
50
180.0089477
51
181.7694473
0
ARC
8
DEFAULT_255_2_778
10
12.1754331
20
58.0309398
40
0.3254391
50
270.0596964
51
359.9579374
0
LINE
8
DEFAULT_255_2_778
10
16.8995722
20
52.7322008
11
16.8995722
21
55.4399008
0
LINE
8
DEFAULT_255_2_778
10
24.5227722
20
52.4573008
11
21.5237722
21
52.4573008
0
LINE
8
DEFAULT_255_2_778
10
21.2480722
20
55.4590008
11
21.2490722
21
52.7316008
0
LINE
8
DEFAULT_255_2_778
10
5.7770722
20
57.7055008
11
12.1757722
21
57.7055008
0
LINE
8
DEFAULT_255_2_778
10
5.4516722
20
62.9798008
11
5.4516722
21
58.0310008
0
LINE
8
DEFAULT_255_2_778
10
11.8759722
20
59.2806008
11
11.8759722
21
62.9798008
0
LINE
8
DEFAULT_255_2_778
10
6.0770722
20
62.9798008
11
6.0770722
21
58.7808008
0
LINE
8
DEFAULT_255_2_778
10
6.5768722
20
58.2810008
11
11.4758722
21
58.2810008
0
LINE
8
DEFAULT_255_2_778
10
11.9756722
20
58.7808008
11
11.9756722
21
62.2299008
0
LINE
8
DEFAULT_255_2_778
10
12.4754722
20
62.7297008
11
13.3253722
21
62.7297008
0
LINE
8
DEFAULT_255_2_778
10
13.3253722
20
62.7297008
11
13.3253722
21
62.9798008
0
LINE
8
DEFAULT_255_2_778
10
6.2768722
20
59.2806008
11
6.2768722
21
62.9798008
0
LINE
8
DEFAULT_255_2_778
10
12.5008722
20
58.0307008
11
12.5008722
21
61.8799008
0
LINE
8
DEFAULT_255_2_778
10
12.7755722
20
62.1548008
11
13.3253722
21
62.1548008
0
LINE
8
DEFAULT_255_2_778
10
13.6505722
20
62.4800008
11
13.6505722
21
62.9798008
0
ARC
8
DEFAULT_255_2_778
10
13.3253842
20
62.4800315
40
0.325439
50
270.0420413
51
359.9403249
0
ARC
8
DEFAULT_255_2_778
10
12.7761316
20
61.8793844
40
0.2752089
50
90.1266948
51
179.8941919
0
ARC
8
DEFAULT_255_2_778
10
5.3474928
20
68.9285693
40
1.0002302
50
286.2283291
51
359.9956082
0
ARC
8
DEFAULT_255_2_778
10
5.3474631
20
68.9284936
40
1.00026
50
359.9999445
51
73.7703934
0
LINE
8
DEFAULT_255_2_778
10
6.951823
20
67.3289926
11
8.951223
21
67.3289926
0
LINE
8
DEFAULT_255_2_778
10
8.951223
20
67.3289926
11
8.951223
21
70.1282926
0
LINE
8
DEFAULT_255_2_778
10
8.951223
20
70.1282926
11
6.951823
21
70.1282926
0
LINE
8
DEFAULT_255_2_778
10
6.951823
20
70.1282926
11
6.951823
21
67.3289926
0
LINE
8
DEFAULT_255_2_778
10
6.951823
20
66.5291926
11
8.951223
21
66.5291926
0
LINE
8
DEFAULT_255_2_778
10
8.951223
20
66.5291926
11
8.951223
21
63.7295926
0
LINE
8
DEFAULT_255_2_778
10
8.951223
20
63.7295926
11
6.951823
21
63.7295926
0
LINE
8
DEFAULT_255_2_778
10
6.951823
20
63.7295926
11
6.951823
21
66.5291926
0
LINE
8
DEFAULT_255_2_778
10
5.627023
20
69.8888926
11
5.627023
21
67.9681926
0
LINE
8
DEFAULT_255_2_778
10
5.627023
20
66.3896926
11
5.627023
21
64.4690926
0
ARC
8
DEFAULT_255_2_778
10
4.8257519
20
68.9247942
40
1.245959
50
230.1472521
51
254.1014507
0
ARC
8
DEFAULT_255_2_778
10
4.8270243
20
68.9304801
40
1.2517761
50
254.1167331
51
270.0066948
0
ARC
8
DEFAULT_255_2_778
10
4.8279522
20
68.9259798
40
1.247276
50
269.9640912
51
302.7771658
0
ARC
8
DEFAULT_255_2_778
10
4.822884
20
68.9328929
40
1.2558324
50
302.8008321
51
309.815795
0
ARC
8
DEFAULT_255_2_778
10
4.8247153
20
65.4319032
40
1.7461991
50
117.6291671
51
145.7174505
0
ARC
8
DEFAULT_255_2_778
10
4.8286145
20
65.4285264
40
1.751323
50
145.6980214
51
179.9647351
0
ARC
8
DEFAULT_255_2_778
10
4.8219273
20
65.4296979
40
1.7446354
50
180.0030744
51
188.7962229
0
ARC
8
DEFAULT_255_2_778
10
4.8364766
20
65.4319034
40
1.759351
50
188.7947448
51
193.842264
0
ARC
8
DEFAULT_255_2_778
10
4.8242151
20
65.4276068
40
1.7464181
50
193.8016426
51
226.9755906
0
ARC
8
DEFAULT_255_2_778
10
4.8264863
20
65.4274256
40
1.7478361
50
226.9171056
51
267.2288903
0
ARC
8
DEFAULT_255_2_778
10
4.8270833
20
65.4432609
40
1.7636819
50
267.2343901
51
270.0012094
0
ARC
8
DEFAULT_255_2_778
10
4.8282168
20
65.4255892
40
1.7460105
50
269.9640251
51
303.1457705
0
ARC
8
DEFAULT_255_2_778
10
4.8289737
20
65.427852
40
1.7474921
50
303.084427
51
343.4076724
0
ARC
8
DEFAULT_255_2_778
10
4.8144371
20
65.4319363
40
1.7625897
50
343.4153691
51
346.1825731
0
ARC
8
DEFAULT_255_2_778
10
4.8166949
20
65.4317281
40
1.7603476
50
346.171603
51
351.2160459
0
ARC
8
DEFAULT_255_2_778
10
4.8311993
20
65.4295324
40
1.7456781
50
351.2145703
51
359.9969698
0
ARC
8
DEFAULT_255_2_778
10
4.8262495
20
65.4287021
40
1.7506282
50
0.0241522
51
59.5426847
0
ARC
8
DEFAULT_255_2_778
10
4.8200559
20
65.416421
40
1.7643544
50
59.5714666
51
62.3286566
0
ARC
8
DEFAULT_255_2_778
10
4.8297192
20
68.9255836
40
1.7457382
50
297.6336226
51
325.7292363
0
ARC
8
DEFAULT_255_2_778
10
4.8248568
20
68.9296048
40
1.7520211
50
325.7101061
51
359.9656442
0
ARC
8
DEFAULT_255_2_778
10
4.8314785
20
68.9284631
40
1.745399
50
0.0029897
51
8.7560837
0
ARC
8
DEFAULT_255_2_778
10
4.8171932
20
68.9262993
40
1.7598472
50
8.7549109
51
13.8300837
0
ARC
8
DEFAULT_255_2_778
10
4.8312618
20
68.9313107
40
1.7449892
50
13.7807302
51
46.9816896
0
ARC
8
DEFAULT_255_2_778
10
4.8277888
20
68.9301825
40
1.7481845
50
46.9236939
51
87.2264539
0
ARC
8
DEFAULT_255_2_778
10
4.8271581
20
68.9143293
40
1.7640498
50
87.2309084
51
90.0012186
0
ARC
8
DEFAULT_255_2_778
10
4.8259714
20
68.9327047
40
1.7456748
50
89.9622851
51
123.1471374
0
ARC
8
DEFAULT_255_2_778
10
4.8259757
20
68.9295771
40
1.7482965
50
123.0912091
51
163.310278
0
ARC
8
DEFAULT_255_2_778
10
4.8415016
20
68.9250112
40
1.7644797
50
163.3130461
51
166.1638703
0
ARC
8
DEFAULT_255_2_778
10
4.8359917
20
68.9261235
40
1.7588638
50
166.1561293
51
171.2343592
0
ARC
8
DEFAULT_255_2_778
10
4.8215472
20
68.9283135
40
1.7442542
50
171.233149
51
179.997012
0
ARC
8
DEFAULT_255_2_778
10
4.827756
20
68.9293579
40
1.7504632
50
180.0312084
51
239.3072661
0
ARC
8
DEFAULT_255_2_778
10
4.8342901
20
68.9418449
40
1.7645364
50
239.3317815
51
242.3389073
0
LINE
8
DEFAULT_255_2_778
10
5.6394205
20
66.9789791
11
4.0149205
21
66.9789791
0
LINE
8
DEFAULT_255_2_778
10
4.0149205
20
67.3789791
11
5.6394205
21
67.3789791
0
ARC
8
DEFAULT_255_2_778
10
4.8286639
20
65.4332596
40
1.2455733
50
50.1414543
51
74.1004696
0
ARC
8
DEFAULT_255_2_778
10
4.8273322
20
65.427382
40
1.2515908
50
74.1155506
51
90.0068601
0
LINE
8
DEFAULT_255_2_778
10
4.8271823
20
66.6789728
11
4.8269793
21
66.6789728
0
ARC
8
DEFAULT_255_2_778
10
4.826407
20
65.4317171
40
1.2472559
50
89.973707
51
122.7790919
0
ARC
8
DEFAULT_255_2_778
10
4.8315049
20
65.4247512
40
1.2558727
50
122.8025812
51
129.8156622
0
ARC
8
DEFAULT_255_2_778
10
4.3070652
20
65.429295
40
1.0000204
50
106.2431729
51
179.9998394
0
ARC
8
DEFAULT_255_2_778
10
4.3070947
20
65.4292226
40
1.0000499
50
179.9956925
51
253.7555532
0
ARC
8
DEFAULT_255_2_778
10
4.8286639
20
68.9326596
40
1.2455733
50
50.1414543
51
74.1004696
0
ARC
8
DEFAULT_255_2_778
10
4.8273322
20
68.926782
40
1.2515908
50
74.1155506
51
90.0068601
0
LINE
8
DEFAULT_255_2_778
10
4.8271823
20
70.1783728
11
4.8269793
21
70.1783728
0
ARC
8
DEFAULT_255_2_778
10
4.826407
20
68.9311171
40
1.2472559
50
89.973707
51
122.7790919
0
ARC
8
DEFAULT_255_2_778
10
4.8315049
20
68.9241512
40
1.2558727
50
122.8025812
51
129.8156622
0
ARC
8
DEFAULT_255_2_778
10
4.3070648
20
68.9286952
40
1.0000201
50
106.2431526
51
179.9998494
0
ARC
8
DEFAULT_255_2_778
10
4.3070948
20
68.9286228
40
1.00005
50
179.9956999
51
253.7555503
0
ARC
8
DEFAULT_255_2_778
10
13.4753381
20
65.4289857
40
0.7498121
50
1.479882
51
89.9994813
0
ARC
8
DEFAULT_255_2_778
10
13.4610521
20
65.4290024
40
0.7640928
50
359.9996573
51
1.4509693
0
ARC
8
DEFAULT_255_2_778
10
13.4753328
20
65.4290046
40
0.7498121
50
271.479882
51
359.9994813
0
ARC
8
DEFAULT_255_2_778
10
13.4753494
20
65.4432905
40
0.7640928
50
269.9996573
51
271.4509693
0
ARC
8
DEFAULT_255_2_778
10
13.4753381
20
68.9283857
40
0.7498121
50
1.479882
51
89.9994813
0
ARC
8
DEFAULT_255_2_778
10
13.4610521
20
68.9284024
40
0.7640928
50
359.9996573
51
1.4509693
0
ARC
8
DEFAULT_255_2_778
10
13.4753328
20
68.9284046
40
0.7498121
50
271.479882
51
359.9994813
0
ARC
8
DEFAULT_255_2_778
10
13.4753494
20
68.9426905
40
0.7640928
50
269.9996573
51
271.4509693
0
LINE
8
DEFAULT_255_2_778
10
4.0273448
20
64.4690978
11
4.0273448
21
66.3896978
0
LINE
8
DEFAULT_255_2_778
10
4.0273448
20
67.9684978
11
4.0273448
21
69.8890978
0
LINE
8
DEFAULT_255_2_778
10
6.0357448
20
70.8780978
11
6.0357448
21
70.1935978
0
LINE
8
DEFAULT_255_2_778
10
6.0357448
20
70.1935978
11
6.0521448
21
70.1779978
0
LINE
8
DEFAULT_255_2_778
10
9.0263448
20
70.2779978
11
9.0263448
21
67.1786978
0
LINE
8
DEFAULT_255_2_778
10
9.0263448
20
66.6788978
11
9.0263448
21
63.5795978
0
LINE
8
DEFAULT_255_2_778
10
6.8768448
20
67.1786978
11
6.8768448
21
70.2779978
0
LINE
8
DEFAULT_255_2_778
10
6.8768448
20
63.5792978
11
6.8768448
21
66.6785978
0
LINE
8
DEFAULT_255_2_778
10
12.7255448
20
66.1787978
11
13.4753448
21
66.1787978
0
LINE
8
DEFAULT_255_2_778
10
13.4753448
20
64.6791978
11
12.7255448
21
64.6791978
0
LINE
8
DEFAULT_255_2_778
10
12.7255448
20
69.6781978
11
13.4753448
21
69.6781978
0
LINE
8
DEFAULT_255_2_778
10
13.4753448
20
68.1785978
11
12.7255448
21
68.1785978
0
ARC
8
DEFAULT_255_2_778
10
12.4760969
20
71.628202
40
0.5000969
50
180.0340095
51
269.9659905
0
ARC
8
DEFAULT_255_2_778
10
11.475903
20
75.0770079
40
0.5000972
50
0.034051
51
89.9659652
0
ARC
8
DEFAULT_255_2_778
10
6.5770692
20
75.077136
40
0.4999692
50
90.0193732
51
179.9806129
0
ARC
8
DEFAULT_255_2_778
10
10.8795358
20
74.578472
40
0.9963651
50
359.9271505
51
41.6428705
0
ARC
8
DEFAULT_255_2_778
10
10.8770462
20
74.579605
40
0.9974759
50
41.4992117
51
88.2576555
0
ARC
8
DEFAULT_255_2_778
10
10.8759411
20
74.5591146
40
1.0179904
50
88.2305527
51
89.9910523
0
ARC
8
DEFAULT_255_2_778
10
7.2734235
20
74.5784765
40
0.9963242
50
138.3553873
51
180.0731126
0
ARC
8
DEFAULT_255_2_778
10
7.276016
20
74.5794858
40
0.9975939
50
91.740275
51
138.4976468
0
ARC
8
DEFAULT_255_2_778
10
7.2771589
20
74.5587699
40
1.0183352
50
90.0089374
51
91.7691548
0
LINE
8
DEFAULT_255_2_778
10
9.3264001
20
70.8781051
11
9.3264001
21
70.2783051
0
LINE
8
DEFAULT_255_2_778
10
9.3264001
20
70.2783051
11
6.0358001
21
70.2783051
0
LINE
8
DEFAULT_255_2_778
10
13.3256001
20
70.8781051
11
13.3256001
21
71.1281051
0
LINE
8
DEFAULT_255_2_778
10
13.3256001
20
71.1281051
11
12.4758001
21
71.1281051
0
LINE
8
DEFAULT_255_2_778
10
11.9760001
20
71.6279051
11
11.9760001
21
75.0773051
0
LINE
8
DEFAULT_255_2_778
10
11.4762001
20
75.5771051
11
6.5769001
21
75.5771051
0
LINE
8
DEFAULT_255_2_778
10
6.0771001
20
75.0773051
11
6.0771001
21
70.8781051
0
LINE
8
DEFAULT_255_2_778
10
11.8759001
20
70.8781051
11
11.8759001
21
74.5772051
0
LINE
8
DEFAULT_255_2_778
10
6.2771001
20
70.8781051
11
6.2771001
21
74.5772051
0
ARC
8
DEFAULT_255_2_778
10
12.7760042
20
71.9782416
40
0.2751234
50
180.1088816
51
269.8910975
0
ARC
8
DEFAULT_255_2_778
10
13.3252872
20
71.3778621
40
0.3255244
50
0.0570886
51
89.9429239
0
LINE
8
DEFAULT_255_2_778
10
13.3256115
20
71.7033865
11
12.7758115
21
71.7033865
0
ARC
8
DEFAULT_255_2_778
10
12.1755428
20
75.8269389
40
0.3253106
50
0.0370913
51
89.9805264
0
LINE
8
DEFAULT_255_2_778
10
13.6504534
20
70.8783495
11
13.6504534
21
71.3781495
0
LINE
8
DEFAULT_255_2_778
10
0.5953534
20
89.8992495
11
0.1781534
21
89.8992495
0
LINE
8
DEFAULT_255_2_778
10
0.1781534
20
89.8992495
11
0.1781534
21
79.1764495
0
LINE
8
DEFAULT_255_2_778
10
0.1781534
20
79.1764495
11
0.4810534
21
79.1764495
0
LINE
8
DEFAULT_255_2_778
10
0.4810534
20
79.1764495
11
0.5781534
21
79.4489495
0
LINE
8
DEFAULT_255_2_778
10
0.5953534
20
90.4490495
11
0.1781534
21
90.4490495
0
LINE
8
DEFAULT_255_2_778
10
0.1781534
20
90.4490495
11
0.1781534
21
101.1718495
0
LINE
8
DEFAULT_255_2_778
10
0.1781534
20
101.1718495
11
0.4810534
21
101.1718495
0
LINE
8
DEFAULT_255_2_778
10
0.4810534
20
101.1718495
11
0.5781534
21
100.8992495
0
LINE
8
DEFAULT_255_2_778
10
12.1756534
20
76.1525495
11
5.7769534
21
76.1525495
0
LINE
8
DEFAULT_255_2_778
10
3.3621534
20
84.5252495
11
3.3520534
21
84.5252495
0
LINE
8
DEFAULT_255_2_778
10
3.3520534
20
84.5252495
11
3.3520534
21
80.0009495
0
LINE
8
DEFAULT_255_2_778
10
3.3520534
20
80.0009495
11
16.6000534
21
80.0009495
0
LINE
8
DEFAULT_255_2_778
10
16.6000534
20
80.0009495
11
16.6000534
21
84.5252495
0
LINE
8
DEFAULT_255_2_778
10
16.6000534
20
84.5252495
11
16.5899534
21
84.5252495
0
LINE
8
DEFAULT_255_2_778
10
16.5899534
20
84.5252495
11
16.5899534
21
85.0250495
0
LINE
8
DEFAULT_255_2_778
10
16.5899534
20
85.0250495
11
16.6000534
21
85.0250495
0
LINE
8
DEFAULT_255_2_778
10
16.6000534
20
85.0250495
11
16.6000534
21
87.7500495
0
LINE
8
DEFAULT_255_2_778
10
16.6000534
20
87.7500495
11
3.3520534
21
87.7500495
0
LINE
8
DEFAULT_255_2_778
10
3.3520534
20
87.7500495
11
3.3520534
21
85.0250495
0
LINE
8
DEFAULT_255_2_778
10
3.3520534
20
85.0250495
11
3.3621534
21
85.0250495
0
LINE
8
DEFAULT_255_2_778
10
3.3621534
20
85.0250495
11
3.3621534
21
84.5252495
0
LINE
8
DEFAULT_255_2_778
10
14.2852534
20
84.7250495
11
13.2853534
21
84.7250495
0
LINE
8
DEFAULT_255_2_778
10
13.2853534
20
84.7250495
11
13.2853534
21
82.7255495
0
LINE
8
DEFAULT_255_2_778
10
13.2853534
20
82.7255495
11
14.2852534
21
82.7255495
0
LINE
8
DEFAULT_255_2_778
10
14.2852534
20
82.7255495
11
14.2852534
21
84.7250495
0
LINE
8
DEFAULT_255_2_778
10
11.7457534
20
82.7255495
11
11.7457534
21
84.7250495
0
LINE
8
DEFAULT_255_2_778
10
11.7457534
20
84.7250495
11
10.7458534
21
84.7250495
0
LINE
8
DEFAULT_255_2_778
10
10.7458534
20
84.7250495
11
10.7458534
21
82.7255495
0
LINE
8
DEFAULT_255_2_778
10
10.7458534
20
82.7255495
11
11.7457534
21
82.7255495
0
LINE
8
DEFAULT_255_2_778
10
5.6669534
20
82.7255495
11
6.6667534
21
82.7255495
0
LINE
8
DEFAULT_255_2_778
10
6.6667534
20
82.7255495
11
6.6667534
21
84.7250495
0
LINE
8
DEFAULT_255_2_778
10
6.6667534
20
84.7250495
11
5.6669534
21
84.7250495
0
LINE
8
DEFAULT_255_2_778
10
5.6669534
20
84.7250495
11
5.6669534
21
82.7255495
0
LINE
8
DEFAULT_255_2_778
10
9.2062534
20
82.7255495
11
9.2062534
21
84.7250495
0
LINE
8
DEFAULT_255_2_778
10
9.2062534
20
84.7250495
11
8.2064534
21
84.7250495
0
LINE
8
DEFAULT_255_2_778
10
8.2064534
20
84.7250495
11
8.2064534
21
82.7255495
0
LINE
8
DEFAULT_255_2_778
10
8.2064534
20
82.7255495
11
9.2062534
21
82.7255495
0
LINE
8
DEFAULT_255_2_778
10
3.0777534
20
106.1208495
11
3.0777534
21
105.9208495
0
LINE
8
DEFAULT_255_2_778
10
2.6776534
20
106.1208495
11
2.6776534
21
105.9208495
0
LINE
8
DEFAULT_255_2_778
10
3.6775534
20
105.9208495
11
3.6775534
21
106.1208495
0
LINE
8
DEFAULT_255_2_778
10
3.6775534
20
106.1208495
11
2.0778534
21
106.1208495
0
LINE
8
DEFAULT_255_2_778
10
2.0778534
20
106.1208495
11
2.0778534
21
105.9208495
0
LINE
8
DEFAULT_255_2_778
10
1.1280534
20
105.5210495
11
4.6273534
21
105.5210495
0
LINE
8
DEFAULT_255_2_778
10
4.6273534
20
103.4213495
11
4.6273534
21
105.9208495
0
LINE
8
DEFAULT_255_2_778
10
4.6273534
20
105.9208495
11
1.1280534
21
105.9208495
0
LINE
8
DEFAULT_255_2_778
10
1.1280534
20
105.9208495
11
1.1280534
21
103.4213495
0
LINE
8
DEFAULT_255_2_778
10
1.1280534
20
104.3211495
11
4.6273534
21
104.3211495
0
LINE
8
DEFAULT_255_2_778
10
1.1280534
20
104.7212495
11
4.6273534
21
104.7212495
0
LINE
8
DEFAULT_255_2_778
10
1.1280534
20
105.1209495
11
4.6273534
21
105.1209495
0
ARC
8
DEFAULT_255_2_778
10
22.6722799
20
84.3285107
40
3.3734094
50
162.7509063
51
180.054057
0
ARC
8
DEFAULT_255_2_778
10
22.679023
20
84.3197383
40
3.3824566
50
107.0486868
51
162.6428624
0
ARC
8
DEFAULT_255_2_778
10
22.6703624
20
84.325827
40
3.3741026
50
89.9471962
51
106.9383964
0
ARC
8
DEFAULT_255_2_778
10
22.6766593
20
84.3262447
40
3.3736848
50
72.7516157
51
90.0541305
0
ARC
8
DEFAULT_255_2_778
10
22.6679908
20
84.3197622
40
3.3824522
50
17.0489724
51
72.6439424
0
ARC
8
DEFAULT_255_2_778
10
22.6740884
20
84.3284389
40
3.3740849
50
359.9471739
51
16.9384647
0
ARC
8
DEFAULT_255_2_778
10
22.674514
20
84.3221388
40
3.3736594
50
342.7515157
51
0.0541636
0
ARC
8
DEFAULT_255_2_778
10
22.6680137
20
84.3308248
40
3.382449
50
287.0478929
51
342.6436481
0
ARC
8
DEFAULT_255_2_778
10
22.6765872
20
84.3249892
40
3.3743625
50
269.9471036
51
286.937762
0
ARC
8
DEFAULT_255_2_778
10
22.6702873
20
84.3240105
40
3.373384
50
252.7508062
51
270.0540901
0
ARC
8
DEFAULT_255_2_778
10
22.6790773
20
84.3307715
40
3.3824534
50
197.0476073
51
252.6425681
0
ARC
8
DEFAULT_255_2_778
10
22.6732506
20
84.3222141
40
3.3743802
50
179.9471259
51
196.9376937
0
LINE
8
DEFAULT_255_2_778
10
19.298872
20
84.325328
11
19.298872
21
84.325328
0
ARC
8
DEFAULT_255_2_778
10
22.6722799
20
76.1304107
40
3.3734094
50
162.7509063
51
180.054057
0
ARC
8
DEFAULT_255_2_778
10
22.679023
20
76.1216383
40
3.3824566
50
107.0486868
51
162.6428624
0
ARC
8
DEFAULT_255_2_778
10
22.6703624
20
76.127727
40
3.3741026
50
89.9471962
51
106.9383964
0
ARC
8
DEFAULT_255_2_778
10
22.6766593
20
76.1281447
40
3.3736848
50
72.7516157
51
90.0541305
0
ARC
8
DEFAULT_255_2_778
10
22.6679908
20
76.1216622
40
3.3824522
50
17.0489724
51
72.6439424
0
ARC
8
DEFAULT_255_2_778
10
22.6740884
20
76.1303389
40
3.3740849
50
359.9471739
51
16.9384647
0
ARC
8
DEFAULT_255_2_778
10
22.674514
20
76.1240388
40
3.3736594
50
342.7515157
51
0.0541636
0
ARC
8
DEFAULT_255_2_778
10
22.6680137
20
76.1327248
40
3.382449
50
287.0478929
51
342.6436481
0
ARC
8
DEFAULT_255_2_778
10
22.6765872
20
76.1268892
40
3.3743625
50
269.9471036
51
286.937762
0
ARC
8
DEFAULT_255_2_778
10
22.6702873
20
76.1259105
40
3.373384
50
252.7508062
51
270.0540901
0
ARC
8
DEFAULT_255_2_778
10
22.6790773
20
76.1326715
40
3.3824534
50
197.0476073
51
252.6425681
0
ARC
8
DEFAULT_255_2_778
10
22.6732506
20
76.1241141
40
3.3743802
50
179.9471259
51
196.9376937
0
LINE
8
DEFAULT_255_2_778
10
19.298872
20
76.127228
11
19.298872
21
76.127228
0
ARC
8
DEFAULT_255_2_778
10
22.6722799
20
66.1326107
40
3.3734094
50
162.7509063
51
180.054057
0
ARC
8
DEFAULT_255_2_778
10
22.679023
20
66.1238383
40
3.3824566
50
107.0486868
51
162.6428624
0
ARC
8
DEFAULT_255_2_778
10
22.6703624
20
66.129927
40
3.3741026
50
89.9471962
51
106.9383964
0
ARC
8
DEFAULT_255_2_778
10
22.6766593
20
66.1303447
40
3.3736848
50
72.7516157
51
90.0541305
0
ARC
8
DEFAULT_255_2_778
10
22.6679908
20
66.1238622
40
3.3824522
50
17.0489724
51
72.6439424
0
ARC
8
DEFAULT_255_2_778
10
22.6740884
20
66.1325389
40
3.3740849
50
359.9471739
51
16.9384647
0
ARC
8
DEFAULT_255_2_778
10
22.674514
20
66.1262388
40
3.3736594
50
342.7515157
51
0.0541636
0
ARC
8
DEFAULT_255_2_778
10
22.6680137
20
66.1349248
40
3.382449
50
287.0478929
51
342.6436481
0
ARC
8
DEFAULT_255_2_778
10
22.6765872
20
66.1290892
40
3.3743625
50
269.9471036
51
286.937762
0
ARC
8
DEFAULT_255_2_778
10
22.6702873
20
66.1281105
40
3.373384
50
252.7508062
51
270.0540901
0
ARC
8
DEFAULT_255_2_778
10
22.6790773
20
66.1348715
40
3.3824534
50
197.0476073
51
252.6425681
0
ARC
8
DEFAULT_255_2_778
10
22.6732506
20
66.1263141
40
3.3743802
50
179.9471259
51
196.9376937
0
LINE
8
DEFAULT_255_2_778
10
19.298872
20
66.129428
11
19.298872
21
66.129428
0
ARC
8
DEFAULT_255_2_778
10
9.0773867
20
72.9809765
40
1.9007042
50
155.7804514
51
180.101346
0
ARC
8
DEFAULT_255_2_778
10
9.0721069
20
72.9815292
40
1.8956633
50
100.0794402
51
155.7302212
0
ARC
8
DEFAULT_255_2_778
10
9.0754396
20
72.951596
40
1.9257187
50
89.9718562
51
100.0211978
0
ARC
8
DEFAULT_255_2_778
10
9.0797976
20
72.9762463
40
1.9010713
50
65.7828231
51
90.1028369
0
ARC
8
DEFAULT_255_2_778
10
9.0805545
20
72.9821503
40
1.8953772
50
10.0730799
51
65.7304815
0
ARC
8
DEFAULT_255_2_778
10
9.0497971
20
72.9785648
40
1.9262885
50
359.9717344
51
10.0180709
0
ARC
8
DEFAULT_255_2_778
10
9.0750172
20
72.9742024
40
1.9010713
50
335.7828231
51
0.1028369
0
ARC
8
DEFAULT_255_2_778
10
9.0809212
20
72.9734455
40
1.8953772
50
280.0730799
51
335.7304815
0
ARC
8
DEFAULT_255_2_778
10
9.0773358
20
73.0042029
40
1.9262885
50
269.9717344
51
280.0180709
0
ARC
8
DEFAULT_255_2_778
10
9.0729733
20
72.9789828
40
1.9010713
50
245.7828231
51
270.1028369
0
ARC
8
DEFAULT_255_2_778
10
9.0722164
20
72.9730788
40
1.8953772
50
190.0730799
51
245.7304815
0
ARC
8
DEFAULT_255_2_778
10
9.1029739
20
72.9766642
40
1.9262885
50
179.9717344
51
190.0180709
0
ARC
8
DEFAULT_255_2_778
10
9.0780265
20
72.9810359
40
1.951344
50
156.1339993
51
180.1004595
0
ARC
8
DEFAULT_255_2_778
10
9.0718244
20
72.9818122
40
1.9453589
50
100.1295663
51
156.0810002
0
ARC
8
DEFAULT_255_2_778
10
9.0754028
20
72.9505913
40
1.9767235
50
89.9715157
51
100.0725129
0
ARC
8
DEFAULT_255_2_778
10
9.079798
20
72.9752128
40
1.9521048
50
66.4873875
51
90.1001613
0
ARC
8
DEFAULT_255_2_778
10
9.0808524
20
72.9824466
40
1.9450518
50
9.9093551
51
66.4308557
0
ARC
8
DEFAULT_255_2_778
10
9.0481946
20
72.9785658
40
1.9778912
50
359.9724448
51
9.8572957
0
ARC
8
DEFAULT_255_2_778
10
9.0739837
20
72.974202
40
1.9521048
50
336.4873875
51
0.1001613
0
ARC
8
DEFAULT_255_2_778
10
9.0812176
20
72.9731476
40
1.9450518
50
279.9093551
51
336.4308557
0
ARC
8
DEFAULT_255_2_778
10
9.0773367
20
73.0058054
40
1.9778912
50
269.9724448
51
279.8572957
0
ARC
8
DEFAULT_255_2_778
10
9.0729729
20
72.9800163
40
1.9521048
50
246.4873875
51
270.1001613
0
ARC
8
DEFAULT_255_2_778
10
9.0719185
20
72.9727824
40
1.9450518
50
189.9093551
51
246.4308557
0
ARC
8
DEFAULT_255_2_778
10
9.1045764
20
72.9766633
40
1.9778912
50
179.9724448
51
189.8572957
0
LINE
8
DEFAULT_255_2_778
10
9.5761855
20
72.4778145
11
8.5763855
21
73.4776145
0
LINE
8
DEFAULT_255_2_778
10
8.5763855
20
72.4778145
11
9.5761855
21
73.4776145
0
LINE
8
DEFAULT_255_2_778
10
7.1766855
20
72.9776145
11
7.1766855
21
72.9776145
0
LINE
8
DEFAULT_255_2_778
10
7.1266855
20
72.9776145
11
7.1266855
21
72.9776145
0
ARC
8
DEFAULT_255_2_778
10
9.0773867
20
60.8834765
40
1.9007042
50
155.7804514
51
180.101346
0
ARC
8
DEFAULT_255_2_778
10
9.0721069
20
60.8840292
40
1.8956633
50
100.0794402
51
155.7302212
0
ARC
8
DEFAULT_255_2_778
10
9.0754396
20
60.854096
40
1.9257187
50
89.9718562
51
100.0211978
0
ARC
8
DEFAULT_255_2_778
10
9.0797976
20
60.8787463
40
1.9010713
50
65.7828231
51
90.1028369
0
ARC
8
DEFAULT_255_2_778
10
9.0805545
20
60.8846503
40
1.8953772
50
10.0730799
51
65.7304815
0
ARC
8
DEFAULT_255_2_778
10
9.0497971
20
60.8810648
40
1.9262885
50
359.9717344
51
10.0180709
0
ARC
8
DEFAULT_255_2_778
10
9.0750172
20
60.8767024
40
1.9010713
50
335.7828231
51
0.1028369
0
ARC
8
DEFAULT_255_2_778
10
9.0809212
20
60.8759455
40
1.8953772
50
280.0730799
51
335.7304815
0
ARC
8
DEFAULT_255_2_778
10
9.0773358
20
60.9067029
40
1.9262885
50
269.9717344
51
280.0180709
0
ARC
8
DEFAULT_255_2_778
10
9.0729733
20
60.8814828
40
1.9010713
50
245.7828231
51
270.1028369
0
ARC
8
DEFAULT_255_2_778
10
9.0722164
20
60.8755788
40
1.8953772
50
190.0730799
51
245.7304815
0
ARC
8
DEFAULT_255_2_778
10
9.1029739
20
60.8791642
40
1.9262885
50
179.9717344
51
190.0180709
0
ARC
8
DEFAULT_255_2_778
10
9.0780265
20
60.8835359
40
1.951344
50
156.1339993
51
180.1004595
0
ARC
8
DEFAULT_255_2_778
10
9.0718244
20
60.8843122
40
1.9453589
50
100.1295663
51
156.0810002
0
ARC
8
DEFAULT_255_2_778
10
9.0754028
20
60.8530913
40
1.9767235
50
89.9715157
51
100.0725129
0
ARC
8
DEFAULT_255_2_778
10
9.079798
20
60.8777128
40
1.9521048
50
66.4873875
51
90.1001613
0
ARC
8
DEFAULT_255_2_778
10
9.0808524
20
60.8849466
40
1.9450518
50
9.9093551
51
66.4308557
0
ARC
8
DEFAULT_255_2_778
10
9.0481946
20
60.8810658
40
1.9778912
50
359.9724448
51
9.8572957
0
ARC
8
DEFAULT_255_2_778
10
9.0739837
20
60.876702
40
1.9521048
50
336.4873875
51
0.1001613
0
ARC
8
DEFAULT_255_2_778
10
9.0812176
20
60.8756476
40
1.9450518
50
279.9093551
51
336.4308557
0
ARC
8
DEFAULT_255_2_778
10
9.0773367
20
60.9083054
40
1.9778912
50
269.9724448
51
279.8572957
0
ARC
8
DEFAULT_255_2_778
10
9.0729729
20
60.8825163
40
1.9521048
50
246.4873875
51
270.1001613
0
ARC
8
DEFAULT_255_2_778
10
9.0719185
20
60.8752824
40
1.9450518
50
189.9093551
51
246.4308557
0
ARC
8
DEFAULT_255_2_778
10
9.1045764
20
60.8791633
40
1.9778912
50
179.9724448
51
189.8572957
0
LINE
8
DEFAULT_255_2_778
10
9.5761855
20
60.3803145
11
8.5763855
21
61.3801145
0
LINE
8
DEFAULT_255_2_778
10
8.5763855
20
60.3803145
11
9.5761855
21
61.3801145
0
LINE
8
DEFAULT_255_2_778
10
7.1766855
20
60.8801145
11
7.1766855
21
60.8801145
0
LINE
8
DEFAULT_255_2_778
10
7.1266855
20
60.8801145
11
7.1266855
21
60.8801145
0
LINE
8
DEFAULT_255_2_778
10
15.2208137
20
4.7588218
11
16.6580137
21
4.7588218
0
LINE
8
DEFAULT_255_2_778
10
16.6580137
20
4.7588218
11
16.6580137
21
13.4400218
0
LINE
8
DEFAULT_255_2_778
10
18.0563137
20
13.4400218
11
18.0563137
21
6.5733218
0
LINE
8
DEFAULT_255_2_778
10
25.5898137
20
13.4400218
11
25.5898137
21
4.7588218
0
LINE
8
DEFAULT_255_2_778
10
25.5898137
20
4.7588218
11
27.0268137
21
4.7588218
0
ARC
8
DEFAULT_255_2_778
10
23.1925361
20
6.5698105
40
0.9964361
50
269.9505529
51
311.9909579
0
ARC
8
DEFAULT_255_2_778
10
23.1936423
20
6.5723814
40
0.99761
50
311.844957
51
358.3499766
0
ARC
8
DEFAULT_255_2_778
10
23.1731759
20
6.5735077
40
1.0181004
50
358.3197808
51
359.9700109
0
ARC
8
DEFAULT_255_2_778
10
19.0527865
20
6.5720763
40
0.9964107
50
179.9483328
51
221.6441263
0
ARC
8
DEFAULT_255_2_778
10
19.055348
20
6.5710398
40
0.9976391
50
221.501885
51
268.2400151
0
ARC
8
DEFAULT_255_2_778
10
19.0565053
20
6.5917553
40
1.0183806
50
268.2107306
51
269.9702337
0
ARC
8
DEFAULT_255_2_778
10
21.1174317
20
11.6384395
40
1.9932564
50
179.9472458
51
204.3194849
0
ARC
8
DEFAULT_255_2_778
10
21.1260795
20
11.6434149
40
2.0031859
50
204.3473006
51
260.1828173
0
ARC
8
DEFAULT_255_2_778
10
21.1237916
20
11.6543365
40
2.0135617
50
260.2999547
51
269.9967165
0
ARC
8
DEFAULT_255_2_778
10
21.125513
20
11.6340139
40
1.9932399
50
269.9472008
51
294.3195897
0
ARC
8
DEFAULT_255_2_778
10
21.1206265
20
11.6425136
40
2.002998
50
294.3468352
51
350.1866628
0
ARC
8
DEFAULT_255_2_778
10
21.10976
20
11.6402043
40
2.0133162
50
350.3041264
51
0.0020052
0
LINE
8
DEFAULT_255_2_778
10
15.1874762
20
13.4399748
11
15.1874762
21
1.7424748
0
LINE
8
DEFAULT_255_2_778
10
15.1874762
20
1.7424748
11
17.6242762
21
-0.2569252
0
LINE
8
DEFAULT_255_2_778
10
17.6242762
20
-0.2569252
11
24.6230762
21
-0.2569252
0
LINE
8
DEFAULT_255_2_778
10
24.6230762
20
-0.2569252
11
27.0600762
21
1.7424748
0
LINE
8
DEFAULT_255_2_778
10
27.0600762
20
1.7424748
11
27.0600762
21
13.4399748
0
LINE
8
DEFAULT_255_2_778
10
19.0559762
20
5.5733748
11
23.1916762
21
5.5733748
0
LINE
8
DEFAULT_255_2_778
10
23.1233762
20
11.6402748
11
25.6228762
21
11.6402748
0
LINE
8
DEFAULT_255_2_778
10
25.6228762
20
11.6402748
11
25.6228762
21
12.6401748
0
LINE
8
DEFAULT_255_2_778
10
25.6228762
20
12.6401748
11
16.6246762
21
12.6401748
0
LINE
8
DEFAULT_255_2_778
10
16.6246762
20
12.6401748
11
16.6246762
21
11.6402748
0
LINE
8
DEFAULT_255_2_778
10
16.6246762
20
11.6402748
11
19.1241762
21
11.6402748
0
LINE
8
DEFAULT_255_2_778
10
27.0595762
20
13.4399748
11
27.0595762
21
10.1405748
0
LINE
8
DEFAULT_255_2_778
10
27.0595762
20
10.1405748
11
24.6227762
21
8.1411748
0
LINE
8
DEFAULT_255_2_778
10
24.6227762
20
8.1411748
11
17.6245762
21
8.1411748
0
LINE
8
DEFAULT_255_2_778
10
17.6245762
20
8.1411748
11
15.1874762
21
10.1405748
0
LINE
8
DEFAULT_255_2_778
10
15.1874762
20
10.1405748
11
15.1874762
21
13.4399748
0
LINE
8
DEFAULT_255_2_778
10
24.1911784
20
6.5732304
11
24.1911784
21
13.4400304
0
LINE
8
DEFAULT_255_2_778
10
12.7254784
20
70.8781304
11
12.7254784
21
66.9289304
0
LINE
8
DEFAULT_255_2_778
10
12.7254784
20
62.9798304
11
12.7254784
21
66.9289304
0
LINE
8
DEFAULT_255_2_778
10
9.3263784
20
66.9289304
11
6.0357784
21
66.9289304
0
LINE
8
DEFAULT_255_2_778
10
9.3264032
20
66.9289707
11
9.3264032
21
66.6789707
0
LINE
8
DEFAULT_255_2_778
10
9.3264032
20
66.6789707
11
6.0522032
21
66.6789707
0
LINE
8
DEFAULT_255_2_778
10
6.0522032
20
66.6789707
11
6.0358032
21
66.6945707
0
LINE
8
DEFAULT_255_2_778
10
6.0358032
20
66.6945707
11
6.0358032
21
66.9292707
0
LINE
8
DEFAULT_255_2_778
10
9.3264032
20
66.9289707
11
9.3264032
21
67.1787707
0
LINE
8
DEFAULT_255_2_778
10
9.3264032
20
67.1787707
11
6.0358032
21
67.1787707
0
LINE
8
DEFAULT_255_2_778
10
6.0358032
20
67.1787707
11
6.0358032
21
66.9289707
0
LINE
8
DEFAULT_255_2_778
10
12.3257032
20
62.9798707
11
12.3257032
21
66.9289707
0
LINE
8
DEFAULT_255_2_778
10
12.3257032
20
70.8781707
11
12.3257032
21
66.9289707
0
LINE
8
DEFAULT_255_2_778
10
12.7255032
20
62.9798707
11
14.8250032
21
62.9798707
0
LINE
8
DEFAULT_255_2_778
10
14.8250032
20
62.9798707
11
14.8250032
21
66.9289707
0
LINE
8
DEFAULT_255_2_778
10
12.7254418
20
70.8781707
11
14.8249418
21
70.8781707
0
LINE
8
DEFAULT_255_2_778
10
14.8249418
20
70.8781707
11
14.8249418
21
66.9289707
0
LINE
8
DEFAULT_255_2_778
10
6.0357418
20
62.9798707
11
2.4276418
21
62.9798707
0
LINE
8
DEFAULT_255_2_778
10
2.4276418
20
62.9798707
11
2.4276418
21
66.9289707
0
LINE
8
DEFAULT_255_2_778
10
12.3257418
20
70.8781707
11
2.4276418
21
70.8781707
0
LINE
8
DEFAULT_255_2_778
10
2.4276418
20
70.8781707
11
2.4276418
21
66.9289707
0
LINE
8
DEFAULT_255_2_778
10
12.3257418
20
62.9798707
11
12.7254418
21
62.9798707
0
LINE
8
DEFAULT_255_2_778
10
12.3257376
20
70.8781707
11
12.7255376
21
70.8781707
0
LINE
8
DEFAULT_255_2_778
10
9.3264376
20
62.9798707
11
6.0358376
21
62.9798707
0
LINE
8
DEFAULT_255_2_778
10
9.3263626
20
62.9794884
11
9.3263626
21
63.5795884
0
LINE
8
DEFAULT_255_2_778
10
9.3263626
20
63.5795884
11
6.0357626
21
63.5795884
0
LINE
8
DEFAULT_255_2_778
10
6.0357626
20
63.5795884
11
6.0357626
21
62.9794884
0
LINE
8
DEFAULT_255_2_778
10
12.3254626
20
62.9797884
11
9.3261626
21
62.9797884
0
LINE
8
DEFAULT_255_2_778
10
8.7514626
20
67.3289884
11
8.7514626
21
70.1282884
0
LINE
8
DEFAULT_255_2_778
10
8.7514867
20
63.7295878
11
8.7514867
21
66.5291878
0
LINE
8
DEFAULT_255_2_778
10
7.1517867
20
70.1282878
11
7.1517867
21
67.3289878
0
LINE
8
DEFAULT_255_2_778
10
7.1517867
20
66.5291878
11
7.1517867
21
63.7295878
0
LINE
8
DEFAULT_255_2_778
10
8.2442867
20
67.3289878
11
8.2442867
21
70.1282878
0
LINE
8
DEFAULT_255_2_778
10
8.2442867
20
63.7295878
11
8.2442867
21
66.5291878
0
LINE
8
DEFAULT_255_2_778
10
7.6586867
20
70.1282878
11
7.6586867
21
67.3289878
0
LINE
8
DEFAULT_255_2_778
10
7.6586867
20
66.5291878
11
7.6586867
21
63.7295878
0
LINE
8
DEFAULT_255_2_778
10
12.3256867
20
66.9289878
11
12.7254867
21
66.9289878
0
LINE
8
DEFAULT_255_2_778
10
19.0741867
20
37.6048878
11
18.4743867
21
37.6048878
0
LINE
8
DEFAULT_255_2_778
10
18.4743867
20
37.6048878
11
18.4743867
21
35.8051878
0
LINE
8
DEFAULT_255_2_778
10
18.4743867
20
35.8051878
11
19.0741867
21
35.8051878
0
LINE
8
DEFAULT_255_2_778
10
19.0741867
20
37.6048878
11
19.6739867
21
37.6048878
0
LINE
8
DEFAULT_255_2_778
10
19.6739867
20
37.6048878
11
19.6739867
21
35.8051878
0
LINE
8
DEFAULT_255_2_778
10
19.6739867
20
35.8051878
11
19.0741867
21
35.8051878
0
LINE
8
DEFAULT_255_2_778
10
19.0741867
20
33.2657878
11
18.4743867
21
33.2657878
0
LINE
8
DEFAULT_255_2_778
10
18.4743867
20
33.2657878
11
18.4743867
21
35.0654878
0
LINE
8
DEFAULT_255_2_778
10
18.4743867
20
35.0654878
11
19.0741867
21
35.0654878
0
LINE
8
DEFAULT_255_2_778
10
19.0741867
20
33.2657878
11
19.6739867
21
33.2657878
0
LINE
8
DEFAULT_255_2_778
10
19.6739867
20
33.2657878
11
19.6739867
21
35.0654878
0
LINE
8
DEFAULT_255_2_778
10
19.6739867
20
35.0654878
11
19.0741867
21
35.0654878
0
LINE
8
DEFAULT_255_2_778
10
19.0741867
20
41.9839878
11
20.9987867
21
41.9839878
0
LINE
8
DEFAULT_255_2_778
10
20.9987867
20
41.9839878
11
20.9987867
21
35.4352878
0
LINE
8
DEFAULT_255_2_778
10
19.0741867
20
28.8865878
11
20.9987867
21
28.8865878
0
LINE
8
DEFAULT_255_2_778
10
20.9987867
20
28.8865878
11
20.9987867
21
35.4352878
0
LINE
8
DEFAULT_255_2_778
10
19.0741867
20
41.9839878
11
17.1495867
21
41.9839878
0
LINE
8
DEFAULT_255_2_778
10
17.1495867
20
41.9839878
11
17.1495867
21
35.4355878
0
LINE
8
DEFAULT_255_2_778
10
19.0741867
20
28.8865878
11
17.1495867
21
28.8865878
0
LINE
8
DEFAULT_255_2_778
10
17.1495867
20
28.8865878
11
17.1495867
21
35.4352878
0
LINE
8
DEFAULT_255_2_778
10
24.0731867
20
35.4352878
11
24.0731867
21
51.7619878
0
LINE
8
DEFAULT_255_2_778
10
24.0731867
20
51.7619878
11
23.7731867
21
52.0619878
0
LINE
8
DEFAULT_255_2_778
10
23.7731867
20
52.0619878
11
19.0741867
21
52.0619878
0
LINE
8
DEFAULT_255_2_778
10
14.0753867
20
35.4352878
11
14.0753867
21
51.7619878
0
LINE
8
DEFAULT_255_2_778
10
14.0753867
20
51.7619878
11
14.3754867
21
52.0619878
0
LINE
8
DEFAULT_255_2_778
10
14.3754867
20
52.0619878
11
19.0744867
21
52.0619878
0
LINE
8
DEFAULT_255_2_778
10
19.0741867
20
18.8088878
11
23.7731867
21
18.8088878
0
LINE
8
DEFAULT_255_2_778
10
23.7731867
20
18.8088878
11
24.0731867
21
19.1089878
0
LINE
8
DEFAULT_255_2_778
10
24.0731867
20
19.1089878
11
24.0731867
21
35.4355878
0
LINE
8
DEFAULT_255_2_778
10
19.0744867
20
18.8088878
11
14.3754867
21
18.8088878
0
LINE
8
DEFAULT_255_2_778
10
14.3754867
20
18.8088878
11
14.0753867
21
19.1089878
0
LINE
8
DEFAULT_255_2_778
10
14.0753867
20
19.1089878
11
14.0753867
21
35.4355878
0
LINE
8
DEFAULT_255_2_778
10
19.0741867
20
40.1443878
11
19.6739867
21
40.1443878
0
LINE
8
DEFAULT_255_2_778
10
19.6739867
20
40.1443878
11
19.6739867
21
38.3446878
0
LINE
8
DEFAULT_255_2_778
10
19.6739867
20
38.3446878
11
19.0741867
21
38.3446878
0
LINE
8
DEFAULT_255_2_778
10
19.0741867
20
40.1443878
11
18.4743867
21
40.1443878
0
LINE
8
DEFAULT_255_2_778
10
18.4743867
20
40.1443878
11
18.4743867
21
38.3446878
0
LINE
8
DEFAULT_255_2_778
10
18.4743867
20
38.3446878
11
19.0741867
21
38.3446878
0
LINE
8
DEFAULT_255_2_778
10
19.0741867
20
30.7262878
11
19.6739867
21
30.7262878
0
LINE
8
DEFAULT_255_2_778
10
19.6739867
20
30.7262878
11
19.6739867
21
32.5259878
0
LINE
8
DEFAULT_255_2_778
10
19.6739867
20
32.5259878
11
19.0741867
21
32.5259878
0
LINE
8
DEFAULT_255_2_778
10
19.0741867
20
30.7262878
11
18.4743867
21
30.7262878
0
LINE
8
DEFAULT_255_2_778
10
18.4743867
20
30.7262878
11
18.4743867
21
32.5259878
0
LINE
8
DEFAULT_255_2_778
10
18.4743867
20
32.5259878
11
19.0741867
21
32.5259878
0
ENDSEC
0
EOF