0
SECTION
2
HEADER
9
$MEASUREMENT
70
1
0
ENDSEC
0
SECTION
2
TABLES
0
TABLE
2
LTYPE
0
LTYPE
72
65
70
64
2
CONTINUOUS
3
______
73
0
40
0
0
ENDTAB
0
TABLE
2
LAYER
0
LAYER
2
DEFAULT_255_2_778
70
0
62
255
6
CONTINUOUS
0
ENDTAB
0
ENDSEC
0
SECTION
2
ENTITIES
0
LINE
8
DEFAULT_255_2_778
10
14.2925473
20
13.0437352
11
0.2426473
21
13.0437352
0
LINE
8
DEFAULT_255_2_778
10
0.2426473
20
13.0437352
11
0.2426473
21
103.0436352
0
LINE
8
DEFAULT_255_2_778
10
0.2426473
20
103.0436352
11
31.2425473
21
103.0436352
0
LINE
8
DEFAULT_255_2_778
10
31.2425473
20
103.0436352
11
31.2425473
21
13.0437352
0
LINE
8
DEFAULT_255_2_778
10
31.2425473
20
13.0437352
11
21.1926473
21
13.0437352
0
LINE
8
DEFAULT_255_2_778
10
31.2428648
20
92.2037239
11
13.7427648
21
92.2037239
0
LINE
8
DEFAULT_255_2_778
10
13.7427648
20
92.2037239
11
13.7435648
21
14.3337239
0
LINE
8
DEFAULT_255_2_778
10
13.7435648
20
14.3337239
11
31.2428648
21
14.3337239
0
LINE
8
DEFAULT_255_2_778
10
30.4427011
20
89.2038459
11
30.4427011
21
19.2337459
0
LINE
8
DEFAULT_255_2_778
10
26.7425011
20
19.2337459
11
26.7425011
21
17.4337459
0
LINE
8
DEFAULT_255_2_778
10
29.6426011
20
17.4337459
11
29.6426011
21
17.3337459
0
LINE
8
DEFAULT_255_2_778
10
31.2425626
20
90.5037948
11
26.6935626
21
90.5037948
0
LINE
8
DEFAULT_255_2_778
10
26.6935626
20
90.5037948
11
26.6935626
21
89.1038948
0
LINE
8
DEFAULT_255_2_778
10
26.6935626
20
89.1038948
11
30.2434626
21
89.1038948
0
LINE
8
DEFAULT_255_2_778
10
30.2434626
20
89.1038948
11
30.2434626
21
19.3337948
0
LINE
8
DEFAULT_255_2_778
10
30.2434626
20
19.3337948
11
25.9434626
21
19.3337948
0
LINE
8
DEFAULT_255_2_778
10
25.9434626
20
19.3337948
11
25.9434626
21
17.3337948
0
LINE
8
DEFAULT_255_2_778
10
25.9434626
20
17.3337948
11
31.2425626
21
17.3337948
0
LINE
8
DEFAULT_255_2_778
10
26.7425367
20
89.2038022
11
26.7425367
21
90.4037022
0
LINE
8
DEFAULT_255_2_778
10
30.2434367
20
34.4737022
11
23.0925367
21
34.4737022
0
LINE
8
DEFAULT_255_2_778
10
23.0925367
20
34.4737022
11
30.2434367
21
34.4737022
0
LINE
8
DEFAULT_255_2_778
10
30.2434367
20
33.2537022
11
23.0925367
21
33.2537022
0
LINE
8
DEFAULT_255_2_778
10
23.0925367
20
33.2537022
11
30.2434367
21
33.2537022
0
LINE
8
DEFAULT_255_2_778
10
15.4175367
20
38.2837022
11
15.4175367
21
37.0637022
0
LINE
8
DEFAULT_255_2_778
10
23.0925367
20
33.2537022
11
23.0925367
21
26.8537022
0
LINE
8
DEFAULT_255_2_778
10
23.0925367
20
26.8537022
11
23.0925367
21
33.2537022
0
LINE
8
DEFAULT_255_2_778
10
23.0925367
20
33.2537022
11
23.0925367
21
26.8537022
0
LINE
8
DEFAULT_255_2_778
10
23.0925367
20
48.4937022
11
23.0925367
21
42.0937022
0
LINE
8
DEFAULT_255_2_778
10
15.4175367
20
52.3037022
11
15.4175367
21
45.9037022
0
LINE
8
DEFAULT_255_2_778
10
30.2434367
20
57.3337022
11
23.0925367
21
57.3337022
0
LINE
8
DEFAULT_255_2_778
10
23.0925367
20
57.3337022
11
30.2434367
21
57.3337022
0
LINE
8
DEFAULT_255_2_778
10
30.2434367
20
57.3337022
11
23.0925367
21
56.1137022
0
LINE
8
DEFAULT_255_2_778
10
23.0925367
20
56.1137022
11
30.2434367
21
56.1137022
0
LINE
8
DEFAULT_255_2_778
10
30.2434367
20
49.7137022
11
23.0925367
21
49.7137022
0
LINE
8
DEFAULT_255_2_778
10
23.0925367
20
49.7137022
11
23.0925367
21
56.1137022
0
LINE
8
DEFAULT_255_2_778
10
23.0925367
20
56.1137022
11
23.0925367
21
49.7137022
0
LINE
8
DEFAULT_255_2_778
10
30.2434367
20
64.9537022
11
23.0925367
21
64.9537022
0
LINE
8
DEFAULT_255_2_778
10
23.0925367
20
64.9537022
11
30.2434367
21
64.9537022
0
LINE
8
DEFAULT_255_2_778
10
30.2434367
20
63.7337022
11
23.0925367
21
63.7337022
0
LINE
8
DEFAULT_255_2_778
10
23.0925367
20
63.7337022
11
30.2434367
21
63.7337022
0
LINE
8
DEFAULT_255_2_778
10
15.4175367
20
61.1437022
11
15.4175367
21
53.5237022
0
LINE
8
DEFAULT_255_2_778
10
15.4175367
20
67.5437022
11
15.4175367
21
68.7637022
0
ARC
8
DEFAULT_255_2_778
10
26.8978792
20
83.420941
40
2.8055758
50
179.9993546
51
180.5583163
0
ARC
8
DEFAULT_255_2_778
10
26.8924724
20
83.4208145
40
2.8001689
50
123.9989132
51
179.9967634
0
ARC
8
DEFAULT_255_2_778
10
26.8960212
20
83.4146333
40
2.8072778
50
120.1874306
51
123.9884179
0
ARC
8
DEFAULT_255_2_778
10
26.891643
20
83.4226975
40
2.798106
50
102.1475488
51
120.1929693
0
ARC
8
DEFAULT_255_2_778
10
26.8922948
20
83.4187717
40
2.8020809
50
90.0056632
51
102.1436864
0
LINE
8
DEFAULT_255_2_778
10
26.8920179
20
86.2208526
11
26.8923742
21
86.2208527
0
ARC
8
DEFAULT_255_2_778
10
26.8928058
20
83.4221971
40
2.7986556
50
65.5671866
51
90.0088364
0
ARC
8
DEFAULT_255_2_778
10
26.8900824
20
83.4170106
40
2.8045039
50
59.8134056
51
65.5603585
0
ARC
8
DEFAULT_255_2_778
10
26.8934756
20
83.421796
40
2.7986614
50
28.042569
51
59.8241919
0
ARC
8
DEFAULT_255_2_778
10
26.8947548
20
83.4214072
40
2.7977152
50
359.9911002
51
28.061912
0
ARC
8
DEFAULT_255_2_778
10
26.8868941
20
83.420941
40
2.8055758
50
359.4416837
51
0.0006454
0
ARC
8
DEFAULT_255_2_778
10
26.8936875
20
83.3931886
40
2.7986492
50
327.2092412
51
0.0084768
0
ARC
8
DEFAULT_255_2_778
10
26.8937264
20
83.3920949
40
2.7980242
50
299.9904959
51
327.2276364
0
ARC
8
DEFAULT_255_2_778
10
26.893174
20
83.3912803
40
2.7975951
50
281.6034983
51
300.0086357
0
ARC
8
DEFAULT_255_2_778
10
26.8924571
20
83.3955231
40
2.8018956
50
269.9985589
51
281.6004056
0
ARC
8
DEFAULT_255_2_778
10
26.8919781
20
83.3922857
40
2.7986581
50
245.717115
51
270.0083652
0
ARC
8
DEFAULT_255_2_778
10
26.894646
20
83.3974302
40
2.8044445
50
240.0003039
51
245.7106537
0
ARC
8
DEFAULT_255_2_778
10
26.8915909
20
83.3927575
40
2.7988702
50
207.2106811
51
240.0066394
0
ARC
8
DEFAULT_255_2_778
10
26.8902009
20
83.3930421
40
2.7977643
50
179.9885202
51
207.2288802
0
ARC
8
DEFAULT_255_2_778
10
18.7468211
20
87.2309359
40
2.8045176
50
179.9993545
51
180.5584223
0
ARC
8
DEFAULT_255_2_778
10
18.742542
20
87.2307107
40
2.8002385
50
123.9972351
51
179.9947445
0
ARC
8
DEFAULT_255_2_778
10
18.7463185
20
87.2243042
40
2.8076617
50
120.1875347
51
123.988028
0
ARC
8
DEFAULT_255_2_778
10
18.7415776
20
87.2332394
40
2.7975544
50
102.1434709
51
120.1956228
0
ARC
8
DEFAULT_255_2_778
10
18.7423145
20
87.2289338
40
2.8019188
50
89.9982683
51
102.1396811
0
LINE
8
DEFAULT_255_2_778
10
18.7423992
20
90.0308527
11
18.7427555
21
90.0308526
0
ARC
8
DEFAULT_255_2_778
10
18.7428073
20
87.2318615
40
2.7989912
50
65.56727
51
90.0010609
0
ARC
8
DEFAULT_255_2_778
10
18.7399592
20
87.2263495
40
2.8051876
50
59.8162547
51
65.5608741
0
ARC
8
DEFAULT_255_2_778
10
18.7434093
20
87.2318358
40
2.7987105
50
28.0411086
51
59.8208382
0
ARC
8
DEFAULT_255_2_778
10
18.7446379
20
87.2313983
40
2.797832
50
359.9912835
51
28.060845
0
ARC
8
DEFAULT_255_2_778
10
18.7368941
20
87.230941
40
2.8055758
50
359.4416837
51
0.0006454
0
ARC
8
DEFAULT_255_2_778
10
18.736331
20
87.1762616
40
2.8061389
50
359.9993547
51
0.5582592
0
ARC
8
DEFAULT_255_2_778
10
18.7425046
20
87.1762651
40
2.7999653
50
303.9966975
51
359.9992807
0
ARC
8
DEFAULT_255_2_778
10
18.7393183
20
87.1820785
40
2.8065666
50
300.1825068
51
303.9842687
0
ARC
8
DEFAULT_255_2_778
10
18.743078
20
87.1741027
40
2.7977821
50
282.1500724
51
300.1980683
0
ARC
8
DEFAULT_255_2_778
10
18.7424757
20
87.1778431
40
2.8015655
50
270.0057213
51
282.1460132
0
LINE
8
DEFAULT_255_2_778
10
18.7427555
20
84.3762777
11
18.7423992
21
84.3762777
0
ARC
8
DEFAULT_255_2_778
10
18.7419753
20
87.1744649
40
2.7981873
50
245.5626561
51
270.0086788
0
ARC
8
DEFAULT_255_2_778
10
18.744818
20
87.1799342
40
2.8043426
50
239.8084857
51
245.5560086
0
ARC
8
DEFAULT_255_2_778
10
18.7412067
20
87.175342
40
2.7985573
50
207.5812872
51
239.8251107
0
ARC
8
DEFAULT_255_2_778
10
18.7399903
20
87.1757902
40
2.7976869
50
179.9908888
51
207.6009578
0
ARC
8
DEFAULT_255_2_778
10
18.747384
20
87.1762667
40
2.8050806
50
179.4416348
51
180.0006454
0
ARC
8
DEFAULT_255_2_778
10
18.7468236
20
79.6111359
40
2.8045201
50
179.9993544
51
180.5584222
0
ARC
8
DEFAULT_255_2_778
10
18.7424745
20
79.6109629
40
2.8001711
50
123.9965018
51
179.9958136
0
ARC
8
DEFAULT_255_2_778
10
18.7455257
20
79.6053828
40
2.8065035
50
120.182563
51
123.9844478
0
ARC
8
DEFAULT_255_2_778
10
18.7416279
20
79.6138512
40
2.7972237
50
102.1459826
51
120.2007556
0
ARC
8
DEFAULT_255_2_778
10
18.7423173
20
79.609724
40
2.8014036
50
89.9983264
51
102.1420074
0
LINE
8
DEFAULT_255_2_778
10
18.7423992
20
82.4111277
11
18.7427555
21
82.4111276
0
ARC
8
DEFAULT_255_2_778
10
18.7427991
20
79.6126009
40
2.7985267
50
65.5627656
51
90.0008942
0
ARC
8
DEFAULT_255_2_778
10
18.7398667
20
79.6068733
40
2.8049543
50
59.8112969
51
65.5566337
0
ARC
8
DEFAULT_255_2_778
10
18.7437736
20
79.6123332
40
2.7982703
50
27.5772583
51
59.8242273
0
ARC
8
DEFAULT_255_2_778
10
18.7445414
20
79.6116021
40
2.7979285
50
359.9912072
51
27.5978069
0
ARC
8
DEFAULT_255_2_778
10
18.7368916
20
79.6111411
40
2.8055783
50
359.4416838
51
0.0006454
0
ARC
8
DEFAULT_255_2_778
10
18.7368941
20
79.5564643
40
2.8055758
50
359.9993546
51
0.5583163
0
ARC
8
DEFAULT_255_2_778
10
18.742301
20
79.5565909
40
2.8001689
50
303.9989132
51
359.9967634
0
ARC
8
DEFAULT_255_2_778
10
18.7387521
20
79.562772
40
2.8072778
50
300.1874306
51
303.9884179
0
ARC
8
DEFAULT_255_2_778
10
18.7431303
20
79.5547078
40
2.798106
50
282.1475488
51
300.1929693
0
ARC
8
DEFAULT_255_2_778
10
18.7424785
20
79.5586336
40
2.8020809
50
270.0056632
51
282.1436864
0
LINE
8
DEFAULT_255_2_778
10
18.7427555
20
76.7565527
11
18.7423992
21
76.7565527
0
ARC
8
DEFAULT_255_2_778
10
18.7419675
20
79.5552082
40
2.7986556
50
245.5671866
51
270.0088364
0
ARC
8
DEFAULT_255_2_778
10
18.7446909
20
79.5603947
40
2.8045039
50
239.8134056
51
245.5603585
0
ARC
8
DEFAULT_255_2_778
10
18.7416242
20
79.5558444
40
2.7990287
50
208.0439615
51
239.8208342
0
ARC
8
DEFAULT_255_2_778
10
18.7399078
20
79.5560365
40
2.7976044
50
179.991781
51
208.0639596
0
ARC
8
DEFAULT_255_2_778
10
18.7468211
20
79.5564694
40
2.8045176
50
179.4415777
51
180.0006455
0
LINE
8
DEFAULT_255_2_778
10
23.0925367
20
63.7337027
11
23.0925367
21
57.3337027
0
LINE
8
DEFAULT_255_2_778
10
23.0925367
20
57.3337027
11
23.0925367
21
63.7337027
0
LINE
8
DEFAULT_255_2_778
10
23.0925367
20
63.7337027
11
23.0925367
21
57.3337027
0
LINE
8
DEFAULT_255_2_778
10
23.0925367
20
71.3537027
11
23.0925367
21
64.9537027
0
LINE
8
DEFAULT_255_2_778
10
23.0925367
20
64.9537027
11
23.0925367
21
71.3537027
0
LINE
8
DEFAULT_255_2_778
10
23.0925367
20
71.3537027
11
23.0925367
21
64.9537027
0
LINE
8
DEFAULT_255_2_778
10
27.9532367
20
82.3331027
11
25.8318367
21
84.4545027
0
LINE
8
DEFAULT_255_2_778
10
28.8724367
20
85.3737027
11
24.9126367
21
81.4137027
0
LINE
8
DEFAULT_255_2_778
10
24.0924367
20
83.3936027
11
24.0924367
21
83.3936027
0
LINE
8
DEFAULT_255_2_778
10
23.0923367
20
86.5934027
11
23.0923367
21
80.1934027
0
LINE
8
DEFAULT_255_2_778
10
30.2432367
20
80.1934027
11
23.0925367
21
80.1934027
0
LINE
8
DEFAULT_255_2_778
10
23.0925367
20
80.1934027
11
23.0925367
21
86.5937027
0
LINE
8
DEFAULT_255_2_778
10
23.0925367
20
86.5937027
11
30.2434367
21
86.5937027
0
LINE
8
DEFAULT_255_2_778
10
19.8032367
20
86.1431027
11
17.6818367
21
88.2645027
0
LINE
8
DEFAULT_255_2_778
10
20.7224367
20
89.1837027
11
16.7626367
21
85.2237027
0
LINE
8
DEFAULT_255_2_778
10
15.9424367
20
87.2036027
11
15.9424367
21
87.2036027
0
LINE
8
DEFAULT_255_2_778
10
15.4175367
20
90.4034027
11
15.4175367
21
84.0034027
0
LINE
8
DEFAULT_255_2_778
10
21.8924367
20
84.0034027
11
21.8924367
21
90.4037027
0
LINE
8
DEFAULT_255_2_778
10
21.8924367
20
90.4037027
11
15.4175367
21
90.4037027
0
LINE
8
DEFAULT_255_2_778
10
15.4175367
20
90.4037027
11
15.4175367
21
84.0037027
0
LINE
8
DEFAULT_255_2_778
10
15.4175367
20
84.0037027
11
21.8924367
21
84.0037027
0
LINE
8
DEFAULT_255_2_778
10
19.8032367
20
78.5231027
11
17.6818367
21
80.6445027
0
LINE
8
DEFAULT_255_2_778
10
20.7224367
20
81.5637027
11
16.7626367
21
77.6040027
0
LINE
8
DEFAULT_255_2_778
10
15.9424367
20
79.5838027
11
15.9424367
21
79.5838027
0
LINE
8
DEFAULT_255_2_778
10
15.4175367
20
82.7837027
11
21.8924367
21
82.7837027
0
LINE
8
DEFAULT_255_2_778
10
21.8924367
20
82.7837027
11
21.8924367
21
76.3837027
0
LINE
8
DEFAULT_255_2_778
10
21.8924367
20
76.3837027
11
15.4175367
21
76.3837027
0
LINE
8
DEFAULT_255_2_778
10
15.4175367
20
76.3837027
11
15.4175367
21
82.7837027
0
LINE
8
DEFAULT_255_2_778
10
15.4175367
20
82.7837027
11
15.4175367
21
76.3837027
0
ARC
8
DEFAULT_255_2_778
10
18.7380372
20
71.9668542
40
2.7955804
50
160.6250898
51
180.0625339
0
ARC
8
DEFAULT_255_2_778
10
18.7454987
20
71.9600133
40
2.8048915
50
101.7948804
51
160.5438283
0
ARC
8
DEFAULT_255_2_778
10
18.7409495
20
71.9515672
40
2.8122362
50
89.9692581
51
101.6689794
0
ARC
8
DEFAULT_255_2_778
10
18.7455148
20
71.9683225
40
2.7954822
50
70.624745
51
90.0626432
0
ARC
8
DEFAULT_255_2_778
10
18.7386447
20
71.9608632
40
2.8048009
50
11.7931706
51
70.5429042
0
ARC
8
DEFAULT_255_2_778
10
18.7299328
20
71.9653139
40
2.8124259
50
359.9692211
51
11.6681413
0
ARC
8
DEFAULT_255_2_778
10
18.7468753
20
71.9607547
40
2.7954848
50
340.6254465
51
0.0624783
0
ARC
8
DEFAULT_255_2_778
10
18.7394309
20
71.9675756
40
2.8047734
50
281.7950273
51
340.5444498
0
ARC
8
DEFAULT_255_2_778
10
18.7439684
20
71.9760951
40
2.8121924
50
269.9692358
51
281.6690502
0
ARC
8
DEFAULT_255_2_778
10
18.7394095
20
71.9595083
40
2.7956069
50
250.6252326
51
270.062487
0
ARC
8
DEFAULT_255_2_778
10
18.7462204
20
71.9669364
40
2.8048766
50
191.7961906
51
250.5443211
0
ARC
8
DEFAULT_255_2_778
10
18.7543879
20
71.9622962
40
2.8119298
50
179.9692966
51
191.6696183
0
ARC
8
DEFAULT_255_2_778
10
18.7380372
20
71.9668542
40
2.7955804
50
160.6250898
51
180.0625339
0
ARC
8
DEFAULT_255_2_778
10
18.7454987
20
71.9600133
40
2.8048915
50
101.7948804
51
160.5438283
0
ARC
8
DEFAULT_255_2_778
10
18.7409495
20
71.9515672
40
2.8122362
50
89.9692581
51
101.6689794
0
ARC
8
DEFAULT_255_2_778
10
18.7455148
20
71.9683225
40
2.7954822
50
70.624745
51
90.0626432
0
ARC
8
DEFAULT_255_2_778
10
18.7386447
20
71.9608632
40
2.8048009
50
11.7931706
51
70.5429042
0
ARC
8
DEFAULT_255_2_778
10
18.7299328
20
71.9653139
40
2.8124259
50
359.9692211
51
11.6681413
0
ARC
8
DEFAULT_255_2_778
10
18.7468753
20
71.9607547
40
2.7954848
50
340.6254465
51
0.0624783
0
ARC
8
DEFAULT_255_2_778
10
18.7394309
20
71.9675756
40
2.8047734
50
281.7950273
51
340.5444498
0
ARC
8
DEFAULT_255_2_778
10
18.7439684
20
71.9760951
40
2.8121924
50
269.9692358
51
281.6690502
0
ARC
8
DEFAULT_255_2_778
10
18.7394095
20
71.9595083
40
2.7956069
50
250.6252326
51
270.062487
0
ARC
8
DEFAULT_255_2_778
10
18.7462204
20
71.9669364
40
2.8048766
50
191.7961906
51
250.5443211
0
ARC
8
DEFAULT_255_2_778
10
18.7543879
20
71.9622962
40
2.8119298
50
179.9692966
51
191.6696183
0
LINE
8
DEFAULT_255_2_778
10
19.8032584
20
70.903103
11
17.6818584
21
73.024503
0
LINE
8
DEFAULT_255_2_778
10
20.7224584
20
73.943703
11
16.7626584
21
69.984003
0
LINE
8
DEFAULT_255_2_778
10
15.9424584
20
71.963803
11
15.9424584
21
71.963803
0
LINE
8
DEFAULT_255_2_778
10
15.9424584
20
71.963803
11
15.9424584
21
71.963803
0
LINE
8
DEFAULT_255_2_778
10
21.8924584
20
75.163703
11
15.4175584
21
75.163703
0
LINE
8
DEFAULT_255_2_778
10
15.4175584
20
75.163703
11
21.8924584
21
75.163703
0
LINE
8
DEFAULT_255_2_778
10
21.8924584
20
75.163703
11
21.8924584
21
68.763703
0
LINE
8
DEFAULT_255_2_778
10
21.8924584
20
68.763703
11
15.4175584
21
68.763703
0
LINE
8
DEFAULT_255_2_778
10
15.4175584
20
68.763703
11
15.4175584
21
75.163703
0
LINE
8
DEFAULT_255_2_778
10
15.4175584
20
75.163703
11
15.4175584
21
68.763703
0
LINE
8
DEFAULT_255_2_778
10
15.4175584
20
68.763703
11
21.8924584
21
68.763703
0
ARC
8
DEFAULT_255_2_778
10
26.8879997
20
75.7768511
40
2.7955804
50
160.6250898
51
180.0625339
0
ARC
8
DEFAULT_255_2_778
10
26.8954612
20
75.7700102
40
2.8048915
50
101.7948804
51
160.5438283
0
ARC
8
DEFAULT_255_2_778
10
26.890912
20
75.7615641
40
2.8122362
50
89.9692581
51
101.6689794
0
ARC
8
DEFAULT_255_2_778
10
26.8954665
20
75.7784866
40
2.7953149
50
70.6241591
51
90.0624243
0
ARC
8
DEFAULT_255_2_778
10
26.8885138
20
75.7707664
40
2.8049073
50
11.7946723
51
70.542501
0
ARC
8
DEFAULT_255_2_778
10
26.8800661
20
75.7753078
40
2.8122552
50
359.969278
51
11.6689198
0
ARC
8
DEFAULT_255_2_778
10
26.8969812
20
75.7707566
40
2.7953414
50
340.624302
51
0.0623774
0
ARC
8
DEFAULT_255_2_778
10
26.8892943
20
75.7776793
40
2.8048924
50
281.7959826
51
340.5429938
0
ARC
8
DEFAULT_255_2_778
10
26.8939268
20
75.7858483
40
2.8119488
50
269.9693166
51
281.6695586
0
ARC
8
DEFAULT_255_2_778
10
26.889372
20
75.7695051
40
2.7956069
50
250.6252326
51
270.062487
0
ARC
8
DEFAULT_255_2_778
10
26.8961829
20
75.7769332
40
2.8048766
50
191.7961906
51
250.5443211
0
ARC
8
DEFAULT_255_2_778
10
26.9043504
20
75.7722931
40
2.8119298
50
179.9692966
51
191.6696183
0
LINE
8
DEFAULT_255_2_778
10
27.9532209
20
74.7130999
11
25.8318209
21
76.8344999
0
LINE
8
DEFAULT_255_2_778
10
28.8724209
20
77.7536999
11
24.9126209
21
73.7939999
0
LINE
8
DEFAULT_255_2_778
10
24.0924209
20
75.7737999
11
24.0924209
21
75.7737999
0
LINE
8
DEFAULT_255_2_778
10
23.0923209
20
78.9736999
11
23.0923209
21
72.5736999
0
LINE
8
DEFAULT_255_2_778
10
30.2432209
20
72.5736999
11
23.0926209
21
72.5736999
0
LINE
8
DEFAULT_255_2_778
10
23.0926209
20
72.5736999
11
23.0926209
21
78.9736999
0
LINE
8
DEFAULT_255_2_778
10
23.0926209
20
78.9736999
11
30.2435209
21
78.9736999
0
LINE
8
DEFAULT_255_2_778
10
30.2435209
20
71.3536999
11
23.0926209
21
71.3536999
0
LINE
8
DEFAULT_255_2_778
10
23.0926209
20
71.3536999
11
30.2435209
21
71.3536999
0
ARC
8
DEFAULT_255_2_778
10
26.8880257
20
68.1569042
40
2.7955804
50
160.6250898
51
180.0625339
0
ARC
8
DEFAULT_255_2_778
10
26.8954872
20
68.1500633
40
2.8048915
50
101.7948804
51
160.5438283
0
ARC
8
DEFAULT_255_2_778
10
26.8909381
20
68.1416172
40
2.8122362
50
89.9692581
51
101.6689794
0
ARC
8
DEFAULT_255_2_778
10
26.8954925
20
68.1585398
40
2.7953149
50
70.6241591
51
90.0624243
0
ARC
8
DEFAULT_255_2_778
10
26.8885398
20
68.1508195
40
2.8049073
50
11.7946723
51
70.542501
0
ARC
8
DEFAULT_255_2_778
10
26.8800921
20
68.155361
40
2.8122552
50
359.969278
51
11.6689198
0
ARC
8
DEFAULT_255_2_778
10
26.8970072
20
68.1508098
40
2.7953414
50
340.624302
51
0.0623774
0
ARC
8
DEFAULT_255_2_778
10
26.8893204
20
68.1577325
40
2.8048924
50
281.7959826
51
340.5429938
0
ARC
8
DEFAULT_255_2_778
10
26.8939528
20
68.1659015
40
2.8119488
50
269.9693166
51
281.6695586
0
ARC
8
DEFAULT_255_2_778
10
26.8893981
20
68.1495583
40
2.7956069
50
250.6252326
51
270.062487
0
ARC
8
DEFAULT_255_2_778
10
26.896209
20
68.1569864
40
2.8048766
50
191.7961906
51
250.5443211
0
ARC
8
DEFAULT_255_2_778
10
26.9043764
20
68.1523462
40
2.8119298
50
179.9692966
51
191.6696183
0
ARC
8
DEFAULT_255_2_778
10
26.8880257
20
68.1569042
40
2.7955804
50
160.6250898
51
180.0625339
0
ARC
8
DEFAULT_255_2_778
10
26.8954872
20
68.1500633
40
2.8048915
50
101.7948804
51
160.5438283
0
ARC
8
DEFAULT_255_2_778
10
26.8909381
20
68.1416172
40
2.8122362
50
89.9692581
51
101.6689794
0
ARC
8
DEFAULT_255_2_778
10
26.8954925
20
68.1585398
40
2.7953149
50
70.6241591
51
90.0624243
0
ARC
8
DEFAULT_255_2_778
10
26.8885398
20
68.1508195
40
2.8049073
50
11.7946723
51
70.542501
0
ARC
8
DEFAULT_255_2_778
10
26.8800921
20
68.155361
40
2.8122552
50
359.969278
51
11.6689198
0
ARC
8
DEFAULT_255_2_778
10
26.8970072
20
68.1508098
40
2.7953414
50
340.624302
51
0.0623774
0
ARC
8
DEFAULT_255_2_778
10
26.8893204
20
68.1577325
40
2.8048924
50
281.7959826
51
340.5429938
0
ARC
8
DEFAULT_255_2_778
10
26.8939528
20
68.1659015
40
2.8119488
50
269.9693166
51
281.6695586
0
ARC
8
DEFAULT_255_2_778
10
26.8893981
20
68.1495583
40
2.7956069
50
250.6252326
51
270.062487
0
ARC
8
DEFAULT_255_2_778
10
26.896209
20
68.1569864
40
2.8048766
50
191.7961906
51
250.5443211
0
ARC
8
DEFAULT_255_2_778
10
26.9043764
20
68.1523462
40
2.8119298
50
179.9692966
51
191.6696183
0
LINE
8
DEFAULT_255_2_778
10
27.953247
20
67.093153
11
25.831847
21
69.214653
0
LINE
8
DEFAULT_255_2_778
10
28.872447
20
70.133753
11
24.912647
21
66.174053
0
LINE
8
DEFAULT_255_2_778
10
24.092447
20
68.153853
11
24.092447
21
68.153853
0
LINE
8
DEFAULT_255_2_778
10
24.092447
20
68.153853
11
24.092447
21
68.153853
0
ARC
8
DEFAULT_255_2_778
10
18.7380372
20
64.3468542
40
2.7955804
50
160.6250898
51
180.0625339
0
ARC
8
DEFAULT_255_2_778
10
18.7454987
20
64.3400133
40
2.8048915
50
101.7948804
51
160.5438283
0
ARC
8
DEFAULT_255_2_778
10
18.7409495
20
64.3315672
40
2.8122362
50
89.9692581
51
101.6689794
0
ARC
8
DEFAULT_255_2_778
10
18.7455148
20
64.3483225
40
2.7954822
50
70.624745
51
90.0626432
0
ARC
8
DEFAULT_255_2_778
10
18.7386447
20
64.3408632
40
2.8048009
50
11.7931706
51
70.5429042
0
ARC
8
DEFAULT_255_2_778
10
18.7299328
20
64.3453139
40
2.8124259
50
359.9692211
51
11.6681413
0
ARC
8
DEFAULT_255_2_778
10
18.746708
20
64.3407438
40
2.7956521
50
340.6260324
51
0.0626972
0
ARC
8
DEFAULT_255_2_778
10
18.7395246
20
64.3474822
40
2.804667
50
281.7935255
51
340.544853
0
ARC
8
DEFAULT_255_2_778
10
18.7439713
20
64.3562659
40
2.8123632
50
269.9691789
51
281.6682717
0
ARC
8
DEFAULT_255_2_778
10
18.7394044
20
64.3396516
40
2.7957503
50
250.6263771
51
270.0625879
0
ARC
8
DEFAULT_255_2_778
10
18.7461136
20
64.3468373
40
2.8047576
50
191.7952353
51
250.5457771
0
ARC
8
DEFAULT_255_2_778
10
18.7546315
20
64.3422921
40
2.8121734
50
179.9692159
51
191.6691098
0
ARC
8
DEFAULT_255_2_778
10
18.7380372
20
64.3468542
40
2.7955804
50
160.6250898
51
180.0625339
0
ARC
8
DEFAULT_255_2_778
10
18.7454987
20
64.3400133
40
2.8048915
50
101.7948804
51
160.5438283
0
ARC
8
DEFAULT_255_2_778
10
18.7409495
20
64.3315672
40
2.8122362
50
89.9692581
51
101.6689794
0
ARC
8
DEFAULT_255_2_778
10
18.7455148
20
64.3483225
40
2.7954822
50
70.624745
51
90.0626432
0
ARC
8
DEFAULT_255_2_778
10
18.7386447
20
64.3408632
40
2.8048009
50
11.7931706
51
70.5429042
0
ARC
8
DEFAULT_255_2_778
10
18.7299328
20
64.3453139
40
2.8124259
50
359.9692211
51
11.6681413
0
ARC
8
DEFAULT_255_2_778
10
18.746708
20
64.3407438
40
2.7956521
50
340.6260324
51
0.0626972
0
ARC
8
DEFAULT_255_2_778
10
18.7395246
20
64.3474822
40
2.804667
50
281.7935255
51
340.544853
0
ARC
8
DEFAULT_255_2_778
10
18.7439713
20
64.3562659
40
2.8123632
50
269.9691789
51
281.6682717
0
ARC
8
DEFAULT_255_2_778
10
18.7394044
20
64.3396516
40
2.7957503
50
250.6263771
51
270.0625879
0
ARC
8
DEFAULT_255_2_778
10
18.7461136
20
64.3468373
40
2.8047576
50
191.7952353
51
250.5457771
0
ARC
8
DEFAULT_255_2_778
10
18.7546315
20
64.3422921
40
2.8121734
50
179.9692159
51
191.6691098
0
LINE
8
DEFAULT_255_2_778
10
19.8032584
20
63.283103
11
17.6818584
21
65.404503
0
LINE
8
DEFAULT_255_2_778
10
20.7224584
20
66.323703
11
16.7626584
21
62.364003
0
LINE
8
DEFAULT_255_2_778
10
15.9424584
20
64.343803
11
15.9424584
21
64.343803
0
LINE
8
DEFAULT_255_2_778
10
15.9424584
20
64.343803
11
15.9424584
21
64.343803
0
LINE
8
DEFAULT_255_2_778
10
21.8924584
20
67.543703
11
15.4175584
21
67.543703
0
LINE
8
DEFAULT_255_2_778
10
15.4175584
20
67.543703
11
21.8924584
21
67.543703
0
LINE
8
DEFAULT_255_2_778
10
21.8924584
20
67.543703
11
21.8924584
21
61.143703
0
LINE
8
DEFAULT_255_2_778
10
21.8924584
20
61.143703
11
15.4175584
21
61.143703
0
LINE
8
DEFAULT_255_2_778
10
15.4175584
20
61.143703
11
15.4175584
21
67.543703
0
LINE
8
DEFAULT_255_2_778
10
15.4175584
20
67.543703
11
15.4175584
21
61.143703
0
LINE
8
DEFAULT_255_2_778
10
15.4175584
20
61.143703
11
21.8924584
21
61.143703
0
ARC
8
DEFAULT_255_2_778
10
18.7377717
20
56.7269486
40
2.7953149
50
160.6241591
51
180.0624243
0
ARC
8
DEFAULT_255_2_778
10
18.745492
20
56.7199959
40
2.8049073
50
101.7946723
51
160.542501
0
ARC
8
DEFAULT_255_2_778
10
18.7409505
20
56.7115482
40
2.8122552
50
89.969278
51
101.6689198
0
ARC
8
DEFAULT_255_2_778
10
18.7455125
20
56.728296
40
2.7955087
50
70.6248878
51
90.0625963
0
ARC
8
DEFAULT_255_2_778
10
18.7386725
20
56.7208702
40
2.804786
50
11.7944808
51
70.543397
0
ARC
8
DEFAULT_255_2_778
10
18.7302393
20
56.7254118
40
2.8121195
50
359.9692596
51
11.6687801
0
ARC
8
DEFAULT_255_2_778
10
18.7466098
20
56.7208491
40
2.7957503
50
340.6263771
51
0.0625879
0
ARC
8
DEFAULT_255_2_778
10
18.7394241
20
56.7275582
40
2.8047576
50
281.7952353
51
340.5457771
0
ARC
8
DEFAULT_255_2_778
10
18.7439694
20
56.7360761
40
2.8121734
50
269.9692159
51
281.6691098
0
ARC
8
DEFAULT_255_2_778
10
18.7394073
20
56.7194818
40
2.7955804
50
250.6250898
51
270.0625339
0
ARC
8
DEFAULT_255_2_778
10
18.7462481
20
56.7269433
40
2.8048915
50
191.7948804
51
250.5438283
0
ARC
8
DEFAULT_255_2_778
10
18.7546943
20
56.7223941
40
2.8122362
50
179.9692581
51
191.6689794
0
LINE
8
DEFAULT_255_2_778
10
19.8032584
20
55.663203
11
17.6818584
21
57.784603
0
LINE
8
DEFAULT_255_2_778
10
20.7224584
20
58.703703
11
16.7626584
21
54.744003
0
LINE
8
DEFAULT_255_2_778
10
15.9424584
20
56.723903
11
15.9424584
21
56.723903
0
LINE
8
DEFAULT_255_2_778
10
21.8924584
20
53.524003
11
21.8924584
21
59.924003
0
LINE
8
DEFAULT_255_2_778
10
21.8924584
20
59.924003
11
15.4175584
21
59.924003
0
LINE
8
DEFAULT_255_2_778
10
15.4175584
20
59.924003
11
15.4175584
21
53.524003
0
LINE
8
DEFAULT_255_2_778
10
15.4175584
20
53.524003
11
21.8924584
21
53.524003
0
ARC
8
DEFAULT_255_2_778
10
18.7377717
20
49.1069486
40
2.7953149
50
160.6241591
51
180.0624243
0
ARC
8
DEFAULT_255_2_778
10
18.745492
20
49.0999959
40
2.8049073
50
101.7946723
51
160.542501
0
ARC
8
DEFAULT_255_2_778
10
18.7409505
20
49.0915482
40
2.8122552
50
89.969278
51
101.6689198
0
ARC
8
DEFAULT_255_2_778
10
18.7455125
20
49.108296
40
2.7955087
50
70.6248878
51
90.0625963
0
ARC
8
DEFAULT_255_2_778
10
18.7386725
20
49.1008702
40
2.804786
50
11.7944808
51
70.543397
0
ARC
8
DEFAULT_255_2_778
10
18.7302393
20
49.1054118
40
2.8121195
50
359.9692596
51
11.6687801
0
ARC
8
DEFAULT_255_2_778
10
18.7466098
20
49.1008491
40
2.7957503
50
340.6263771
51
0.0625879
0
ARC
8
DEFAULT_255_2_778
10
18.7394241
20
49.1075582
40
2.8047576
50
281.7952353
51
340.5457771
0
ARC
8
DEFAULT_255_2_778
10
18.7439694
20
49.1160761
40
2.8121734
50
269.9692159
51
281.6691098
0
ARC
8
DEFAULT_255_2_778
10
18.7394073
20
49.0994818
40
2.7955804
50
250.6250898
51
270.0625339
0
ARC
8
DEFAULT_255_2_778
10
18.7462481
20
49.1069433
40
2.8048915
50
191.7948804
51
250.5438283
0
ARC
8
DEFAULT_255_2_778
10
18.7546943
20
49.1023941
40
2.8122362
50
179.9692581
51
191.6689794
0
LINE
8
DEFAULT_255_2_778
10
19.8032584
20
48.043203
11
17.6818584
21
50.164603
0
LINE
8
DEFAULT_255_2_778
10
20.7224584
20
51.083703
11
16.7626584
21
47.124003
0
LINE
8
DEFAULT_255_2_778
10
15.9424584
20
49.103903
11
15.9424584
21
49.103903
0
LINE
8
DEFAULT_255_2_778
10
21.8924584
20
45.904003
11
21.8924584
21
52.304003
0
LINE
8
DEFAULT_255_2_778
10
21.8924584
20
52.304003
11
15.4175584
21
52.304003
0
LINE
8
DEFAULT_255_2_778
10
15.4175584
20
52.304003
11
15.4175584
21
45.904003
0
LINE
8
DEFAULT_255_2_778
10
15.4175584
20
45.904003
11
21.8924584
21
45.904003
0
ARC
8
DEFAULT_255_2_778
10
18.7380372
20
41.4868542
40
2.7955804
50
160.6250898
51
180.0625339
0
ARC
8
DEFAULT_255_2_778
10
18.7454987
20
41.4800133
40
2.8048915
50
101.7948804
51
160.5438283
0
ARC
8
DEFAULT_255_2_778
10
18.7409495
20
41.4715672
40
2.8122362
50
89.9692581
51
101.6689794
0
ARC
8
DEFAULT_255_2_778
10
18.7455148
20
41.4883225
40
2.7954822
50
70.624745
51
90.0626432
0
ARC
8
DEFAULT_255_2_778
10
18.7386447
20
41.4808632
40
2.8048009
50
11.7931706
51
70.5429042
0
ARC
8
DEFAULT_255_2_778
10
18.7299328
20
41.4853139
40
2.8124259
50
359.9692211
51
11.6681413
0
ARC
8
DEFAULT_255_2_778
10
18.7468753
20
41.4807547
40
2.7954848
50
340.6254465
51
0.0624783
0
ARC
8
DEFAULT_255_2_778
10
18.7394309
20
41.4875756
40
2.8047734
50
281.7950273
51
340.5444498
0
ARC
8
DEFAULT_255_2_778
10
18.7439684
20
41.4960951
40
2.8121924
50
269.9692358
51
281.6690502
0
ARC
8
DEFAULT_255_2_778
10
18.7394095
20
41.4795083
40
2.7956069
50
250.6252326
51
270.062487
0
ARC
8
DEFAULT_255_2_778
10
18.7462204
20
41.4869364
40
2.8048766
50
191.7961906
51
250.5443211
0
ARC
8
DEFAULT_255_2_778
10
18.7543879
20
41.4822962
40
2.8119298
50
179.9692966
51
191.6696183
0
ARC
8
DEFAULT_255_2_778
10
18.7380372
20
41.4868542
40
2.7955804
50
160.6250898
51
180.0625339
0
ARC
8
DEFAULT_255_2_778
10
18.7454987
20
41.4800133
40
2.8048915
50
101.7948804
51
160.5438283
0
ARC
8
DEFAULT_255_2_778
10
18.7409495
20
41.4715672
40
2.8122362
50
89.9692581
51
101.6689794
0
ARC
8
DEFAULT_255_2_778
10
18.7455148
20
41.4883225
40
2.7954822
50
70.624745
51
90.0626432
0
ARC
8
DEFAULT_255_2_778
10
18.7386447
20
41.4808632
40
2.8048009
50
11.7931706
51
70.5429042
0
ARC
8
DEFAULT_255_2_778
10
18.7299328
20
41.4853139
40
2.8124259
50
359.9692211
51
11.6681413
0
ARC
8
DEFAULT_255_2_778
10
18.7468753
20
41.4807547
40
2.7954848
50
340.6254465
51
0.0624783
0
ARC
8
DEFAULT_255_2_778
10
18.7394309
20
41.4875756
40
2.8047734
50
281.7950273
51
340.5444498
0
ARC
8
DEFAULT_255_2_778
10
18.7439684
20
41.4960951
40
2.8121924
50
269.9692358
51
281.6690502
0
ARC
8
DEFAULT_255_2_778
10
18.7394095
20
41.4795083
40
2.7956069
50
250.6252326
51
270.062487
0
ARC
8
DEFAULT_255_2_778
10
18.7462204
20
41.4869364
40
2.8048766
50
191.7961906
51
250.5443211
0
ARC
8
DEFAULT_255_2_778
10
18.7543879
20
41.4822962
40
2.8119298
50
179.9692966
51
191.6696183
0
LINE
8
DEFAULT_255_2_778
10
19.8032584
20
40.423103
11
17.6818584
21
42.544503
0
LINE
8
DEFAULT_255_2_778
10
20.7224584
20
43.463703
11
16.7626584
21
39.504003
0
LINE
8
DEFAULT_255_2_778
10
15.9424584
20
41.483803
11
15.9424584
21
41.483803
0
LINE
8
DEFAULT_255_2_778
10
15.9424584
20
41.483803
11
15.9424584
21
41.483803
0
LINE
8
DEFAULT_255_2_778
10
21.8924584
20
44.683703
11
15.4175584
21
44.683703
0
LINE
8
DEFAULT_255_2_778
10
15.4175584
20
44.683703
11
21.8924584
21
44.683703
0
LINE
8
DEFAULT_255_2_778
10
21.8924584
20
44.683703
11
21.8924584
21
38.283703
0
LINE
8
DEFAULT_255_2_778
10
21.8924584
20
38.283703
11
15.4175584
21
38.283703
0
LINE
8
DEFAULT_255_2_778
10
15.4175584
20
38.283703
11
15.4175584
21
44.683703
0
LINE
8
DEFAULT_255_2_778
10
15.4175584
20
44.683703
11
15.4175584
21
38.283703
0
LINE
8
DEFAULT_255_2_778
10
15.4175584
20
38.283703
11
21.8924584
21
38.283703
0
ARC
8
DEFAULT_255_2_778
10
18.7380372
20
33.8668542
40
2.7955804
50
160.6250898
51
180.0625339
0
ARC
8
DEFAULT_255_2_778
10
18.7454987
20
33.8600133
40
2.8048915
50
101.7948804
51
160.5438283
0
ARC
8
DEFAULT_255_2_778
10
18.7409495
20
33.8515672
40
2.8122362
50
89.9692581
51
101.6689794
0
ARC
8
DEFAULT_255_2_778
10
18.7455148
20
33.8683225
40
2.7954822
50
70.624745
51
90.0626432
0
ARC
8
DEFAULT_255_2_778
10
18.7386447
20
33.8608632
40
2.8048009
50
11.7931706
51
70.5429042
0
ARC
8
DEFAULT_255_2_778
10
18.7299328
20
33.8653139
40
2.8124259
50
359.9692211
51
11.6681413
0
ARC
8
DEFAULT_255_2_778
10
18.7468753
20
33.8607547
40
2.7954848
50
340.6254465
51
0.0624783
0
ARC
8
DEFAULT_255_2_778
10
18.7394309
20
33.8675756
40
2.8047734
50
281.7950273
51
340.5444498
0
ARC
8
DEFAULT_255_2_778
10
18.7439684
20
33.8760951
40
2.8121924
50
269.9692358
51
281.6690502
0
ARC
8
DEFAULT_255_2_778
10
18.7394095
20
33.8595083
40
2.7956069
50
250.6252326
51
270.062487
0
ARC
8
DEFAULT_255_2_778
10
18.7462204
20
33.8669364
40
2.8048766
50
191.7961906
51
250.5443211
0
ARC
8
DEFAULT_255_2_778
10
18.7543879
20
33.8622962
40
2.8119298
50
179.9692966
51
191.6696183
0
ARC
8
DEFAULT_255_2_778
10
18.7380372
20
33.8668542
40
2.7955804
50
160.6250898
51
180.0625339
0
ARC
8
DEFAULT_255_2_778
10
18.7454987
20
33.8600133
40
2.8048915
50
101.7948804
51
160.5438283
0
ARC
8
DEFAULT_255_2_778
10
18.7409495
20
33.8515672
40
2.8122362
50
89.9692581
51
101.6689794
0
ARC
8
DEFAULT_255_2_778
10
18.7455148
20
33.8683225
40
2.7954822
50
70.624745
51
90.0626432
0
ARC
8
DEFAULT_255_2_778
10
18.7386447
20
33.8608632
40
2.8048009
50
11.7931706
51
70.5429042
0
ARC
8
DEFAULT_255_2_778
10
18.7299328
20
33.8653139
40
2.8124259
50
359.9692211
51
11.6681413
0
ARC
8
DEFAULT_255_2_778
10
18.7468753
20
33.8607547
40
2.7954848
50
340.6254465
51
0.0624783
0
ARC
8
DEFAULT_255_2_778
10
18.7394309
20
33.8675756
40
2.8047734
50
281.7950273
51
340.5444498
0
ARC
8
DEFAULT_255_2_778
10
18.7439684
20
33.8760951
40
2.8121924
50
269.9692358
51
281.6690502
0
ARC
8
DEFAULT_255_2_778
10
18.7394095
20
33.8595083
40
2.7956069
50
250.6252326
51
270.062487
0
ARC
8
DEFAULT_255_2_778
10
18.7462204
20
33.8669364
40
2.8048766
50
191.7961906
51
250.5443211
0
ARC
8
DEFAULT_255_2_778
10
18.7543879
20
33.8622962
40
2.8119298
50
179.9692966
51
191.6696183
0
LINE
8
DEFAULT_255_2_778
10
19.8032584
20
32.803103
11
17.6818584
21
34.924503
0
LINE
8
DEFAULT_255_2_778
10
20.7224584
20
35.843703
11
16.7626584
21
31.884003
0
LINE
8
DEFAULT_255_2_778
10
15.9424584
20
33.863803
11
15.9424584
21
33.863803
0
LINE
8
DEFAULT_255_2_778
10
15.9424584
20
33.863803
11
15.9424584
21
33.863803
0
LINE
8
DEFAULT_255_2_778
10
21.8924584
20
37.063703
11
15.4175584
21
37.063703
0
LINE
8
DEFAULT_255_2_778
10
15.4175584
20
37.063703
11
21.8924584
21
37.063703
0
LINE
8
DEFAULT_255_2_778
10
21.8924584
20
37.063703
11
21.8924584
21
30.663703
0
LINE
8
DEFAULT_255_2_778
10
21.8924584
20
30.663703
11
15.4175584
21
30.663703
0
LINE
8
DEFAULT_255_2_778
10
15.4175584
20
30.663703
11
15.4175584
21
37.063703
0
LINE
8
DEFAULT_255_2_778
10
15.4175584
20
37.063703
11
15.4175584
21
30.663703
0
LINE
8
DEFAULT_255_2_778
10
15.4175584
20
30.663703
11
21.8924584
21
30.663703
0
ARC
8
DEFAULT_255_2_778
10
18.7468236
20
26.2711363
40
2.8045201
50
179.9993544
51
180.5584222
0
ARC
8
DEFAULT_255_2_778
10
18.7424745
20
26.2709633
40
2.8001711
50
123.9965018
51
179.9958136
0
ARC
8
DEFAULT_255_2_778
10
18.7455257
20
26.2653831
40
2.8065035
50
120.182563
51
123.9844478
0
ARC
8
DEFAULT_255_2_778
10
18.7416279
20
26.2738515
40
2.7972237
50
102.1459826
51
120.2007556
0
ARC
8
DEFAULT_255_2_778
10
18.7423173
20
26.2697243
40
2.8014036
50
89.9983264
51
102.1420074
0
LINE
8
DEFAULT_255_2_778
10
18.7423992
20
29.071128
11
18.7427555
21
29.071128
0
ARC
8
DEFAULT_255_2_778
10
18.7427991
20
26.2726012
40
2.7985267
50
65.5627656
51
90.0008942
0
ARC
8
DEFAULT_255_2_778
10
18.7398667
20
26.2668736
40
2.8049543
50
59.8112969
51
65.5566337
0
ARC
8
DEFAULT_255_2_778
10
18.7437736
20
26.2723335
40
2.7982703
50
27.5772583
51
59.8242273
0
ARC
8
DEFAULT_255_2_778
10
18.7445414
20
26.2716024
40
2.7979285
50
359.9912072
51
27.5978069
0
ARC
8
DEFAULT_255_2_778
10
18.7368916
20
26.2711414
40
2.8055783
50
359.4416838
51
0.0006454
0
ARC
8
DEFAULT_255_2_778
10
18.7368941
20
26.2164646
40
2.8055758
50
359.9993546
51
0.5583163
0
ARC
8
DEFAULT_255_2_778
10
18.742301
20
26.2165912
40
2.8001689
50
303.9989132
51
359.9967634
0
ARC
8
DEFAULT_255_2_778
10
18.7387521
20
26.2227723
40
2.8072778
50
300.1874306
51
303.9884179
0
ARC
8
DEFAULT_255_2_778
10
18.7431303
20
26.2147082
40
2.798106
50
282.1475488
51
300.1929693
0
ARC
8
DEFAULT_255_2_778
10
18.7424785
20
26.2186339
40
2.8020809
50
270.0056632
51
282.1436864
0
LINE
8
DEFAULT_255_2_778
10
18.7427555
20
23.416553
11
18.7423992
21
23.416553
0
ARC
8
DEFAULT_255_2_778
10
18.7419675
20
26.2152086
40
2.7986556
50
245.5671866
51
270.0088364
0
ARC
8
DEFAULT_255_2_778
10
18.7446909
20
26.220395
40
2.8045039
50
239.8134056
51
245.5603585
0
ARC
8
DEFAULT_255_2_778
10
18.7416242
20
26.2158447
40
2.7990287
50
208.0439615
51
239.8208342
0
ARC
8
DEFAULT_255_2_778
10
18.7399078
20
26.2160368
40
2.7976044
50
179.991781
51
208.0639596
0
ARC
8
DEFAULT_255_2_778
10
18.7468211
20
26.2164697
40
2.8045176
50
179.4415777
51
180.0006455
0
ARC
8
DEFAULT_255_2_778
10
26.8912316
20
22.4341488
40
2.798795
50
146.7462174
51
180.0070803
0
ARC
8
DEFAULT_255_2_778
10
26.8910205
20
22.4354042
40
2.7979301
50
119.9909843
51
146.7653449
0
ARC
8
DEFAULT_255_2_778
10
26.8915994
20
22.4361254
40
2.7975951
50
101.6034983
51
120.0086357
0
ARC
8
DEFAULT_255_2_778
10
26.8923162
20
22.4318825
40
2.8018956
50
89.9985589
51
101.6004056
0
ARC
8
DEFAULT_255_2_778
10
26.8927953
20
22.4351199
40
2.7986581
50
65.717115
51
90.0083652
0
ARC
8
DEFAULT_255_2_778
10
26.8901273
20
22.4299754
40
2.8044445
50
60.0003039
51
65.7106537
0
ARC
8
DEFAULT_255_2_778
10
26.8931263
20
22.4346404
40
2.798905
50
27.2095563
51
60.0057237
0
ARC
8
DEFAULT_255_2_778
10
26.8945723
20
22.4343228
40
2.7977644
50
359.989354
51
27.2288798
0
ARC
8
DEFAULT_255_2_778
10
26.8938823
20
22.4334222
40
2.7984544
50
327.2080686
51
0.0077953
0
ARC
8
DEFAULT_255_2_778
10
26.8936917
20
22.4324465
40
2.7980863
50
299.9905869
51
327.226978
0
ARC
8
DEFAULT_255_2_778
10
26.8931273
20
22.431155
40
2.7972499
50
281.605925
51
300.0138221
0
ARC
8
DEFAULT_255_2_778
10
26.8924573
20
22.4352007
40
2.8013478
50
269.9985562
51
281.602703
0
ARC
8
DEFAULT_255_2_778
10
26.8919858
20
22.432036
40
2.798183
50
245.7125537
51
270.0082085
0
ARC
8
DEFAULT_255_2_778
10
26.8947727
20
22.4374644
40
2.8042773
50
239.9953428
51
245.7062713
0
ARC
8
DEFAULT_255_2_778
10
26.8916246
20
22.4331083
40
2.7989308
50
207.2115815
51
240.0065582
0
ARC
8
DEFAULT_255_2_778
10
26.889955
20
22.4332666
40
2.7975184
50
179.9890139
51
207.2301014
0
LINE
8
DEFAULT_255_2_778
10
19.8032367
20
25.183103
11
17.6818367
21
27.304503
0
LINE
8
DEFAULT_255_2_778
10
20.7224367
20
28.223703
11
16.7626367
21
24.264003
0
LINE
8
DEFAULT_255_2_778
10
15.9424367
20
26.243803
11
15.9424367
21
26.243803
0
LINE
8
DEFAULT_255_2_778
10
15.4175367
20
29.443703
11
21.8924367
21
29.443703
0
LINE
8
DEFAULT_255_2_778
10
21.8924367
20
29.443703
11
21.8924367
21
23.043703
0
LINE
8
DEFAULT_255_2_778
10
21.8924367
20
23.043703
11
15.4175367
21
23.043703
0
LINE
8
DEFAULT_255_2_778
10
15.4175367
20
23.043703
11
15.4175367
21
29.443703
0
LINE
8
DEFAULT_255_2_778
10
15.4175367
20
29.443703
11
15.4175367
21
23.043703
0
LINE
8
DEFAULT_255_2_778
10
27.9532367
20
21.373103
11
25.8318367
21
23.494503
0
LINE
8
DEFAULT_255_2_778
10
28.8724367
20
24.413703
11
24.9126367
21
20.454003
0
LINE
8
DEFAULT_255_2_778
10
24.0924367
20
22.433803
11
24.0924367
21
22.433803
0
LINE
8
DEFAULT_255_2_778
10
23.0923367
20
25.633703
11
23.0923367
21
19.233703
0
LINE
8
DEFAULT_255_2_778
10
30.2432367
20
25.633703
11
23.0925367
21
25.633703
0
LINE
8
DEFAULT_255_2_778
10
23.0925367
20
25.633703
11
23.0925367
21
19.233703
0
LINE
8
DEFAULT_255_2_778
10
23.0925367
20
19.233703
11
25.9434367
21
19.233703
0
LINE
8
DEFAULT_255_2_778
10
30.2434367
20
26.853703
11
23.0925367
21
26.853703
0
LINE
8
DEFAULT_255_2_778
10
23.0925367
20
26.853703
11
30.2434367
21
26.853703
0
ARC
8
DEFAULT_255_2_778
10
26.8880257
20
30.0569042
40
2.7955804
50
160.6250898
51
180.0625339
0
ARC
8
DEFAULT_255_2_778
10
26.8954872
20
30.0500633
40
2.8048915
50
101.7948804
51
160.5438283
0
ARC
8
DEFAULT_255_2_778
10
26.8909381
20
30.0416172
40
2.8122362
50
89.9692581
51
101.6689794
0
ARC
8
DEFAULT_255_2_778
10
26.8954925
20
30.0585398
40
2.7953149
50
70.6241591
51
90.0624243
0
ARC
8
DEFAULT_255_2_778
10
26.8885398
20
30.0508195
40
2.8049073
50
11.7946723
51
70.542501
0
ARC
8
DEFAULT_255_2_778
10
26.8800921
20
30.055361
40
2.8122552
50
359.969278
51
11.6689198
0
ARC
8
DEFAULT_255_2_778
10
26.8970072
20
30.0508098
40
2.7953414
50
340.624302
51
0.0623774
0
ARC
8
DEFAULT_255_2_778
10
26.8893204
20
30.0577325
40
2.8048924
50
281.7959826
51
340.5429938
0
ARC
8
DEFAULT_255_2_778
10
26.8939528
20
30.0659015
40
2.8119488
50
269.9693166
51
281.6695586
0
ARC
8
DEFAULT_255_2_778
10
26.8893981
20
30.0495583
40
2.7956069
50
250.6252326
51
270.062487
0
ARC
8
DEFAULT_255_2_778
10
26.896209
20
30.0569864
40
2.8048766
50
191.7961906
51
250.5443211
0
ARC
8
DEFAULT_255_2_778
10
26.9043764
20
30.0523462
40
2.8119298
50
179.9692966
51
191.6696183
0
ARC
8
DEFAULT_255_2_778
10
26.8880257
20
30.0569042
40
2.7955804
50
160.6250898
51
180.0625339
0
ARC
8
DEFAULT_255_2_778
10
26.8954872
20
30.0500633
40
2.8048915
50
101.7948804
51
160.5438283
0
ARC
8
DEFAULT_255_2_778
10
26.8909381
20
30.0416172
40
2.8122362
50
89.9692581
51
101.6689794
0
ARC
8
DEFAULT_255_2_778
10
26.8954925
20
30.0585398
40
2.7953149
50
70.6241591
51
90.0624243
0
ARC
8
DEFAULT_255_2_778
10
26.8885398
20
30.0508195
40
2.8049073
50
11.7946723
51
70.542501
0
ARC
8
DEFAULT_255_2_778
10
26.8800921
20
30.055361
40
2.8122552
50
359.969278
51
11.6689198
0
ARC
8
DEFAULT_255_2_778
10
26.8970072
20
30.0508098
40
2.7953414
50
340.624302
51
0.0623774
0
ARC
8
DEFAULT_255_2_778
10
26.8893204
20
30.0577325
40
2.8048924
50
281.7959826
51
340.5429938
0
ARC
8
DEFAULT_255_2_778
10
26.8939528
20
30.0659015
40
2.8119488
50
269.9693166
51
281.6695586
0
ARC
8
DEFAULT_255_2_778
10
26.8893981
20
30.0495583
40
2.7956069
50
250.6252326
51
270.062487
0
ARC
8
DEFAULT_255_2_778
10
26.896209
20
30.0569864
40
2.8048766
50
191.7961906
51
250.5443211
0
ARC
8
DEFAULT_255_2_778
10
26.9043764
20
30.0523462
40
2.8119298
50
179.9692966
51
191.6696183
0
LINE
8
DEFAULT_255_2_778
10
27.953247
20
28.993153
11
25.831847
21
31.114653
0
LINE
8
DEFAULT_255_2_778
10
28.872447
20
32.033753
11
24.912647
21
28.074053
0
LINE
8
DEFAULT_255_2_778
10
24.092447
20
30.053853
11
24.092447
21
30.053853
0
LINE
8
DEFAULT_255_2_778
10
24.092447
20
30.053853
11
24.092447
21
30.053853
0
ARC
8
DEFAULT_255_2_778
10
26.8910701
20
37.6742257
40
2.7986492
50
147.2092412
51
180.0084768
0
ARC
8
DEFAULT_255_2_778
10
26.8910311
20
37.6753195
40
2.7980242
50
119.9904959
51
147.2276364
0
ARC
8
DEFAULT_255_2_778
10
26.8915836
20
37.6761341
40
2.7975951
50
101.6034983
51
120.0086357
0
ARC
8
DEFAULT_255_2_778
10
26.8923005
20
37.6718912
40
2.8018956
50
89.9985589
51
101.6004056
0
ARC
8
DEFAULT_255_2_778
10
26.8927795
20
37.6751286
40
2.7986581
50
65.717115
51
90.0083652
0
ARC
8
DEFAULT_255_2_778
10
26.8901116
20
37.6699841
40
2.8044445
50
60.0003039
51
65.7106537
0
ARC
8
DEFAULT_255_2_778
10
26.893493
20
37.6748945
40
2.7985012
50
27.2090926
51
60.0099932
0
ARC
8
DEFAULT_255_2_778
10
26.8944175
20
37.6744038
40
2.7979036
50
359.9878748
51
27.2266855
0
ARC
8
DEFAULT_255_2_778
10
26.8938145
20
37.6733832
40
2.7985065
50
327.2099176
51
0.0087717
0
ARC
8
DEFAULT_255_2_778
10
26.8939946
20
37.6722259
40
2.7977284
50
299.9872832
51
327.2278458
0
ARC
8
DEFAULT_255_2_778
10
26.8931582
20
37.6715893
40
2.7975951
50
281.6034983
51
300.0086357
0
ARC
8
DEFAULT_255_2_778
10
26.8924414
20
37.6758322
40
2.8018956
50
269.9985589
51
281.6004056
0
ARC
8
DEFAULT_255_2_778
10
26.8919623
20
37.6725947
40
2.7986581
50
245.717115
51
270.0083652
0
ARC
8
DEFAULT_255_2_778
10
26.8946303
20
37.6777393
40
2.8044445
50
240.0003039
51
245.7106537
0
ARC
8
DEFAULT_255_2_778
10
26.8916089
20
37.673117
40
2.7989308
50
207.2115815
51
240.0065582
0
ARC
8
DEFAULT_255_2_778
10
26.8899392
20
37.6732753
40
2.7975184
50
179.9890139
51
207.2301014
0
ARC
8
DEFAULT_255_2_778
10
26.8910701
20
37.6742257
40
2.7986492
50
147.2092412
51
180.0084768
0
ARC
8
DEFAULT_255_2_778
10
26.8910311
20
37.6753195
40
2.7980242
50
119.9904959
51
147.2276364
0
ARC
8
DEFAULT_255_2_778
10
26.8915836
20
37.6761341
40
2.7975951
50
101.6034983
51
120.0086357
0
ARC
8
DEFAULT_255_2_778
10
26.8923005
20
37.6718912
40
2.8018956
50
89.9985589
51
101.6004056
0
ARC
8
DEFAULT_255_2_778
10
26.8927795
20
37.6751286
40
2.7986581
50
65.717115
51
90.0083652
0
ARC
8
DEFAULT_255_2_778
10
26.8901116
20
37.6699841
40
2.8044445
50
60.0003039
51
65.7106537
0
ARC
8
DEFAULT_255_2_778
10
26.893493
20
37.6748945
40
2.7985012
50
27.2090926
51
60.0099932
0
ARC
8
DEFAULT_255_2_778
10
26.8944175
20
37.6744038
40
2.7979036
50
359.9878748
51
27.2266855
0
ARC
8
DEFAULT_255_2_778
10
26.8938145
20
37.6733832
40
2.7985065
50
327.2099176
51
0.0087717
0
ARC
8
DEFAULT_255_2_778
10
26.8939946
20
37.6722259
40
2.7977284
50
299.9872832
51
327.2278458
0
ARC
8
DEFAULT_255_2_778
10
26.8931582
20
37.6715893
40
2.7975951
50
281.6034983
51
300.0086357
0
ARC
8
DEFAULT_255_2_778
10
26.8924414
20
37.6758322
40
2.8018956
50
269.9985589
51
281.6004056
0
ARC
8
DEFAULT_255_2_778
10
26.8919623
20
37.6725947
40
2.7986581
50
245.717115
51
270.0083652
0
ARC
8
DEFAULT_255_2_778
10
26.8946303
20
37.6777393
40
2.8044445
50
240.0003039
51
245.7106537
0
ARC
8
DEFAULT_255_2_778
10
26.8916089
20
37.673117
40
2.7989308
50
207.2115815
51
240.0065582
0
ARC
8
DEFAULT_255_2_778
10
26.8899392
20
37.6732753
40
2.7975184
50
179.9890139
51
207.2301014
0
ARC
8
DEFAULT_255_2_778
10
26.8910701
20
45.2942257
40
2.7986492
50
147.2092412
51
180.0084768
0
ARC
8
DEFAULT_255_2_778
10
26.8910311
20
45.2953195
40
2.7980242
50
119.9904959
51
147.2276364
0
ARC
8
DEFAULT_255_2_778
10
26.8915836
20
45.2961341
40
2.7975951
50
101.6034983
51
120.0086357
0
ARC
8
DEFAULT_255_2_778
10
26.8923005
20
45.2918912
40
2.8018956
50
89.9985589
51
101.6004056
0
ARC
8
DEFAULT_255_2_778
10
26.8927795
20
45.2951286
40
2.7986581
50
65.717115
51
90.0083652
0
ARC
8
DEFAULT_255_2_778
10
26.8901116
20
45.2899841
40
2.8044445
50
60.0003039
51
65.7106537
0
ARC
8
DEFAULT_255_2_778
10
26.893493
20
45.2948945
40
2.7985012
50
27.2090926
51
60.0099932
0
ARC
8
DEFAULT_255_2_778
10
26.8944175
20
45.2944038
40
2.7979036
50
359.9878748
51
27.2266855
0
ARC
8
DEFAULT_255_2_778
10
26.8938145
20
45.2933832
40
2.7985065
50
327.2099176
51
0.0087717
0
ARC
8
DEFAULT_255_2_778
10
26.8939946
20
45.2922259
40
2.7977284
50
299.9872832
51
327.2278458
0
ARC
8
DEFAULT_255_2_778
10
26.8931582
20
45.2915893
40
2.7975951
50
281.6034983
51
300.0086357
0
ARC
8
DEFAULT_255_2_778
10
26.8924414
20
45.2958322
40
2.8018956
50
269.9985589
51
281.6004056
0
ARC
8
DEFAULT_255_2_778
10
26.8919623
20
45.2925947
40
2.7986581
50
245.717115
51
270.0083652
0
ARC
8
DEFAULT_255_2_778
10
26.8946303
20
45.2977393
40
2.8044445
50
240.0003039
51
245.7106537
0
ARC
8
DEFAULT_255_2_778
10
26.8916089
20
45.293117
40
2.7989308
50
207.2115815
51
240.0065582
0
ARC
8
DEFAULT_255_2_778
10
26.8899392
20
45.2932753
40
2.7975184
50
179.9890139
51
207.2301014
0
ARC
8
DEFAULT_255_2_778
10
26.8910701
20
52.9142257
40
2.7986492
50
147.2092412
51
180.0084768
0
ARC
8
DEFAULT_255_2_778
10
26.8910311
20
52.9153195
40
2.7980242
50
119.9904959
51
147.2276364
0
ARC
8
DEFAULT_255_2_778
10
26.8915836
20
52.9161341
40
2.7975951
50
101.6034983
51
120.0086357
0
ARC
8
DEFAULT_255_2_778
10
26.8923005
20
52.9118912
40
2.8018956
50
89.9985589
51
101.6004056
0
ARC
8
DEFAULT_255_2_778
10
26.8927795
20
52.9151286
40
2.7986581
50
65.717115
51
90.0083652
0
ARC
8
DEFAULT_255_2_778
10
26.8901116
20
52.9099841
40
2.8044445
50
60.0003039
51
65.7106537
0
ARC
8
DEFAULT_255_2_778
10
26.893493
20
52.9148945
40
2.7985012
50
27.2090926
51
60.0099932
0
ARC
8
DEFAULT_255_2_778
10
26.8944175
20
52.9144038
40
2.7979036
50
359.9878748
51
27.2266855
0
ARC
8
DEFAULT_255_2_778
10
26.8938145
20
52.9133832
40
2.7985065
50
327.2099176
51
0.0087717
0
ARC
8
DEFAULT_255_2_778
10
26.8939946
20
52.9122259
40
2.7977284
50
299.9872832
51
327.2278458
0
ARC
8
DEFAULT_255_2_778
10
26.8931582
20
52.9115893
40
2.7975951
50
281.6034983
51
300.0086357
0
ARC
8
DEFAULT_255_2_778
10
26.8924414
20
52.9158322
40
2.8018956
50
269.9985589
51
281.6004056
0
ARC
8
DEFAULT_255_2_778
10
26.8919623
20
52.9125947
40
2.7986581
50
245.717115
51
270.0083652
0
ARC
8
DEFAULT_255_2_778
10
26.8946303
20
52.9177393
40
2.8044445
50
240.0003039
51
245.7106537
0
ARC
8
DEFAULT_255_2_778
10
26.8916089
20
52.913117
40
2.7989308
50
207.2115815
51
240.0065582
0
ARC
8
DEFAULT_255_2_778
10
26.8899392
20
52.9132753
40
2.7975184
50
179.9890139
51
207.2301014
0
LINE
8
DEFAULT_255_2_778
10
27.9532209
20
36.6131117
11
25.8318209
21
38.7346117
0
LINE
8
DEFAULT_255_2_778
10
28.8724209
20
39.6537117
11
24.9126209
21
35.6940117
0
LINE
8
DEFAULT_255_2_778
10
24.0924209
20
37.6738117
11
24.0924209
21
37.6738117
0
LINE
8
DEFAULT_255_2_778
10
24.0924209
20
37.6738117
11
24.0924209
21
37.6738117
0
LINE
8
DEFAULT_255_2_778
10
23.0923209
20
34.4740117
11
23.0923209
21
40.8740117
0
LINE
8
DEFAULT_255_2_778
10
23.0923209
20
40.8740117
11
23.0923209
21
34.4740117
0
LINE
8
DEFAULT_255_2_778
10
27.9532209
20
44.2331117
11
25.8318209
21
46.3546117
0
LINE
8
DEFAULT_255_2_778
10
28.8724209
20
47.2737117
11
24.9126209
21
43.3140117
0
LINE
8
DEFAULT_255_2_778
10
24.0924209
20
45.2938117
11
24.0924209
21
45.2938117
0
LINE
8
DEFAULT_255_2_778
10
30.2432209
20
42.0940117
11
23.0926209
21
42.0940117
0
LINE
8
DEFAULT_255_2_778
10
23.0926209
20
42.0940117
11
23.0926209
21
48.4940117
0
LINE
8
DEFAULT_255_2_778
10
23.0926209
20
48.4940117
11
30.2435209
21
48.4940117
0
LINE
8
DEFAULT_255_2_778
10
30.2435209
20
40.8740117
11
23.0926209
21
40.8740117
0
LINE
8
DEFAULT_255_2_778
10
23.0926209
20
40.8740117
11
30.2435209
21
40.8740117
0
LINE
8
DEFAULT_255_2_778
10
27.9532209
20
51.8531117
11
25.8318209
21
53.9746117
0
LINE
8
DEFAULT_255_2_778
10
28.8724209
20
54.8937117
11
24.9126209
21
50.9340117
0
LINE
8
DEFAULT_255_2_778
10
24.0924209
20
52.9138117
11
24.0924209
21
52.9138117
0
ARC
8
DEFAULT_255_2_778
10
26.8880257
20
60.5369042
40
2.7955804
50
160.6250898
51
180.0625339
0
ARC
8
DEFAULT_255_2_778
10
26.8954872
20
60.5300633
40
2.8048915
50
101.7948804
51
160.5438283
0
ARC
8
DEFAULT_255_2_778
10
26.8909381
20
60.5216172
40
2.8122362
50
89.9692581
51
101.6689794
0
ARC
8
DEFAULT_255_2_778
10
26.8954925
20
60.5385398
40
2.7953149
50
70.6241591
51
90.0624243
0
ARC
8
DEFAULT_255_2_778
10
26.8885398
20
60.5308195
40
2.8049073
50
11.7946723
51
70.542501
0
ARC
8
DEFAULT_255_2_778
10
26.8800921
20
60.535361
40
2.8122552
50
359.969278
51
11.6689198
0
ARC
8
DEFAULT_255_2_778
10
26.8970072
20
60.5308098
40
2.7953414
50
340.624302
51
0.0623774
0
ARC
8
DEFAULT_255_2_778
10
26.8893204
20
60.5377325
40
2.8048924
50
281.7959826
51
340.5429938
0
ARC
8
DEFAULT_255_2_778
10
26.8939528
20
60.5459015
40
2.8119488
50
269.9693166
51
281.6695586
0
ARC
8
DEFAULT_255_2_778
10
26.8893981
20
60.5295583
40
2.7956069
50
250.6252326
51
270.062487
0
ARC
8
DEFAULT_255_2_778
10
26.896209
20
60.5369864
40
2.8048766
50
191.7961906
51
250.5443211
0
ARC
8
DEFAULT_255_2_778
10
26.9043764
20
60.5323462
40
2.8119298
50
179.9692966
51
191.6696183
0
ARC
8
DEFAULT_255_2_778
10
26.8880257
20
60.5369042
40
2.7955804
50
160.6250898
51
180.0625339
0
ARC
8
DEFAULT_255_2_778
10
26.8954872
20
60.5300633
40
2.8048915
50
101.7948804
51
160.5438283
0
ARC
8
DEFAULT_255_2_778
10
26.8909381
20
60.5216172
40
2.8122362
50
89.9692581
51
101.6689794
0
ARC
8
DEFAULT_255_2_778
10
26.8954925
20
60.5385398
40
2.7953149
50
70.6241591
51
90.0624243
0
ARC
8
DEFAULT_255_2_778
10
26.8885398
20
60.5308195
40
2.8049073
50
11.7946723
51
70.542501
0
ARC
8
DEFAULT_255_2_778
10
26.8800921
20
60.535361
40
2.8122552
50
359.969278
51
11.6689198
0
ARC
8
DEFAULT_255_2_778
10
26.8970072
20
60.5308098
40
2.7953414
50
340.624302
51
0.0623774
0
ARC
8
DEFAULT_255_2_778
10
26.8893204
20
60.5377325
40
2.8048924
50
281.7959826
51
340.5429938
0
ARC
8
DEFAULT_255_2_778
10
26.8939528
20
60.5459015
40
2.8119488
50
269.9693166
51
281.6695586
0
ARC
8
DEFAULT_255_2_778
10
26.8893981
20
60.5295583
40
2.7956069
50
250.6252326
51
270.062487
0
ARC
8
DEFAULT_255_2_778
10
26.896209
20
60.5369864
40
2.8048766
50
191.7961906
51
250.5443211
0
ARC
8
DEFAULT_255_2_778
10
26.9043764
20
60.5323462
40
2.8119298
50
179.9692966
51
191.6696183
0
LINE
8
DEFAULT_255_2_778
10
27.953247
20
59.473153
11
25.831847
21
61.594653
0
LINE
8
DEFAULT_255_2_778
10
28.872447
20
62.513753
11
24.912647
21
58.554053
0
LINE
8
DEFAULT_255_2_778
10
24.092447
20
60.533853
11
24.092447
21
60.533853
0
LINE
8
DEFAULT_255_2_778
10
24.092447
20
60.533853
11
24.092447
21
60.533853
0
LINE
8
DEFAULT_255_2_778
10
0.7426459
20
12.1437427
11
4.2425459
21
12.1437427
0
LINE
8
DEFAULT_255_2_778
10
0.7426459
20
11.7437427
11
4.2425459
21
11.7437427
0
LINE
8
DEFAULT_255_2_778
10
0.7426459
20
11.3439427
11
4.2425459
21
11.3439427
0
LINE
8
DEFAULT_255_2_778
10
0.7426459
20
10.9438427
11
4.2425459
21
10.9438427
0
LINE
8
DEFAULT_255_2_778
10
0.7426451
20
13.0438312
11
0.7426451
21
10.3437312
0
LINE
8
DEFAULT_255_2_778
10
0.7426451
20
10.3437312
11
4.2425451
21
10.3437312
0
LINE
8
DEFAULT_255_2_778
10
4.2425451
20
10.3437312
11
4.2425451
21
13.0438312
0
LINE
8
DEFAULT_255_2_778
10
21.1925451
20
13.3838312
11
14.2924451
21
13.3838312
0
ARC
8
DEFAULT_255_2_778
10
9.9112079
20
75.7477721
40
3.3185963
50
162.8527331
51
180.0659325
0
ARC
8
DEFAULT_255_2_778
10
9.886267
20
75.7502461
40
3.2940384
50
108.0986099
51
162.7659512
0
ARC
8
DEFAULT_255_2_778
10
9.8879473
20
75.7301089
40
3.3137045
50
90.5217898
51
108.0180626
0
ARC
8
DEFAULT_255_2_778
10
9.8925119
20
75.6418523
40
3.402001
50
89.9999687
51
90.5851254
0
ARC
8
DEFAULT_255_2_778
10
9.8963128
20
75.7258826
40
3.3179728
50
72.8291516
51
90.0656025
0
ARC
8
DEFAULT_255_2_778
10
9.8984946
20
75.7498754
40
3.294409
50
18.0971057
51
72.7422173
0
ARC
8
DEFAULT_255_2_778
10
9.8791155
20
75.7485051
40
3.3132584
50
0.5219318
51
18.0155319
0
ARC
8
DEFAULT_255_2_778
10
9.7924527
20
75.7439551
40
3.3999611
50
359.9999686
51
0.5853008
0
ARC
8
DEFAULT_255_2_778
10
9.8744431
20
75.7401542
40
3.3179728
50
342.8291516
51
0.0656025
0
ARC
8
DEFAULT_255_2_778
10
9.8984359
20
75.7379724
40
3.294409
50
288.0971057
51
342.7422173
0
ARC
8
DEFAULT_255_2_778
10
9.8970656
20
75.7573515
40
3.3132584
50
270.5219318
51
288.0155319
0
ARC
8
DEFAULT_255_2_778
10
9.8925156
20
75.8440142
40
3.3999611
50
269.9999686
51
270.5853008
0
ARC
8
DEFAULT_255_2_778
10
9.8887055
20
75.7625066
40
3.3184555
50
252.8318962
51
270.065753
0
ARC
8
DEFAULT_255_2_778
10
9.8862144
20
75.7377247
40
3.2940465
50
198.09565
51
252.7460589
0
ARC
8
DEFAULT_255_2_778
10
9.9063592
20
75.7393533
40
3.3137041
50
180.5393065
51
198.0142287
0
ARC
8
DEFAULT_255_2_778
10
9.9879431
20
75.7439117
40
3.3953293
50
179.9992984
51
180.6032662
0
LINE
8
DEFAULT_255_2_778
10
21.1926137
20
14.3336532
11
21.1926137
21
11.3835532
0
LINE
8
DEFAULT_255_2_778
10
21.1926137
20
11.3835532
11
14.2925137
21
11.3835532
0
LINE
8
DEFAULT_255_2_778
10
14.2925137
20
11.3835532
11
14.2925137
21
14.3336532
0
LINE
8
DEFAULT_255_2_778
10
6.5926137
20
75.7439532
11
6.5926137
21
75.7439532
0
ARC
8
DEFAULT_255_2_778
10
9.8853429
20
75.7462113
40
1.7427988
50
153.5892458
51
180.0840688
0
ARC
8
DEFAULT_255_2_778
10
9.8935334
20
75.7420602
40
1.751981
50
98.9718749
51
153.5868038
0
ARC
8
DEFAULT_255_2_778
10
9.8919448
20
75.7304163
40
1.763238
50
89.9804683
51
98.8618787
0
ARC
8
DEFAULT_255_2_778
10
9.8950923
20
75.7510842
40
1.7425718
50
63.5874968
51
90.0837278
0
ARC
8
DEFAULT_255_2_778
10
9.8907903
20
75.7426343
40
1.7520533
50
9.1002428
51
63.5844177
0
ARC
8
DEFAULT_255_2_778
10
9.8795003
20
75.7442727
40
1.7629456
50
359.9798966
51
8.9896307
0
ARC
8
DEFAULT_255_2_778
10
9.8998421
20
75.7411108
40
1.7426057
50
333.5879356
51
0.0836237
0
ARC
8
DEFAULT_255_2_778
10
9.8914798
20
75.7453309
40
1.7519723
50
278.9736567
51
333.5859785
0
ARC
8
DEFAULT_255_2_778
10
9.8931457
20
75.7566713
40
1.7629174
50
269.980506
51
278.8626871
0
ARC
8
DEFAULT_255_2_778
10
9.8899918
20
75.736585
40
1.7428327
50
243.5896845
51
270.0839647
0
ARC
8
DEFAULT_255_2_778
10
9.8940917
20
75.7447189
40
1.7519414
50
188.9737734
51
243.5879187
0
ARC
8
DEFAULT_255_2_778
10
9.9054631
20
75.7430543
40
1.7629174
50
179.980506
51
188.8626873
0
LINE
8
DEFAULT_255_2_778
10
8.1425459
20
75.7436541
11
8.1425459
21
75.7436541
0
ARC
8
DEFAULT_255_2_778
10
9.8907293
20
75.7468598
40
1.5481616
50
152.2760316
51
180.1158627
0
ARC
8
DEFAULT_255_2_778
10
9.8888743
20
75.7470595
40
1.5464268
50
98.5679993
51
152.2506062
0
ARC
8
DEFAULT_255_2_778
10
9.8918871
20
75.7195998
40
1.5740294
50
89.9787496
51
98.5275283
0
ARC
8
DEFAULT_255_2_778
10
9.8956134
20
75.7452502
40
1.5483821
50
62.2780418
51
90.1162862
0
ARC
8
DEFAULT_255_2_778
10
9.8959363
20
75.7473299
40
1.5463911
50
8.5405581
51
62.2527864
0
ARC
8
DEFAULT_255_2_778
10
9.8683814
20
75.7443097
40
1.5740895
50
359.9788679
51
8.5003212
0
ARC
8
DEFAULT_255_2_778
10
9.8941221
20
75.7405845
40
1.548352
50
332.2775432
51
0.1163658
0
ARC
8
DEFAULT_255_2_778
10
9.8961434
20
75.7403189
40
1.5464393
50
278.5660337
51
332.2514159
0
ARC
8
DEFAULT_255_2_778
10
9.8930516
20
75.7681219
40
1.574393
50
269.9788646
51
278.5265867
0
ARC
8
DEFAULT_255_2_778
10
9.8893381
20
75.7418575
40
1.5481315
50
242.275533
51
270.1159423
0
ARC
8
DEFAULT_255_2_778
10
9.8891953
20
75.7400606
40
1.5464746
50
188.5973956
51
242.249244
0
ARC
8
DEFAULT_255_2_778
10
9.9168772
20
75.7431426
40
1.5743064
50
179.9786527
51
188.5576967
0
LINE
8
DEFAULT_255_2_778
10
8.3425709
20
75.7437291
11
8.3425709
21
75.7437291
0
ARC
8
DEFAULT_255_2_778
10
9.9112109
20
66.7477021
40
3.3185963
50
162.8527331
51
180.0659325
0
ARC
8
DEFAULT_255_2_778
10
9.88627
20
66.7501761
40
3.2940384
50
108.0986099
51
162.7659512
0
ARC
8
DEFAULT_255_2_778
10
9.8879503
20
66.730039
40
3.3137045
50
90.5217898
51
108.0180626
0
ARC
8
DEFAULT_255_2_778
10
9.8925149
20
66.6417823
40
3.402001
50
89.9999687
51
90.5851254
0
ARC
8
DEFAULT_255_2_778
10
9.8963158
20
66.7258126
40
3.3179728
50
72.8291516
51
90.0656025
0
ARC
8
DEFAULT_255_2_778
10
9.8984976
20
66.7498054
40
3.294409
50
18.0971057
51
72.7422173
0
ARC
8
DEFAULT_255_2_778
10
9.8791185
20
66.7484351
40
3.3132584
50
0.5219318
51
18.0155319
0
ARC
8
DEFAULT_255_2_778
10
9.7924558
20
66.7438851
40
3.3999611
50
359.9999686
51
0.5853008
0
ARC
8
DEFAULT_255_2_778
10
9.8744462
20
66.7400842
40
3.3179728
50
342.8291516
51
0.0656025
0
ARC
8
DEFAULT_255_2_778
10
9.8984389
20
66.7379024
40
3.294409
50
288.0971057
51
342.7422173
0
ARC
8
DEFAULT_255_2_778
10
9.8970686
20
66.7572815
40
3.3132584
50
270.5219318
51
288.0155319
0
ARC
8
DEFAULT_255_2_778
10
9.8925186
20
66.8439442
40
3.3999611
50
269.9999686
51
270.5853008
0
ARC
8
DEFAULT_255_2_778
10
9.8887085
20
66.7624366
40
3.3184555
50
252.8318962
51
270.065753
0
ARC
8
DEFAULT_255_2_778
10
9.8862174
20
66.7376547
40
3.2940465
50
198.09565
51
252.7460589
0
ARC
8
DEFAULT_255_2_778
10
9.9063622
20
66.7392833
40
3.3137041
50
180.5393065
51
198.0142287
0
ARC
8
DEFAULT_255_2_778
10
9.9879461
20
66.7438417
40
3.3953293
50
179.9992984
51
180.6032662
0
LINE
8
DEFAULT_255_2_778
10
6.5926168
20
66.7438832
11
6.5926168
21
66.7438832
0
ARC
8
DEFAULT_255_2_778
10
9.8853429
20
66.7464113
40
1.7427988
50
153.5892458
51
180.0840688
0
ARC
8
DEFAULT_255_2_778
10
9.8935334
20
66.7422602
40
1.751981
50
98.9718749
51
153.5868038
0
ARC
8
DEFAULT_255_2_778
10
9.8919448
20
66.7306163
40
1.763238
50
89.9804683
51
98.8618787
0
ARC
8
DEFAULT_255_2_778
10
9.8950923
20
66.7512842
40
1.7425718
50
63.5874968
51
90.0837278
0
ARC
8
DEFAULT_255_2_778
10
9.8907903
20
66.7428343
40
1.7520533
50
9.1002428
51
63.5844177
0
ARC
8
DEFAULT_255_2_778
10
9.8795003
20
66.7444727
40
1.7629456
50
359.9798966
51
8.9896307
0
ARC
8
DEFAULT_255_2_778
10
9.8998421
20
66.7413108
40
1.7426057
50
333.5879356
51
0.0836237
0
ARC
8
DEFAULT_255_2_778
10
9.8914798
20
66.7455309
40
1.7519723
50
278.9736567
51
333.5859785
0
ARC
8
DEFAULT_255_2_778
10
9.8931457
20
66.7568713
40
1.7629174
50
269.980506
51
278.8626871
0
ARC
8
DEFAULT_255_2_778
10
9.8899918
20
66.736785
40
1.7428327
50
243.5896845
51
270.0839647
0
ARC
8
DEFAULT_255_2_778
10
9.8940917
20
66.7449189
40
1.7519414
50
188.9737734
51
243.5879187
0
ARC
8
DEFAULT_255_2_778
10
9.9054631
20
66.7432543
40
1.7629174
50
179.980506
51
188.8626873
0
LINE
8
DEFAULT_255_2_778
10
8.1425459
20
66.7438541
11
8.1425459
21
66.7438541
0
ARC
8
DEFAULT_255_2_778
10
9.8907293
20
66.7470598
40
1.5481616
50
152.2760316
51
180.1158627
0
ARC
8
DEFAULT_255_2_778
10
9.8888743
20
66.7472595
40
1.5464268
50
98.5679993
51
152.2506062
0
ARC
8
DEFAULT_255_2_778
10
9.8918871
20
66.7197998
40
1.5740294
50
89.9787496
51
98.5275283
0
ARC
8
DEFAULT_255_2_778
10
9.8956134
20
66.7454502
40
1.5483821
50
62.2780418
51
90.1162862
0
ARC
8
DEFAULT_255_2_778
10
9.8959363
20
66.7475299
40
1.5463911
50
8.5405581
51
62.2527864
0
ARC
8
DEFAULT_255_2_778
10
9.8683814
20
66.7445097
40
1.5740895
50
359.9788679
51
8.5003212
0
ARC
8
DEFAULT_255_2_778
10
9.8941221
20
66.7407845
40
1.548352
50
332.2775432
51
0.1163658
0
ARC
8
DEFAULT_255_2_778
10
9.8961434
20
66.7405189
40
1.5464393
50
278.5660337
51
332.2514159
0
ARC
8
DEFAULT_255_2_778
10
9.8930516
20
66.7683219
40
1.574393
50
269.9788646
51
278.5265867
0
ARC
8
DEFAULT_255_2_778
10
9.8893381
20
66.7420575
40
1.5481315
50
242.275533
51
270.1159423
0
ARC
8
DEFAULT_255_2_778
10
9.8891953
20
66.7402606
40
1.5464746
50
188.5973956
51
242.249244
0
ARC
8
DEFAULT_255_2_778
10
9.9168772
20
66.7433426
40
1.5743064
50
179.9786527
51
188.5576967
0
LINE
8
DEFAULT_255_2_778
10
8.3425709
20
66.7439291
11
8.3425709
21
66.7439291
0
LINE
8
DEFAULT_255_2_778
10
6.5425785
20
95.7438884
11
6.5425785
21
94.9437884
0
LINE
8
DEFAULT_255_2_778
10
6.5425785
20
94.9437884
11
5.7424785
21
94.9437884
0
LINE
8
DEFAULT_255_2_778
10
5.7424785
20
94.9437884
11
5.7424785
21
95.7438884
0
LINE
8
DEFAULT_255_2_778
10
5.7424785
20
95.7438884
11
6.5425785
21
95.7438884
0
LINE
8
DEFAULT_255_2_778
10
6.5425785
20
97.3437884
11
6.5425785
21
96.5436884
0
LINE
8
DEFAULT_255_2_778
10
6.5425785
20
96.5436884
11
5.7424785
21
96.5436884
0
LINE
8
DEFAULT_255_2_778
10
5.7424785
20
96.5436884
11
5.7424785
21
97.3437884
0
LINE
8
DEFAULT_255_2_778
10
5.7424785
20
97.3437884
11
6.5425785
21
97.3437884
0
LINE
8
DEFAULT_255_2_778
10
5.7424785
20
98.9436884
11
6.5425785
21
98.9436884
0
LINE
8
DEFAULT_255_2_778
10
6.5425785
20
98.9436884
11
6.5425785
21
98.1435884
0
LINE
8
DEFAULT_255_2_778
10
6.5425785
20
98.1435884
11
5.7424785
21
98.1435884
0
LINE
8
DEFAULT_255_2_778
10
5.7424785
20
98.1435884
11
5.7424785
21
98.9436884
0
LINE
8
DEFAULT_255_2_778
10
4.2425785
20
103.9437884
11
0.7426785
21
103.9437884
0
LINE
8
DEFAULT_255_2_778
10
4.2425785
20
104.3438884
11
0.7426785
21
104.3438884
0
LINE
8
DEFAULT_255_2_778
10
4.2425785
20
104.7438884
11
0.7426785
21
104.7438884
0
LINE
8
DEFAULT_255_2_778
10
4.2425785
20
105.1436884
11
0.7426785
21
105.1436884
0
LINE
8
DEFAULT_255_2_778
10
4.2425785
20
103.0436884
11
4.2425785
21
105.7437884
0
LINE
8
DEFAULT_255_2_778
10
4.2425785
20
105.7437884
11
0.7426785
21
105.7437884
0
LINE
8
DEFAULT_255_2_778
10
0.7426785
20
105.7437884
11
0.7426785
21
103.0436884
0
LINE
8
DEFAULT_255_2_778
10
25.9434785
20
19.2337884
11
31.2424785
21
19.2337884
0
LINE
8
DEFAULT_255_2_778
10
31.2424785
20
17.4337884
11
25.9434785
21
17.4337884
0
LINE
8
DEFAULT_255_2_778
10
30.4426785
20
25.6337884
11
30.2434785
21
25.6337884
0
LINE
8
DEFAULT_255_2_778
10
30.2434844
20
26.8536998
11
30.4426844
21
26.8536998
0
LINE
8
DEFAULT_255_2_778
10
30.2434844
20
42.0936998
11
30.4426844
21
42.0936998
0
LINE
8
DEFAULT_255_2_778
10
30.4426844
20
40.8736999
11
30.2434844
21
40.8736999
0
LINE
8
DEFAULT_255_2_778
10
30.4426844
20
33.2536999
11
30.2434844
21
33.2536999
0
LINE
8
DEFAULT_255_2_778
10
30.2434981
20
34.4738072
11
30.4426981
21
34.4738072
0
LINE
8
DEFAULT_255_2_778
10
30.4426981
20
48.4938072
11
30.2434981
21
48.4938072
0
LINE
8
DEFAULT_255_2_778
10
30.2434981
20
49.7138072
11
30.4426981
21
49.7138072
0
LINE
8
DEFAULT_255_2_778
10
30.4426981
20
56.1138072
11
30.2434981
21
56.1138072
0
LINE
8
DEFAULT_255_2_778
10
30.2434981
20
57.3338072
11
30.4426981
21
57.3338072
0
LINE
8
DEFAULT_255_2_778
10
30.4426981
20
63.7338072
11
30.2434981
21
63.7338072
0
LINE
8
DEFAULT_255_2_778
10
30.2434981
20
64.9538072
11
30.4426981
21
64.9538072
0
LINE
8
DEFAULT_255_2_778
10
30.2434981
20
80.1938072
11
30.4426981
21
80.1938072
0
LINE
8
DEFAULT_255_2_778
10
30.4426981
20
78.9738072
11
30.2434981
21
78.9738072
0
LINE
8
DEFAULT_255_2_778
10
30.2434981
20
72.5738072
11
30.4426981
21
72.5738072
0
LINE
8
DEFAULT_255_2_778
10
30.4426981
20
71.3538072
11
30.2434981
21
71.3538072
0
LINE
8
DEFAULT_255_2_778
10
26.6935981
20
90.4038072
11
31.2427981
21
90.4038072
0
LINE
8
DEFAULT_255_2_778
10
31.2427981
20
89.2039072
11
26.6935981
21
89.2039072
0
LINE
8
DEFAULT_255_2_778
10
30.2434981
20
86.5938072
11
30.4426981
21
86.5938072
0
LINE
8
DEFAULT_255_2_778
10
30.2434981
20
87.8138072
11
30.4426981
21
87.8138072
0
LINE
8
DEFAULT_255_2_778
10
28.1426981
20
90.4038072
11
28.1426981
21
90.5038072
0
LINE
8
DEFAULT_255_2_778
10
29.6425981
20
90.5038072
11
29.6425981
21
90.4038072
0
LINE
8
DEFAULT_255_2_778
10
14.7925981
20
10.2438072
11
16.7925981
21
8.2438072
0
LINE
8
DEFAULT_255_2_778
10
16.7925981
20
8.2438072
11
20.7925981
21
8.2438072
0
LINE
8
DEFAULT_255_2_778
10
26.7924981
20
10.2438072
11
24.7924981
21
8.2438072
0
LINE
8
DEFAULT_255_2_778
10
24.7924981
20
8.2438072
11
20.7925981
21
8.2438072
0
LINE
8
DEFAULT_255_2_778
10
14.7925439
20
10.2437342
11
14.7925439
21
1.7937342
0
LINE
8
DEFAULT_255_2_778
10
14.7925439
20
1.7937342
11
16.7925439
21
-0.2062658
0
LINE
8
DEFAULT_255_2_778
10
16.7925439
20
-0.2062658
11
20.7925439
21
-0.2062658
0
LINE
8
DEFAULT_255_2_778
10
26.7924439
20
10.2437342
11
26.7924439
21
1.7937342
0
LINE
8
DEFAULT_255_2_778
10
26.7924439
20
1.7937342
11
24.7924439
21
-0.2062658
0
LINE
8
DEFAULT_255_2_778
10
24.7924439
20
-0.2062658
11
20.7925439
21
-0.2062658
0
LINE
8
DEFAULT_255_2_778
10
14.7925439
20
11.3838342
11
14.7925439
21
10.2437342
0
LINE
8
DEFAULT_255_2_778
10
26.7924439
20
13.0438342
11
26.7924439
21
10.2437342
0
ENDSEC
0
EOF