0
SECTION
2
HEADER
9
$MEASUREMENT
70
1
0
ENDSEC
0
SECTION
2
TABLES
0
TABLE
2
LTYPE
0
LTYPE
72
65
70
64
2
CONTINUOUS
3
______
73
0
40
0
0
ENDTAB
0
TABLE
2
LAYER
0
LAYER
2
DEFAULT_255_2_778
70
0
62
255
6
CONTINUOUS
0
ENDTAB
0
ENDSEC
0
SECTION
2
ENTITIES
0
LINE
8
DEFAULT_255_2_778
10
26.7928116
20
5.0876666
11
26.7928116
21
1.7875666
0
LINE
8
DEFAULT_255_2_778
10
26.7928116
20
1.7875666
11
24.2927116
21
-0.2124334
0
LINE
8
DEFAULT_255_2_778
10
24.2927116
20
-0.2124334
11
17.2926116
21
-0.2124334
0
LINE
8
DEFAULT_255_2_778
10
17.2926116
20
-0.2124334
11
14.7926116
21
1.7875666
0
LINE
8
DEFAULT_255_2_778
10
14.7926116
20
1.7875666
11
14.7926116
21
3.4776666
0
ARC
8
DEFAULT_255_2_778
10
20.7857437
20
3.2850581
40
1.993198
50
179.9315196
51
204.3126274
0
ARC
8
DEFAULT_255_2_778
10
20.7944095
20
3.2900408
40
2.0031469
50
204.3404582
51
260.1947019
0
ARC
8
DEFAULT_255_2_778
10
20.7921153
20
3.3009898
40
2.0135495
50
260.3120873
51
270.0122867
0
ARC
8
DEFAULT_255_2_778
10
20.7949294
20
3.280637
40
1.993198
50
269.9315196
51
294.3126274
0
ARC
8
DEFAULT_255_2_778
10
20.7899466
20
3.2893027
40
2.0031469
50
294.3404582
51
350.1947019
0
ARC
8
DEFAULT_255_2_778
10
20.7789977
20
3.2870086
40
2.0135495
50
350.3120873
51
0.0122867
0
ARC
8
DEFAULT_255_2_778
10
30.942439
20
94.7876316
40
0.3001081
50
359.9825861
51
44.9730961
0
ARC
8
DEFAULT_255_2_778
10
30.9426382
20
94.7874316
40
0.3001086
50
45.0269733
51
90.0173895
0
ARC
8
DEFAULT_255_2_778
10
0.542906
20
94.7865865
40
0.300954
50
90.0492875
51
134.9064384
0
ARC
8
DEFAULT_255_2_778
10
0.542163
20
94.7878763
40
0.2995163
50
134.9799481
51
179.9921956
0
ARC
8
DEFAULT_255_2_778
10
0.4200756
20
94.7878229
40
0.1774288
50
179.9695893
51
180.0912363
0
ARC
8
DEFAULT_255_2_778
10
0.5427565
20
5.3875498
40
0.3001094
50
180.0208901
51
269.9791099
0
LINE
8
DEFAULT_255_2_778
10
16.2925471
20
3.4776404
11
16.2925471
21
3.2874404
0
LINE
8
DEFAULT_255_2_778
10
16.2925471
20
3.2874404
11
18.7925471
21
3.2874404
0
LINE
8
DEFAULT_255_2_778
10
22.7925471
20
3.2874404
11
25.2926471
21
3.2874404
0
LINE
8
DEFAULT_255_2_778
10
25.2926471
20
3.2874404
11
25.2926471
21
4.2873404
0
LINE
8
DEFAULT_255_2_778
10
25.2926471
20
4.2873404
11
21.6426471
21
4.2873404
0
LINE
8
DEFAULT_255_2_778
10
30.9425471
20
95.0875404
11
0.5426471
21
95.0875404
0
LINE
8
DEFAULT_255_2_778
10
0.2426471
20
94.7875404
11
0.2426471
21
5.3874404
0
LINE
8
DEFAULT_255_2_778
10
31.2425471
20
94.7875404
11
31.2425471
21
5.3874404
0
ARC
8
DEFAULT_255_2_778
10
10.5449448
20
19.8809327
40
1.9933
50
269.9317062
51
294.3119945
0
ARC
8
DEFAULT_255_2_778
10
10.5401019
20
19.8894181
40
2.0030269
50
294.3383105
51
350.196385
0
ARC
8
DEFAULT_255_2_778
10
10.5294592
20
19.8870177
40
2.0131097
50
350.3152812
51
0.0175439
0
ARC
8
DEFAULT_255_2_778
10
10.5496547
20
22.690287
40
1.9929158
50
359.926605
51
24.3113989
0
ARC
8
DEFAULT_255_2_778
10
10.5408114
20
22.6852338
40
2.0030556
50
24.3389823
51
80.1972101
0
ARC
8
DEFAULT_255_2_778
10
10.5431839
20
22.6745726
40
2.0131615
50
80.3154071
51
90.0175033
0
LINE
8
DEFAULT_255_2_778
10
0.5426689
20
5.0876341
11
13.7427689
21
5.0876341
0
LINE
8
DEFAULT_255_2_778
10
12.5425689
20
19.8876341
11
12.5425689
21
22.6877341
0
LINE
8
DEFAULT_255_2_778
10
10.5425689
20
24.6877341
11
6.6426689
21
24.6877341
0
LINE
8
DEFAULT_255_2_778
10
6.6426689
20
24.6877341
11
6.6426689
21
17.8876341
0
LINE
8
DEFAULT_255_2_778
10
6.6426689
20
17.8876341
11
10.5425689
21
17.8876341
0
LINE
8
DEFAULT_255_2_778
10
6.6426181
20
17.9575625
11
10.4425181
21
17.9575625
0
LINE
8
DEFAULT_255_2_778
10
10.4425181
20
17.9575625
11
10.4425181
21
24.6173625
0
LINE
8
DEFAULT_255_2_778
10
10.4425181
20
24.6173625
11
6.6426181
21
24.6173625
0
LINE
8
DEFAULT_255_2_778
10
11.0614181
20
67.5483625
11
10.1430181
21
67.2142625
0
LINE
8
DEFAULT_255_2_778
10
10.1430181
20
67.2142625
11
10.1430181
21
67.5782625
0
LINE
8
DEFAULT_255_2_778
10
10.1430181
20
67.5782625
11
8.7180181
21
67.5782625
0
LINE
8
DEFAULT_255_2_778
10
11.0614181
20
58.5485625
11
10.1430181
21
58.2144625
0
LINE
8
DEFAULT_255_2_778
10
10.1430181
20
58.2144625
11
10.1430181
21
58.5784625
0
LINE
8
DEFAULT_255_2_778
10
10.1430181
20
58.5784625
11
8.7180181
21
58.5784625
0
LINE
8
DEFAULT_255_2_778
10
13.7427181
20
67.5875625
11
13.7427181
21
75.5874625
0
LINE
8
DEFAULT_255_2_778
10
13.7427181
20
21.8876625
11
13.7427181
21
29.8875625
0
LINE
8
DEFAULT_255_2_778
10
31.2428181
20
82.5478625
11
27.8429181
21
82.5478625
0
LINE
8
DEFAULT_255_2_778
10
27.8429181
20
82.5478625
11
27.8429181
21
81.1476625
0
LINE
8
DEFAULT_255_2_778
10
27.8429181
20
81.1476625
11
30.2429181
21
81.1476625
0
LINE
8
DEFAULT_255_2_778
10
30.2429181
20
81.1476625
11
30.2429181
21
11.3778625
0
LINE
8
DEFAULT_255_2_778
10
30.2429181
20
11.3778625
11
27.8429181
21
11.3778625
0
LINE
8
DEFAULT_255_2_778
10
27.8429181
20
11.3778625
11
27.8429181
21
9.3778625
0
LINE
8
DEFAULT_255_2_778
10
27.8429181
20
9.3778625
11
31.2428181
21
9.3778625
0
LINE
8
DEFAULT_255_2_778
10
21.8927181
20
14.0874625
11
13.7427181
21
14.0874625
0
LINE
8
DEFAULT_255_2_778
10
13.7427181
20
14.0874625
11
13.7427181
21
84.2475625
0
LINE
8
DEFAULT_255_2_778
10
13.7427181
20
84.2475625
11
31.2428181
21
84.2475625
0
LINE
8
DEFAULT_255_2_778
10
31.2428181
20
84.2475625
11
13.7427181
21
84.2475625
0
LINE
8
DEFAULT_255_2_778
10
13.7427181
20
84.2475625
11
13.7427181
21
7.8774625
0
LINE
8
DEFAULT_255_2_778
10
13.7427181
20
7.8774625
11
31.2428181
21
7.8774625
0
LINE
8
DEFAULT_255_2_778
10
29.2425273
20
26.6474625
11
28.1426273
21
26.6474625
0
LINE
8
DEFAULT_255_2_778
10
28.1426273
20
26.6474625
11
28.1426273
21
29.2475625
0
LINE
8
DEFAULT_255_2_778
10
28.1426273
20
29.2475625
11
29.2425273
21
29.2475625
0
LINE
8
DEFAULT_255_2_778
10
29.2425273
20
29.2475625
11
29.2425273
21
26.6474625
0
LINE
8
DEFAULT_255_2_778
10
29.2425273
20
62.2474625
11
28.1426273
21
62.2474625
0
LINE
8
DEFAULT_255_2_778
10
28.1426273
20
62.2474625
11
28.1426273
21
64.8475625
0
LINE
8
DEFAULT_255_2_778
10
28.1426273
20
64.8475625
11
29.2425273
21
64.8475625
0
LINE
8
DEFAULT_255_2_778
10
29.2425273
20
64.8475625
11
29.2425273
21
62.2474625
0
LINE
8
DEFAULT_255_2_778
10
15.8427273
20
64.8475625
11
15.8427273
21
67.4475625
0
LINE
8
DEFAULT_255_2_778
10
15.8427273
20
67.4475625
11
14.7428273
21
67.4475625
0
LINE
8
DEFAULT_255_2_778
10
14.7428273
20
67.4475625
11
14.7428273
21
64.8475625
0
LINE
8
DEFAULT_255_2_778
10
14.7428273
20
64.8475625
11
15.8427273
21
64.8475625
0
LINE
8
DEFAULT_255_2_778
10
15.8427273
20
29.2475625
11
15.8427273
21
31.8476625
0
LINE
8
DEFAULT_255_2_778
10
15.8427273
20
31.8476625
11
14.7428273
21
31.8476625
0
LINE
8
DEFAULT_255_2_778
10
14.7428273
20
31.8476625
11
14.7428273
21
29.2475625
0
LINE
8
DEFAULT_255_2_778
10
14.7428273
20
29.2475625
11
15.8427273
21
29.2475625
0
LINE
8
DEFAULT_255_2_778
10
21.1428273
20
14.0877625
11
21.1428273
21
9.4776625
0
LINE
8
DEFAULT_255_2_778
10
21.1428273
20
9.4776625
11
31.2427273
21
9.4776625
0
LINE
8
DEFAULT_255_2_778
10
31.2427273
20
82.4475625
11
25.8426273
21
82.4475625
0
LINE
8
DEFAULT_255_2_778
10
25.8426273
20
82.4475625
11
25.8426273
21
84.2475625
0
LINE
8
DEFAULT_255_2_778
10
21.8926449
20
11.2776
11
31.2427449
21
11.2776
0
ARC
8
DEFAULT_255_2_778
10
29.9430168
20
8.3778895
40
0.300152
50
180.0099311
51
269.9900785
0
ARC
8
DEFAULT_255_2_778
10
30.9427128
20
8.3778896
40
0.3001521
50
270.0099283
51
359.9900526
0
LINE
8
DEFAULT_255_2_778
10
22.8928648
20
9.4776375
11
22.8928648
21
17.6776375
0
LINE
8
DEFAULT_255_2_778
10
31.2428648
20
81.2477375
11
22.8928648
21
81.2477375
0
LINE
8
DEFAULT_255_2_778
10
22.8928648
20
81.2477375
11
22.8928648
21
79.8576375
0
LINE
8
DEFAULT_255_2_778
10
22.8928648
20
79.8576375
11
30.4429648
21
79.8576375
0
LINE
8
DEFAULT_255_2_778
10
30.4429648
20
79.8576375
11
30.4429648
21
82.4476375
0
LINE
8
DEFAULT_255_2_778
10
13.7427648
20
15.0876375
11
21.8927648
21
15.0876375
0
LINE
8
DEFAULT_255_2_778
10
26.6427648
20
81.2477375
11
26.6427648
21
82.4476375
0
LINE
8
DEFAULT_255_2_778
10
29.9429648
20
8.0777375
11
30.9427648
21
8.0777375
0
ARC
8
DEFAULT_255_2_778
10
21.3430419
20
3.777455
40
0.2997853
50
269.976134
51
315.0256554
0
ARC
8
DEFAULT_255_2_778
10
21.3431568
20
3.7775346
40
0.2997603
50
314.9993769
51
0.0449409
0
ARC
8
DEFAULT_255_2_778
10
14.0428694
20
3.777822
40
0.3001524
50
180.0099935
51
269.9900065
0
ARC
8
DEFAULT_255_2_778
10
15.7416433
20
50.3886432
40
0.4989276
50
89.8766863
51
180.134766
0
ARC
8
DEFAULT_255_2_778
10
15.7438055
20
50.3885582
40
0.4990127
50
359.875022
51
90.1249723
0
ARC
8
DEFAULT_255_2_778
10
15.7438269
20
50.3864596
40
0.4989912
50
269.8725621
51
0.1159799
0
ARC
8
DEFAULT_255_2_778
10
15.7416219
20
50.3863746
40
0.4989061
50
179.8742308
51
270.1257692
0
LINE
8
DEFAULT_255_2_778
10
29.6429171
20
8.3774697
11
29.6429171
21
9.4773697
0
LINE
8
DEFAULT_255_2_778
10
28.1427171
20
81.2474697
11
28.1427171
21
84.2475697
0
LINE
8
DEFAULT_255_2_778
10
15.2427171
20
50.3874697
11
15.2427171
21
50.3874697
0
LINE
8
DEFAULT_255_2_778
10
0.7927171
20
2.9876697
11
0.7927171
21
2.5876697
0
LINE
8
DEFAULT_255_2_778
10
0.7927171
20
2.5876697
11
4.2926171
21
2.5876697
0
LINE
8
DEFAULT_255_2_778
10
4.2926171
20
2.5876697
11
4.2926171
21
2.9876697
0
LINE
8
DEFAULT_255_2_778
10
0.7926459
20
3.387725
11
0.7926459
21
2.987725
0
LINE
8
DEFAULT_255_2_778
10
0.7926459
20
2.987725
11
4.2925459
21
2.987725
0
LINE
8
DEFAULT_255_2_778
10
4.2925459
20
2.987725
11
4.2925459
21
3.387725
0
LINE
8
DEFAULT_255_2_778
10
0.7926459
20
3.787825
11
0.7926459
21
3.387825
0
LINE
8
DEFAULT_255_2_778
10
0.7926459
20
3.387825
11
4.2925459
21
3.387825
0
LINE
8
DEFAULT_255_2_778
10
4.2925459
20
3.387825
11
4.2925459
21
3.787825
0
LINE
8
DEFAULT_255_2_778
10
0.7926459
20
4.1876364
11
0.7926459
21
3.7878364
0
LINE
8
DEFAULT_255_2_778
10
0.7926459
20
3.7878364
11
4.2925459
21
3.7878364
0
LINE
8
DEFAULT_255_2_778
10
4.2925459
20
3.7878364
11
4.2925459
21
4.1876364
0
LINE
8
DEFAULT_255_2_778
10
0.7926459
20
5.0877364
11
0.7926459
21
4.1879364
0
LINE
8
DEFAULT_255_2_778
10
0.7926459
20
4.1879364
11
4.2925459
21
4.1879364
0
LINE
8
DEFAULT_255_2_778
10
4.2925459
20
4.1879364
11
4.2925459
21
5.0877364
0
LINE
8
DEFAULT_255_2_778
10
2.3428459
20
2.3876364
11
2.3428459
21
2.5877364
0
LINE
8
DEFAULT_255_2_778
10
2.7426459
20
2.3876364
11
2.7426459
21
2.5877364
0
LINE
8
DEFAULT_255_2_778
10
1.7428323
20
2.587608
11
1.7428323
21
2.387608
0
LINE
8
DEFAULT_255_2_778
10
1.7428323
20
2.387608
11
3.3427323
21
2.387608
0
LINE
8
DEFAULT_255_2_778
10
3.3427323
20
2.387608
11
3.3427323
21
2.587608
0
LINE
8
DEFAULT_255_2_778
10
2.7427323
20
97.787608
11
2.7427323
21
97.587608
0
LINE
8
DEFAULT_255_2_778
10
2.3425459
20
97.7876041
11
2.3425459
21
97.5876041
0
LINE
8
DEFAULT_255_2_778
10
0.7926459
20
97.1875041
11
0.7926459
21
97.5876041
0
LINE
8
DEFAULT_255_2_778
10
0.7926459
20
97.5876041
11
4.2925459
21
97.5876041
0
LINE
8
DEFAULT_255_2_778
10
4.2925459
20
97.5876041
11
4.2925459
21
97.1875041
0
LINE
8
DEFAULT_255_2_778
10
0.7926459
20
96.7875041
11
0.7926459
21
97.1875041
0
LINE
8
DEFAULT_255_2_778
10
0.7926459
20
97.1875041
11
4.2925459
21
97.1875041
0
LINE
8
DEFAULT_255_2_778
10
4.2925459
20
97.1875041
11
4.2925459
21
96.7875041
0
LINE
8
DEFAULT_255_2_778
10
0.7926459
20
96.3874041
11
0.7926459
21
96.7875041
0
LINE
8
DEFAULT_255_2_778
10
0.7926459
20
96.7875041
11
4.2925459
21
96.7875041
0
LINE
8
DEFAULT_255_2_778
10
4.2925459
20
96.7875041
11
4.2925459
21
96.3874041
0
LINE
8
DEFAULT_255_2_778
10
0.7926459
20
95.9876041
11
0.7926459
21
96.3874041
0
LINE
8
DEFAULT_255_2_778
10
0.7926459
20
96.3874041
11
4.2925459
21
96.3874041
0
LINE
8
DEFAULT_255_2_778
10
4.2925459
20
96.3874041
11
4.2925459
21
95.9876041
0
LINE
8
DEFAULT_255_2_778
10
0.7926459
20
95.0878041
11
0.7926459
21
95.9876041
0
LINE
8
DEFAULT_255_2_778
10
0.7926459
20
95.9876041
11
4.2925459
21
95.9876041
0
LINE
8
DEFAULT_255_2_778
10
4.2925459
20
95.9876041
11
4.2925459
21
95.0878041
0
LINE
8
DEFAULT_255_2_778
10
3.3424149
20
97.5876664
11
3.3424149
21
97.7876664
0
LINE
8
DEFAULT_255_2_778
10
3.3424149
20
97.7876664
11
1.7425149
21
97.7876664
0
LINE
8
DEFAULT_255_2_778
10
1.7425149
20
97.7876664
11
1.7425149
21
97.5876664
0
LINE
8
DEFAULT_255_2_778
10
10.4425149
20
21.8577664
11
8.9426149
21
21.8577664
0
LINE
8
DEFAULT_255_2_778
10
8.9426149
20
21.8577664
11
8.9426149
21
23.2577664
0
LINE
8
DEFAULT_255_2_778
10
8.9426149
20
23.2577664
11
10.4425149
21
23.2577664
0
LINE
8
DEFAULT_255_2_778
10
10.4425149
20
19.3177664
11
8.9426149
21
19.3177664
0
LINE
8
DEFAULT_255_2_778
10
8.9426149
20
19.3177664
11
8.9426149
21
20.7177664
0
LINE
8
DEFAULT_255_2_778
10
8.9426149
20
20.7177664
11
10.4425149
21
20.7177664
0
LINE
8
DEFAULT_255_2_778
10
13.7427149
20
6.4775664
11
14.2427149
21
9.4776664
0
LINE
8
DEFAULT_255_2_778
10
14.2427149
20
9.4776664
11
21.1428149
21
9.4776664
0
LINE
8
DEFAULT_255_2_778
10
21.1428149
20
9.4776664
11
21.6429149
21
6.4775664
0
LINE
8
DEFAULT_255_2_778
10
13.7427149
20
5.4777664
11
21.6426149
21
5.4777664
0
LINE
8
DEFAULT_255_2_778
10
14.0427149
20
3.4777664
11
21.3426149
21
3.4777664
0
LINE
8
DEFAULT_255_2_778
10
14.2428355
20
10.477528
11
15.7427355
21
10.477528
0
LINE
8
DEFAULT_255_2_778
10
13.7427355
20
6.477528
11
13.7427355
21
3.777728
0
LINE
8
DEFAULT_255_2_778
10
15.2426355
20
5.477628
11
15.2426355
21
3.477628
0
LINE
8
DEFAULT_255_2_778
10
19.6426355
20
10.477528
11
21.1426355
21
10.477528
0
LINE
8
DEFAULT_255_2_778
10
21.6426355
20
6.477528
11
21.6426355
21
3.777728
0
LINE
8
DEFAULT_255_2_778
10
20.1427355
20
5.477628
11
20.1427355
21
3.477628
0
LINE
8
DEFAULT_255_2_778
10
14.2428355
20
14.087728
11
14.2428355
21
9.477628
0
ARC
8
DEFAULT_255_2_778
10
30.942382
20
5.3878422
40
0.3001309
50
270.0058902
51
359.9750049
0
ARC
8
DEFAULT_255_2_778
10
9.8869973
20
67.7894998
40
1.187586
50
144.5513021
51
180.0911123
0
ARC
8
DEFAULT_255_2_778
10
9.8920057
20
67.7884797
40
1.1922594
50
95.3438576
51
144.6509552
0
ARC
8
DEFAULT_255_2_778
10
9.8924447
20
67.7725502
40
1.2081611
50
89.9920236
51
95.2942295
0
ARC
8
DEFAULT_255_2_778
10
9.8944971
20
67.793088
40
1.1876248
50
54.5523862
51
90.0909025
0
ARC
8
DEFAULT_255_2_778
10
9.8935647
20
67.7881627
40
1.1921799
50
5.3461268
51
54.6531661
0
ARC
8
DEFAULT_255_2_778
10
9.8778921
20
67.7877791
40
1.2078207
50
359.992039
51
5.2949725
0
ARC
8
DEFAULT_255_2_778
10
9.897907
20
67.7857081
40
1.1878073
50
324.5551973
51
0.0918026
0
ARC
8
DEFAULT_255_2_778
10
9.8931692
20
67.786519
40
1.1921393
50
275.3460689
51
324.6554969
0
ARC
8
DEFAULT_255_2_778
10
9.8927807
20
67.8022321
40
1.2078207
50
269.9920391
51
275.2949725
0
ARC
8
DEFAULT_255_2_778
10
9.8907054
20
67.7821783
40
1.1877685
50
234.5541132
51
270.0920124
0
ARC
8
DEFAULT_255_2_778
10
9.8916041
20
67.7869991
40
1.1922189
50
185.3437996
51
234.653286
0
ARC
8
DEFAULT_255_2_778
10
9.907574
20
67.7874431
40
1.2081611
50
179.9920236
51
185.2942295
0
LINE
8
DEFAULT_255_2_778
10
19.6426129
20
14.0877113
11
19.6426129
21
9.4776113
0
LINE
8
DEFAULT_255_2_778
10
15.7427129
20
14.0877113
11
15.7427129
21
9.4776113
0
LINE
8
DEFAULT_255_2_778
10
13.7427129
20
22.7076113
11
21.8926129
21
22.7076113
0
LINE
8
DEFAULT_255_2_778
10
13.7427129
20
21.4876113
11
21.8926129
21
21.4876113
0
LINE
8
DEFAULT_255_2_778
10
13.7427129
20
30.3276113
11
21.8926129
21
30.3276113
0
LINE
8
DEFAULT_255_2_778
10
13.7427129
20
29.1076113
11
21.8926129
21
29.1076113
0
LINE
8
DEFAULT_255_2_778
10
13.7427129
20
37.9476113
11
21.8926129
21
37.9476113
0
LINE
8
DEFAULT_255_2_778
10
13.7427129
20
36.7276113
11
21.8926129
21
36.7276113
0
LINE
8
DEFAULT_255_2_778
10
13.7427129
20
45.5676113
11
21.8926129
21
45.5676113
0
LINE
8
DEFAULT_255_2_778
10
13.7427129
20
44.3476113
11
21.8926129
21
44.3476113
0
LINE
8
DEFAULT_255_2_778
10
21.8926129
20
9.4776113
11
21.8926129
21
82.4476113
0
LINE
8
DEFAULT_255_2_778
10
21.8926129
20
82.4476113
11
13.7427129
21
82.4476113
0
LINE
8
DEFAULT_255_2_778
10
13.7427129
20
82.4476113
11
21.8926129
21
82.4476113
0
LINE
8
DEFAULT_255_2_778
10
13.7427129
20
53.1876113
11
21.8926129
21
53.1876113
0
LINE
8
DEFAULT_255_2_778
10
13.7427129
20
51.9676113
11
21.8926129
21
51.9676113
0
LINE
8
DEFAULT_255_2_778
10
13.7427129
20
60.8076113
11
21.8926129
21
60.8076113
0
LINE
8
DEFAULT_255_2_778
10
13.7427129
20
59.5876113
11
21.8926129
21
59.5876113
0
LINE
8
DEFAULT_255_2_778
10
13.7427129
20
68.4276113
11
21.8926129
21
68.4276113
0
LINE
8
DEFAULT_255_2_778
10
13.7427129
20
67.2076113
11
21.8926129
21
67.2076113
0
LINE
8
DEFAULT_255_2_778
10
13.7427129
20
76.0476113
11
21.8926129
21
76.0476113
0
LINE
8
DEFAULT_255_2_778
10
13.7427129
20
74.8276113
11
21.8926129
21
74.8276113
0
LINE
8
DEFAULT_255_2_778
10
6.0425129
20
90.9873113
11
6.0425129
21
90.1875113
0
LINE
8
DEFAULT_255_2_778
10
6.0425129
20
90.1875113
11
6.5426129
21
90.1875113
0
LINE
8
DEFAULT_255_2_778
10
6.5426129
20
90.1875113
11
6.5426129
21
90.9873113
0
LINE
8
DEFAULT_255_2_778
10
6.5426129
20
90.9873113
11
6.0425129
21
90.9873113
0
LINE
8
DEFAULT_255_2_778
10
6.0425129
20
86.1875113
11
6.0425129
21
85.3874113
0
LINE
8
DEFAULT_255_2_778
10
6.0425129
20
85.3874113
11
6.5426129
21
85.3874113
0
LINE
8
DEFAULT_255_2_778
10
6.5426129
20
85.3874113
11
6.5426129
21
86.1875113
0
LINE
8
DEFAULT_255_2_778
10
6.5426129
20
86.1875113
11
6.0425129
21
86.1875113
0
LINE
8
DEFAULT_255_2_778
10
6.0425129
20
89.3874113
11
6.0425129
21
88.5875113
0
LINE
8
DEFAULT_255_2_778
10
6.0425129
20
88.5875113
11
6.5426129
21
88.5875113
0
LINE
8
DEFAULT_255_2_778
10
6.5426129
20
88.5875113
11
6.5426129
21
89.3874113
0
LINE
8
DEFAULT_255_2_778
10
6.5426129
20
89.3874113
11
6.0425129
21
89.3874113
0
LINE
8
DEFAULT_255_2_778
10
6.0425129
20
87.7874113
11
6.0425129
21
86.9873113
0
LINE
8
DEFAULT_255_2_778
10
6.0425129
20
86.9873113
11
6.5426129
21
86.9873113
0
LINE
8
DEFAULT_255_2_778
10
6.5426129
20
86.9873113
11
6.5426129
21
87.7874113
0
LINE
8
DEFAULT_255_2_778
10
6.5426129
20
87.7874113
11
6.0425129
21
87.7874113
0
LINE
8
DEFAULT_255_2_778
10
21.6426129
20
5.0877113
11
30.9424129
21
5.0877113
0
LINE
8
DEFAULT_255_2_778
10
8.6994129
20
67.7876113
11
8.6994129
21
67.7876113
0
ARC
8
DEFAULT_255_2_778
10
9.9111786
20
67.7914021
40
3.3185963
50
162.8527331
51
180.0659325
0
ARC
8
DEFAULT_255_2_778
10
9.8862377
20
67.7938761
40
3.2940384
50
108.0986099
51
162.7659512
0
ARC
8
DEFAULT_255_2_778
10
9.8879181
20
67.773739
40
3.3137045
50
90.5217898
51
108.0180626
0
ARC
8
DEFAULT_255_2_778
10
9.8924826
20
67.6854823
40
3.402001
50
89.9999687
51
90.5851254
0
ARC
8
DEFAULT_255_2_778
10
9.8962749
20
67.7693327
40
3.3181527
50
72.8296227
51
90.0654505
0
ARC
8
DEFAULT_255_2_778
10
9.8984742
20
67.7932576
40
3.2946484
50
18.100278
51
72.743337
0
ARC
8
DEFAULT_255_2_778
10
9.8796367
20
67.7921283
40
3.312908
50
0.5221047
51
18.0176262
0
ARC
8
DEFAULT_255_2_778
10
9.7926234
20
67.7875851
40
3.3999611
50
359.9999686
51
0.5853008
0
ARC
8
DEFAULT_255_2_778
10
9.8744957
20
67.7837788
40
3.318091
50
342.8298807
51
0.0656941
0
ARC
8
DEFAULT_255_2_778
10
9.8987288
20
67.7815237
40
3.2942759
50
288.094427
51
342.7429314
0
ARC
8
DEFAULT_255_2_778
10
9.8970739
20
67.8016205
40
3.313896
50
270.5394575
51
288.0137075
0
ARC
8
DEFAULT_255_2_778
10
9.892526
20
67.883015
40
3.3953317
50
269.9992985
51
270.6032663
0
ARC
8
DEFAULT_255_2_778
10
9.888657
20
67.8067703
40
3.3190893
50
252.8555146
51
270.0660714
0
ARC
8
DEFAULT_255_2_778
10
9.8858727
20
67.7810298
40
3.2936755
50
198.0971516
51
252.7698013
0
ARC
8
DEFAULT_255_2_778
10
9.906783
20
67.7829692
40
3.3141571
50
180.5391735
51
198.0167282
0
ARC
8
DEFAULT_255_2_778
10
9.9971733
20
67.7875986
40
3.404589
50
180.0002585
51
180.6027644
0
LINE
8
DEFAULT_255_2_778
10
6.5925845
20
67.7875832
11
6.5925845
21
67.7875832
0
ARC
8
DEFAULT_255_2_778
10
9.8870848
20
58.7894627
40
1.1876248
50
144.5523862
51
180.0909025
0
ARC
8
DEFAULT_255_2_778
10
9.8920101
20
58.7885304
40
1.1921799
50
95.3461268
51
144.6531661
0
ARC
8
DEFAULT_255_2_778
10
9.8923937
20
58.7728577
40
1.2078207
50
89.992039
51
95.2949725
0
ARC
8
DEFAULT_255_2_778
10
9.8944647
20
58.7928727
40
1.1878073
50
54.5551973
51
90.0918026
0
ARC
8
DEFAULT_255_2_778
10
9.8936537
20
58.7881349
40
1.1921393
50
5.3460689
51
54.6554969
0
ARC
8
DEFAULT_255_2_778
10
9.8779407
20
58.7877463
40
1.2078207
50
359.9920391
51
5.2949725
0
ARC
8
DEFAULT_255_2_778
10
9.8979945
20
58.785671
40
1.1877685
50
324.5541132
51
0.0920124
0
ARC
8
DEFAULT_255_2_778
10
9.8931737
20
58.7865698
40
1.1922189
50
275.3437996
51
324.653286
0
ARC
8
DEFAULT_255_2_778
10
9.8927297
20
58.8025396
40
1.2081611
50
269.9920236
51
275.2942295
0
ARC
8
DEFAULT_255_2_778
10
9.890673
20
58.781963
40
1.187586
50
234.5513021
51
270.0911123
0
ARC
8
DEFAULT_255_2_778
10
9.8916931
20
58.7869713
40
1.1922594
50
185.3438576
51
234.6509552
0
ARC
8
DEFAULT_255_2_778
10
9.9076226
20
58.7874103
40
1.2081611
50
179.9920236
51
185.2942295
0
LINE
8
DEFAULT_255_2_778
10
11.0613615
20
68.0267785
11
10.1430615
21
68.3609785
0
LINE
8
DEFAULT_255_2_778
10
10.1430615
20
68.3609785
11
10.1430615
21
67.9968785
0
LINE
8
DEFAULT_255_2_778
10
10.1430615
20
67.9968785
11
8.7179615
21
67.9968785
0
LINE
8
DEFAULT_255_2_778
10
8.6994615
20
58.7875785
11
8.6994615
21
58.7875785
0
ARC
8
DEFAULT_255_2_778
10
9.9111786
20
58.7916021
40
3.3185963
50
162.8527331
51
180.0659325
0
ARC
8
DEFAULT_255_2_778
10
9.8862377
20
58.7940761
40
3.2940384
50
108.0986099
51
162.7659512
0
ARC
8
DEFAULT_255_2_778
10
9.8879181
20
58.773939
40
3.3137045
50
90.5217898
51
108.0180626
0
ARC
8
DEFAULT_255_2_778
10
9.8924826
20
58.6856823
40
3.402001
50
89.9999687
51
90.5851254
0
ARC
8
DEFAULT_255_2_778
10
9.8962749
20
58.7695327
40
3.3181527
50
72.8296227
51
90.0654505
0
ARC
8
DEFAULT_255_2_778
10
9.8984742
20
58.7934576
40
3.2946484
50
18.100278
51
72.743337
0
ARC
8
DEFAULT_255_2_778
10
9.8796367
20
58.7923283
40
3.312908
50
0.5221047
51
18.0176262
0
ARC
8
DEFAULT_255_2_778
10
9.7926234
20
58.7877851
40
3.3999611
50
359.9999686
51
0.5853008
0
ARC
8
DEFAULT_255_2_778
10
9.8744957
20
58.7839788
40
3.318091
50
342.8298807
51
0.0656941
0
ARC
8
DEFAULT_255_2_778
10
9.8987288
20
58.7817237
40
3.2942759
50
288.094427
51
342.7429314
0
ARC
8
DEFAULT_255_2_778
10
9.8970739
20
58.8018205
40
3.313896
50
270.5394575
51
288.0137075
0
ARC
8
DEFAULT_255_2_778
10
9.892526
20
58.883215
40
3.3953317
50
269.9992985
51
270.6032663
0
ARC
8
DEFAULT_255_2_778
10
9.888657
20
58.8069703
40
3.3190893
50
252.8555146
51
270.0660714
0
ARC
8
DEFAULT_255_2_778
10
9.8858727
20
58.7812298
40
3.2936755
50
198.0971516
51
252.7698013
0
ARC
8
DEFAULT_255_2_778
10
9.906783
20
58.7831692
40
3.3141571
50
180.5391735
51
198.0167282
0
ARC
8
DEFAULT_255_2_778
10
9.9971733
20
58.7877986
40
3.404589
50
180.0002585
51
180.6027644
0
LINE
8
DEFAULT_255_2_778
10
6.5925845
20
58.7877832
11
6.5925845
21
58.7877832
0
LINE
8
DEFAULT_255_2_778
10
11.0613927
20
59.0264333
11
10.1429927
21
59.3606333
0
LINE
8
DEFAULT_255_2_778
10
10.1429927
20
59.3606333
11
10.1429927
21
58.9965333
0
LINE
8
DEFAULT_255_2_778
10
10.1429927
20
58.9965333
11
8.7179927
21
58.9965333
0
ARC
8
DEFAULT_255_2_778
10
26.8912989
20
14.477903
40
2.7486457
50
146.2822792
51
180.0074936
0
ARC
8
DEFAULT_255_2_778
10
26.8911952
20
14.4789955
40
2.7479531
50
119.9895387
51
146.3000267
0
ARC
8
DEFAULT_255_2_778
10
26.8917758
20
14.4800496
40
2.7473305
50
101.195869
51
120.0110136
0
ARC
8
DEFAULT_255_2_778
10
26.89254
20
14.4755732
40
2.7518702
50
89.9986832
51
101.1933806
0
ARC
8
DEFAULT_255_2_778
10
26.8930229
20
14.4789971
40
2.7484465
50
65.2409452
51
90.0087502
0
ARC
8
DEFAULT_255_2_778
10
26.8902173
20
14.4735955
40
2.7545265
50
59.9982549
51
65.2350054
0
ARC
8
DEFAULT_255_2_778
10
26.8933314
20
14.4781664
40
2.749011
50
26.2837748
51
60.0068263
0
ARC
8
DEFAULT_255_2_778
10
26.8950723
20
14.4780964
40
2.7474811
50
359.9884695
51
26.3011602
0
ARC
8
DEFAULT_255_2_778
10
26.893721
20
14.477149
40
2.7488323
50
326.2834548
51
0.0082217
0
ARC
8
DEFAULT_255_2_778
10
26.894046
20
14.4759394
40
2.7478906
50
299.9894531
51
326.3006729
0
ARC
8
DEFAULT_255_2_778
10
26.8934306
20
14.4749374
40
2.7473305
50
281.195869
51
300.0110136
0
ARC
8
DEFAULT_255_2_778
10
26.8926664
20
14.4794138
40
2.7518702
50
269.9986832
51
281.1933806
0
ARC
8
DEFAULT_255_2_778
10
26.8921835
20
14.4759899
40
2.7484465
50
245.2409452
51
270.0087502
0
ARC
8
DEFAULT_255_2_778
10
26.8949891
20
14.4813914
40
2.7545265
50
239.9982549
51
245.2350054
0
ARC
8
DEFAULT_255_2_778
10
26.8918423
20
14.4767713
40
2.748952
50
206.2828236
51
240.0069032
0
ARC
8
DEFAULT_255_2_778
10
26.8903883
20
14.4769679
40
2.7477353
50
179.9879971
51
206.2999237
0
LINE
8
DEFAULT_255_2_778
10
24.1426532
20
14.4775435
11
24.1426532
21
14.4775435
0
LINE
8
DEFAULT_255_2_778
10
25.6198219
20
15.7503781
11
28.1654219
21
13.2047781
0
LINE
8
DEFAULT_255_2_778
10
25.6199081
20
13.204803
11
28.1654081
21
15.750403
0
LINE
8
DEFAULT_255_2_778
10
21.8927081
20
17.677603
11
30.4427081
21
17.677603
0
LINE
8
DEFAULT_255_2_778
10
30.4427081
20
17.677603
11
30.4427081
21
11.277603
0
ARC
8
DEFAULT_255_2_778
10
26.8912989
20
22.097903
40
2.7486457
50
146.2822792
51
180.0074936
0
ARC
8
DEFAULT_255_2_778
10
26.8911952
20
22.0989955
40
2.7479531
50
119.9895387
51
146.3000267
0
ARC
8
DEFAULT_255_2_778
10
26.8917758
20
22.1000496
40
2.7473305
50
101.195869
51
120.0110136
0
ARC
8
DEFAULT_255_2_778
10
26.89254
20
22.0955732
40
2.7518702
50
89.9986832
51
101.1933806
0
ARC
8
DEFAULT_255_2_778
10
26.8930229
20
22.0989971
40
2.7484465
50
65.2409452
51
90.0087502
0
ARC
8
DEFAULT_255_2_778
10
26.8902173
20
22.0935955
40
2.7545265
50
59.9982549
51
65.2350054
0
ARC
8
DEFAULT_255_2_778
10
26.8933314
20
22.0981664
40
2.749011
50
26.2837748
51
60.0068263
0
ARC
8
DEFAULT_255_2_778
10
26.8950723
20
22.0980964
40
2.7474811
50
359.9884695
51
26.3011602
0
ARC
8
DEFAULT_255_2_778
10
26.893721
20
22.097149
40
2.7488323
50
326.2834548
51
0.0082217
0
ARC
8
DEFAULT_255_2_778
10
26.894046
20
22.0959394
40
2.7478906
50
299.9894531
51
326.3006729
0
ARC
8
DEFAULT_255_2_778
10
26.8934306
20
22.0949374
40
2.7473305
50
281.195869
51
300.0110136
0
ARC
8
DEFAULT_255_2_778
10
26.8926664
20
22.0994138
40
2.7518702
50
269.9986832
51
281.1933806
0
ARC
8
DEFAULT_255_2_778
10
26.8921835
20
22.0959899
40
2.7484465
50
245.2409452
51
270.0087502
0
ARC
8
DEFAULT_255_2_778
10
26.8949891
20
22.1013914
40
2.7545265
50
239.9982549
51
245.2350054
0
ARC
8
DEFAULT_255_2_778
10
26.8918423
20
22.0967713
40
2.748952
50
206.2828236
51
240.0069032
0
ARC
8
DEFAULT_255_2_778
10
26.8903883
20
22.0969679
40
2.7477353
50
179.9879971
51
206.2999237
0
LINE
8
DEFAULT_255_2_778
10
24.1426532
20
22.0975435
11
24.1426532
21
22.0975435
0
LINE
8
DEFAULT_255_2_778
10
25.6198219
20
23.3703781
11
28.1654219
21
20.8247781
0
LINE
8
DEFAULT_255_2_778
10
25.6198219
20
20.8247781
11
28.1654219
21
23.3703781
0
LINE
8
DEFAULT_255_2_778
10
21.8927081
20
25.297603
11
30.4427081
21
25.297603
0
LINE
8
DEFAULT_255_2_778
10
30.4427081
20
25.297603
11
30.4427081
21
18.897603
0
LINE
8
DEFAULT_255_2_778
10
30.4427081
20
18.897603
11
21.8927081
21
18.897603
0
LINE
8
DEFAULT_255_2_778
10
22.8928
20
18.897603
11
22.8928
21
25.297603
0
ARC
8
DEFAULT_255_2_778
10
26.8912989
20
29.717903
40
2.7486457
50
146.2822792
51
180.0074936
0
ARC
8
DEFAULT_255_2_778
10
26.8911952
20
29.7189955
40
2.7479531
50
119.9895387
51
146.3000267
0
ARC
8
DEFAULT_255_2_778
10
26.8917758
20
29.7200496
40
2.7473305
50
101.195869
51
120.0110136
0
ARC
8
DEFAULT_255_2_778
10
26.89254
20
29.7155732
40
2.7518702
50
89.9986832
51
101.1933806
0
ARC
8
DEFAULT_255_2_778
10
26.8930229
20
29.7189971
40
2.7484465
50
65.2409452
51
90.0087502
0
ARC
8
DEFAULT_255_2_778
10
26.8902173
20
29.7135955
40
2.7545265
50
59.9982549
51
65.2350054
0
ARC
8
DEFAULT_255_2_778
10
26.8933314
20
29.7181664
40
2.749011
50
26.2837748
51
60.0068263
0
ARC
8
DEFAULT_255_2_778
10
26.8950723
20
29.7180964
40
2.7474811
50
359.9884695
51
26.3011602
0
ARC
8
DEFAULT_255_2_778
10
26.893721
20
29.717149
40
2.7488323
50
326.2834548
51
0.0082217
0
ARC
8
DEFAULT_255_2_778
10
26.894046
20
29.7159394
40
2.7478906
50
299.9894531
51
326.3006729
0
ARC
8
DEFAULT_255_2_778
10
26.8934306
20
29.7149374
40
2.7473305
50
281.195869
51
300.0110136
0
ARC
8
DEFAULT_255_2_778
10
26.8926664
20
29.7194138
40
2.7518702
50
269.9986832
51
281.1933806
0
ARC
8
DEFAULT_255_2_778
10
26.8921835
20
29.7159899
40
2.7484465
50
245.2409452
51
270.0087502
0
ARC
8
DEFAULT_255_2_778
10
26.8949891
20
29.7213914
40
2.7545265
50
239.9982549
51
245.2350054
0
ARC
8
DEFAULT_255_2_778
10
26.8918423
20
29.7167713
40
2.748952
50
206.2828236
51
240.0069032
0
ARC
8
DEFAULT_255_2_778
10
26.8903883
20
29.7169679
40
2.7477353
50
179.9879971
51
206.2999237
0
LINE
8
DEFAULT_255_2_778
10
24.1426532
20
29.7175435
11
24.1426532
21
29.7175435
0
LINE
8
DEFAULT_255_2_778
10
25.6198219
20
30.9903781
11
28.1654219
21
28.4447781
0
LINE
8
DEFAULT_255_2_778
10
25.6198219
20
28.4447781
11
28.1654219
21
30.9903781
0
LINE
8
DEFAULT_255_2_778
10
21.8927081
20
32.917603
11
30.4427081
21
32.917603
0
LINE
8
DEFAULT_255_2_778
10
30.4427081
20
32.917603
11
30.4427081
21
26.517603
0
LINE
8
DEFAULT_255_2_778
10
30.4427081
20
26.517603
11
21.8927081
21
26.517603
0
LINE
8
DEFAULT_255_2_778
10
22.8928
20
26.517603
11
22.8928
21
32.917603
0
ARC
8
DEFAULT_255_2_778
10
26.8912989
20
37.337903
40
2.7486457
50
146.2822792
51
180.0074936
0
ARC
8
DEFAULT_255_2_778
10
26.8911952
20
37.3389955
40
2.7479531
50
119.9895387
51
146.3000267
0
ARC
8
DEFAULT_255_2_778
10
26.8917758
20
37.3400496
40
2.7473305
50
101.195869
51
120.0110136
0
ARC
8
DEFAULT_255_2_778
10
26.89254
20
37.3355732
40
2.7518702
50
89.9986832
51
101.1933806
0
ARC
8
DEFAULT_255_2_778
10
26.8930229
20
37.3389971
40
2.7484465
50
65.2409452
51
90.0087502
0
ARC
8
DEFAULT_255_2_778
10
26.8902173
20
37.3335955
40
2.7545265
50
59.9982549
51
65.2350054
0
ARC
8
DEFAULT_255_2_778
10
26.8933314
20
37.3381664
40
2.749011
50
26.2837748
51
60.0068263
0
ARC
8
DEFAULT_255_2_778
10
26.8950723
20
37.3380964
40
2.7474811
50
359.9884695
51
26.3011602
0
ARC
8
DEFAULT_255_2_778
10
26.893721
20
37.337149
40
2.7488323
50
326.2834548
51
0.0082217
0
ARC
8
DEFAULT_255_2_778
10
26.894046
20
37.3359394
40
2.7478906
50
299.9894531
51
326.3006729
0
ARC
8
DEFAULT_255_2_778
10
26.8934306
20
37.3349374
40
2.7473305
50
281.195869
51
300.0110136
0
ARC
8
DEFAULT_255_2_778
10
26.8926664
20
37.3394138
40
2.7518702
50
269.9986832
51
281.1933806
0
ARC
8
DEFAULT_255_2_778
10
26.8921835
20
37.3359899
40
2.7484465
50
245.2409452
51
270.0087502
0
ARC
8
DEFAULT_255_2_778
10
26.8949891
20
37.3413914
40
2.7545265
50
239.9982549
51
245.2350054
0
ARC
8
DEFAULT_255_2_778
10
26.8918423
20
37.3367713
40
2.748952
50
206.2828236
51
240.0069032
0
ARC
8
DEFAULT_255_2_778
10
26.8903883
20
37.3369679
40
2.7477353
50
179.9879971
51
206.2999237
0
LINE
8
DEFAULT_255_2_778
10
24.1426532
20
37.3375435
11
24.1426532
21
37.3375435
0
LINE
8
DEFAULT_255_2_778
10
25.6198219
20
38.6103781
11
28.1654219
21
36.0647781
0
LINE
8
DEFAULT_255_2_778
10
25.6198219
20
36.0647781
11
28.1654219
21
38.6103781
0
LINE
8
DEFAULT_255_2_778
10
21.8927081
20
40.537603
11
30.4427081
21
40.537603
0
LINE
8
DEFAULT_255_2_778
10
30.4427081
20
40.537603
11
30.4427081
21
34.137603
0
LINE
8
DEFAULT_255_2_778
10
30.4427081
20
34.137603
11
21.8927081
21
34.137603
0
LINE
8
DEFAULT_255_2_778
10
22.8928
20
34.137603
11
22.8928
21
40.537603
0
ARC
8
DEFAULT_255_2_778
10
26.8914579
20
44.9578963
40
2.7488047
50
146.2832822
51
180.0073532
0
ARC
8
DEFAULT_255_2_778
10
26.8906986
20
44.9594511
40
2.7473102
50
119.9853183
51
146.301465
0
ARC
8
DEFAULT_255_2_778
10
26.8917758
20
44.9600496
40
2.7473305
50
101.195869
51
120.0110136
0
ARC
8
DEFAULT_255_2_778
10
26.89254
20
44.9555732
40
2.7518702
50
89.9986832
51
101.1933806
0
ARC
8
DEFAULT_255_2_778
10
26.8930229
20
44.9589971
40
2.7484465
50
65.2409452
51
90.0087502
0
ARC
8
DEFAULT_255_2_778
10
26.8902173
20
44.9535955
40
2.7545265
50
59.9982549
51
65.2350054
0
ARC
8
DEFAULT_255_2_778
10
26.893731
20
44.9585073
40
2.748516
50
26.281696
51
60.0104886
0
ARC
8
DEFAULT_255_2_778
10
26.8948933
20
44.9580868
40
2.74766
50
359.9886699
51
26.3002895
0
ARC
8
DEFAULT_255_2_778
10
26.893721
20
44.957149
40
2.7488323
50
326.2834548
51
0.0082217
0
ARC
8
DEFAULT_255_2_778
10
26.894046
20
44.9559394
40
2.7478906
50
299.9894531
51
326.3006729
0
ARC
8
DEFAULT_255_2_778
10
26.8934306
20
44.9549374
40
2.7473305
50
281.195869
51
300.0110136
0
ARC
8
DEFAULT_255_2_778
10
26.8926664
20
44.9594138
40
2.7518702
50
269.9986832
51
281.1933806
0
ARC
8
DEFAULT_255_2_778
10
26.8921835
20
44.9559899
40
2.7484465
50
245.2409452
51
270.0087502
0
ARC
8
DEFAULT_255_2_778
10
26.8949891
20
44.9613914
40
2.7545265
50
239.9982549
51
245.2350054
0
ARC
8
DEFAULT_255_2_778
10
26.8918423
20
44.9567713
40
2.748952
50
206.2828236
51
240.0069032
0
ARC
8
DEFAULT_255_2_778
10
26.8903883
20
44.9569679
40
2.7477353
50
179.9879971
51
206.2999237
0
LINE
8
DEFAULT_255_2_778
10
24.1426532
20
44.9575435
11
24.1426532
21
44.9575435
0
LINE
8
DEFAULT_255_2_778
10
25.6198219
20
46.2303781
11
28.1654219
21
43.6847781
0
LINE
8
DEFAULT_255_2_778
10
25.6198219
20
43.6847781
11
28.1654219
21
46.2303781
0
LINE
8
DEFAULT_255_2_778
10
21.8927081
20
48.157603
11
30.4427081
21
48.157603
0
LINE
8
DEFAULT_255_2_778
10
30.4427081
20
48.157603
11
30.4427081
21
41.757603
0
LINE
8
DEFAULT_255_2_778
10
30.4427081
20
41.757603
11
21.8927081
21
41.757603
0
LINE
8
DEFAULT_255_2_778
10
22.8928
20
41.757603
11
22.8928
21
48.157603
0
ARC
8
DEFAULT_255_2_778
10
26.8912989
20
52.577903
40
2.7486457
50
146.2822792
51
180.0074936
0
ARC
8
DEFAULT_255_2_778
10
26.8911952
20
52.5789955
40
2.7479531
50
119.9895387
51
146.3000267
0
ARC
8
DEFAULT_255_2_778
10
26.8917758
20
52.5800496
40
2.7473305
50
101.195869
51
120.0110136
0
ARC
8
DEFAULT_255_2_778
10
26.89254
20
52.5755732
40
2.7518702
50
89.9986832
51
101.1933806
0
ARC
8
DEFAULT_255_2_778
10
26.8930229
20
52.5789971
40
2.7484465
50
65.2409452
51
90.0087502
0
ARC
8
DEFAULT_255_2_778
10
26.8902173
20
52.5735955
40
2.7545265
50
59.9982549
51
65.2350054
0
ARC
8
DEFAULT_255_2_778
10
26.8933314
20
52.5781664
40
2.749011
50
26.2837748
51
60.0068263
0
ARC
8
DEFAULT_255_2_778
10
26.8950723
20
52.5780964
40
2.7474811
50
359.9884695
51
26.3011602
0
ARC
8
DEFAULT_255_2_778
10
26.893721
20
52.577149
40
2.7488323
50
326.2834548
51
0.0082217
0
ARC
8
DEFAULT_255_2_778
10
26.894046
20
52.5759394
40
2.7478906
50
299.9894531
51
326.3006729
0
ARC
8
DEFAULT_255_2_778
10
26.8934306
20
52.5749374
40
2.7473305
50
281.195869
51
300.0110136
0
ARC
8
DEFAULT_255_2_778
10
26.8926664
20
52.5794138
40
2.7518702
50
269.9986832
51
281.1933806
0
ARC
8
DEFAULT_255_2_778
10
26.8921835
20
52.5759899
40
2.7484465
50
245.2409452
51
270.0087502
0
ARC
8
DEFAULT_255_2_778
10
26.8949891
20
52.5813914
40
2.7545265
50
239.9982549
51
245.2350054
0
ARC
8
DEFAULT_255_2_778
10
26.8918423
20
52.5767713
40
2.748952
50
206.2828236
51
240.0069032
0
ARC
8
DEFAULT_255_2_778
10
26.8903883
20
52.5769679
40
2.7477353
50
179.9879971
51
206.2999237
0
LINE
8
DEFAULT_255_2_778
10
24.1426532
20
52.5775435
11
24.1426532
21
52.5775435
0
LINE
8
DEFAULT_255_2_778
10
25.6198219
20
53.8503781
11
28.1654219
21
51.3047781
0
LINE
8
DEFAULT_255_2_778
10
25.6198219
20
51.3047781
11
28.1654219
21
53.8503781
0
LINE
8
DEFAULT_255_2_778
10
21.8927081
20
55.777603
11
30.4427081
21
55.777603
0
LINE
8
DEFAULT_255_2_778
10
30.4427081
20
55.777603
11
30.4427081
21
49.377603
0
LINE
8
DEFAULT_255_2_778
10
30.4427081
20
49.377603
11
21.8927081
21
49.377603
0
LINE
8
DEFAULT_255_2_778
10
22.8928
20
49.377603
11
22.8928
21
55.777603
0
ARC
8
DEFAULT_255_2_778
10
26.8912989
20
60.1979129
40
2.7486457
50
146.2822792
51
180.0074936
0
ARC
8
DEFAULT_255_2_778
10
26.8911952
20
60.1990055
40
2.7479531
50
119.9895387
51
146.3000267
0
ARC
8
DEFAULT_255_2_778
10
26.8917758
20
60.2000595
40
2.7473305
50
101.195869
51
120.0110136
0
ARC
8
DEFAULT_255_2_778
10
26.89254
20
60.1955831
40
2.7518702
50
89.9986832
51
101.1933806
0
ARC
8
DEFAULT_255_2_778
10
26.8930229
20
60.199007
40
2.7484465
50
65.2409452
51
90.0087502
0
ARC
8
DEFAULT_255_2_778
10
26.8902173
20
60.1936055
40
2.7545265
50
59.9982549
51
65.2350054
0
ARC
8
DEFAULT_255_2_778
10
26.8933314
20
60.1981763
40
2.749011
50
26.2837748
51
60.0068263
0
ARC
8
DEFAULT_255_2_778
10
26.8950723
20
60.1981063
40
2.7474811
50
359.9884695
51
26.3011602
0
ARC
8
DEFAULT_255_2_778
10
26.893721
20
60.197159
40
2.7488323
50
326.2834548
51
0.0082217
0
ARC
8
DEFAULT_255_2_778
10
26.894046
20
60.1959493
40
2.7478906
50
299.9894531
51
326.3006729
0
ARC
8
DEFAULT_255_2_778
10
26.8934306
20
60.1949473
40
2.7473305
50
281.195869
51
300.0110136
0
ARC
8
DEFAULT_255_2_778
10
26.8926664
20
60.1994238
40
2.7518702
50
269.9986832
51
281.1933806
0
ARC
8
DEFAULT_255_2_778
10
26.8921835
20
60.1959998
40
2.7484465
50
245.2409452
51
270.0087502
0
ARC
8
DEFAULT_255_2_778
10
26.8949891
20
60.2014014
40
2.7545265
50
239.9982549
51
245.2350054
0
ARC
8
DEFAULT_255_2_778
10
26.8918423
20
60.1967812
40
2.748952
50
206.2828236
51
240.0069032
0
ARC
8
DEFAULT_255_2_778
10
26.8903883
20
60.1969778
40
2.7477353
50
179.9879971
51
206.2999237
0
LINE
8
DEFAULT_255_2_778
10
24.1426532
20
60.1975534
11
24.1426532
21
60.1975534
0
LINE
8
DEFAULT_255_2_778
10
25.6198219
20
61.4703781
11
28.1654219
21
58.9247781
0
LINE
8
DEFAULT_255_2_778
10
25.6198219
20
58.9247781
11
28.1654219
21
61.4703781
0
LINE
8
DEFAULT_255_2_778
10
21.8927081
20
63.397603
11
30.4427081
21
63.397603
0
LINE
8
DEFAULT_255_2_778
10
30.4427081
20
63.397603
11
30.4427081
21
56.997603
0
LINE
8
DEFAULT_255_2_778
10
30.4427081
20
56.997603
11
21.8927081
21
56.997603
0
LINE
8
DEFAULT_255_2_778
10
22.8928
20
56.997603
11
22.8928
21
63.397603
0
ARC
8
DEFAULT_255_2_778
10
26.8912989
20
67.817903
40
2.7486457
50
146.2822792
51
180.0074936
0
ARC
8
DEFAULT_255_2_778
10
26.8911952
20
67.8189955
40
2.7479531
50
119.9895387
51
146.3000267
0
ARC
8
DEFAULT_255_2_778
10
26.8917758
20
67.8200496
40
2.7473305
50
101.195869
51
120.0110136
0
ARC
8
DEFAULT_255_2_778
10
26.89254
20
67.8155732
40
2.7518702
50
89.9986832
51
101.1933806
0
ARC
8
DEFAULT_255_2_778
10
26.8930229
20
67.8189971
40
2.7484465
50
65.2409452
51
90.0087502
0
ARC
8
DEFAULT_255_2_778
10
26.8902173
20
67.8135955
40
2.7545265
50
59.9982549
51
65.2350054
0
ARC
8
DEFAULT_255_2_778
10
26.8933314
20
67.8181664
40
2.749011
50
26.2837748
51
60.0068263
0
ARC
8
DEFAULT_255_2_778
10
26.8950723
20
67.8180964
40
2.7474811
50
359.9884695
51
26.3011602
0
ARC
8
DEFAULT_255_2_778
10
26.893721
20
67.817149
40
2.7488323
50
326.2834548
51
0.0082217
0
ARC
8
DEFAULT_255_2_778
10
26.894046
20
67.8159394
40
2.7478906
50
299.9894531
51
326.3006729
0
ARC
8
DEFAULT_255_2_778
10
26.8934306
20
67.8149374
40
2.7473305
50
281.195869
51
300.0110136
0
ARC
8
DEFAULT_255_2_778
10
26.8926664
20
67.8194138
40
2.7518702
50
269.9986832
51
281.1933806
0
ARC
8
DEFAULT_255_2_778
10
26.8921835
20
67.8159899
40
2.7484465
50
245.2409452
51
270.0087502
0
ARC
8
DEFAULT_255_2_778
10
26.8949891
20
67.8213914
40
2.7545265
50
239.9982549
51
245.2350054
0
ARC
8
DEFAULT_255_2_778
10
26.8918423
20
67.8167713
40
2.748952
50
206.2828236
51
240.0069032
0
ARC
8
DEFAULT_255_2_778
10
26.8903883
20
67.8169679
40
2.7477353
50
179.9879971
51
206.2999237
0
LINE
8
DEFAULT_255_2_778
10
24.1426532
20
67.8175435
11
24.1426532
21
67.8175435
0
LINE
8
DEFAULT_255_2_778
10
25.6198219
20
69.0903781
11
28.1654219
21
66.5447781
0
LINE
8
DEFAULT_255_2_778
10
25.6198219
20
66.5447781
11
28.1654219
21
69.0903781
0
LINE
8
DEFAULT_255_2_778
10
21.8927081
20
71.017603
11
30.4427081
21
71.017603
0
LINE
8
DEFAULT_255_2_778
10
30.4427081
20
71.017603
11
30.4427081
21
64.617603
0
LINE
8
DEFAULT_255_2_778
10
30.4427081
20
64.617603
11
21.8927081
21
64.617603
0
LINE
8
DEFAULT_255_2_778
10
22.8928
20
64.617603
11
22.8928
21
71.017603
0
ARC
8
DEFAULT_255_2_778
10
26.8912989
20
75.437903
40
2.7486457
50
146.2822792
51
180.0074936
0
ARC
8
DEFAULT_255_2_778
10
26.8911952
20
75.4389955
40
2.7479531
50
119.9895387
51
146.3000267
0
ARC
8
DEFAULT_255_2_778
10
26.8917758
20
75.4400496
40
2.7473305
50
101.195869
51
120.0110136
0
ARC
8
DEFAULT_255_2_778
10
26.89254
20
75.4355732
40
2.7518702
50
89.9986832
51
101.1933806
0
ARC
8
DEFAULT_255_2_778
10
26.8930229
20
75.4389971
40
2.7484465
50
65.2409452
51
90.0087502
0
ARC
8
DEFAULT_255_2_778
10
26.8902173
20
75.4335955
40
2.7545265
50
59.9982549
51
65.2350054
0
ARC
8
DEFAULT_255_2_778
10
26.8933314
20
75.4381664
40
2.749011
50
26.2837748
51
60.0068263
0
ARC
8
DEFAULT_255_2_778
10
26.8950723
20
75.4380964
40
2.7474811
50
359.9884695
51
26.3011602
0
ARC
8
DEFAULT_255_2_778
10
26.893721
20
75.437149
40
2.7488323
50
326.2834548
51
0.0082217
0
ARC
8
DEFAULT_255_2_778
10
26.894046
20
75.4359394
40
2.7478906
50
299.9894531
51
326.3006729
0
ARC
8
DEFAULT_255_2_778
10
26.8934306
20
75.4349374
40
2.7473305
50
281.195869
51
300.0110136
0
ARC
8
DEFAULT_255_2_778
10
26.8926664
20
75.4394138
40
2.7518702
50
269.9986832
51
281.1933806
0
ARC
8
DEFAULT_255_2_778
10
26.8921835
20
75.4359899
40
2.7484465
50
245.2409452
51
270.0087502
0
ARC
8
DEFAULT_255_2_778
10
26.8949891
20
75.4413914
40
2.7545265
50
239.9982549
51
245.2350054
0
ARC
8
DEFAULT_255_2_778
10
26.8918423
20
75.4367713
40
2.748952
50
206.2828236
51
240.0069032
0
ARC
8
DEFAULT_255_2_778
10
26.8903883
20
75.4369679
40
2.7477353
50
179.9879971
51
206.2999237
0
LINE
8
DEFAULT_255_2_778
10
24.1426532
20
75.4375435
11
24.1426532
21
75.4375435
0
LINE
8
DEFAULT_255_2_778
10
25.6198219
20
76.7103781
11
28.1654219
21
74.1647781
0
LINE
8
DEFAULT_255_2_778
10
25.6198219
20
74.1647781
11
28.1654219
21
76.7103781
0
LINE
8
DEFAULT_255_2_778
10
21.8927081
20
78.637603
11
30.4427081
21
78.637603
0
LINE
8
DEFAULT_255_2_778
10
30.4427081
20
78.637603
11
30.4427081
21
72.237603
0
LINE
8
DEFAULT_255_2_778
10
30.4427081
20
72.237603
11
21.8927081
21
72.237603
0
LINE
8
DEFAULT_255_2_778
10
22.8928
20
72.237603
11
22.8928
21
78.637603
0
ARC
8
DEFAULT_255_2_778
10
18.7413989
20
18.287903
40
2.7486457
50
146.2822792
51
180.0074936
0
ARC
8
DEFAULT_255_2_778
10
18.7412952
20
18.2889955
40
2.7479531
50
119.9895387
51
146.3000267
0
ARC
8
DEFAULT_255_2_778
10
18.7418758
20
18.2900496
40
2.7473305
50
101.195869
51
120.0110136
0
ARC
8
DEFAULT_255_2_778
10
18.74264
20
18.2855732
40
2.7518702
50
89.9986832
51
101.1933806
0
ARC
8
DEFAULT_255_2_778
10
18.7431229
20
18.2889971
40
2.7484465
50
65.2409452
51
90.0087502
0
ARC
8
DEFAULT_255_2_778
10
18.7403173
20
18.2835955
40
2.7545265
50
59.9982549
51
65.2350054
0
ARC
8
DEFAULT_255_2_778
10
18.7434314
20
18.2881664
40
2.749011
50
26.2837748
51
60.0068263
0
ARC
8
DEFAULT_255_2_778
10
18.7451723
20
18.2880964
40
2.7474811
50
359.9884695
51
26.3011602
0
ARC
8
DEFAULT_255_2_778
10
18.743821
20
18.287149
40
2.7488323
50
326.2834548
51
0.0082217
0
ARC
8
DEFAULT_255_2_778
10
18.744146
20
18.2859394
40
2.7478906
50
299.9894531
51
326.3006729
0
ARC
8
DEFAULT_255_2_778
10
18.7435306
20
18.2849374
40
2.7473305
50
281.195869
51
300.0110136
0
ARC
8
DEFAULT_255_2_778
10
18.7427664
20
18.2894138
40
2.7518702
50
269.9986832
51
281.1933806
0
ARC
8
DEFAULT_255_2_778
10
18.7422835
20
18.2859899
40
2.7484465
50
245.2409452
51
270.0087502
0
ARC
8
DEFAULT_255_2_778
10
18.7450891
20
18.2913914
40
2.7545265
50
239.9982549
51
245.2350054
0
ARC
8
DEFAULT_255_2_778
10
18.7419423
20
18.2867713
40
2.748952
50
206.2828236
51
240.0069032
0
ARC
8
DEFAULT_255_2_778
10
18.7404883
20
18.2869679
40
2.7477353
50
179.9879971
51
206.2999237
0
LINE
8
DEFAULT_255_2_778
10
15.9927532
20
18.2875435
11
15.9927532
21
18.2875435
0
LINE
8
DEFAULT_255_2_778
10
17.4699219
20
19.5603781
11
20.0155219
21
17.0147781
0
LINE
8
DEFAULT_255_2_778
10
17.4699917
20
17.014803
11
20.0154917
21
19.560403
0
LINE
8
DEFAULT_255_2_778
10
14.7428917
20
15.087603
11
14.7428917
21
21.487603
0
ARC
8
DEFAULT_255_2_778
10
18.7413989
20
25.907903
40
2.7486457
50
146.2822792
51
180.0074936
0
ARC
8
DEFAULT_255_2_778
10
18.7412952
20
25.9089955
40
2.7479531
50
119.9895387
51
146.3000267
0
ARC
8
DEFAULT_255_2_778
10
18.7418758
20
25.9100496
40
2.7473305
50
101.195869
51
120.0110136
0
ARC
8
DEFAULT_255_2_778
10
18.74264
20
25.9055732
40
2.7518702
50
89.9986832
51
101.1933806
0
ARC
8
DEFAULT_255_2_778
10
18.7431229
20
25.9089971
40
2.7484465
50
65.2409452
51
90.0087502
0
ARC
8
DEFAULT_255_2_778
10
18.7403173
20
25.9035955
40
2.7545265
50
59.9982549
51
65.2350054
0
ARC
8
DEFAULT_255_2_778
10
18.7434314
20
25.9081664
40
2.749011
50
26.2837748
51
60.0068263
0
ARC
8
DEFAULT_255_2_778
10
18.7451723
20
25.9080964
40
2.7474811
50
359.9884695
51
26.3011602
0
ARC
8
DEFAULT_255_2_778
10
18.743821
20
25.907149
40
2.7488323
50
326.2834548
51
0.0082217
0
ARC
8
DEFAULT_255_2_778
10
18.744146
20
25.9059394
40
2.7478906
50
299.9894531
51
326.3006729
0
ARC
8
DEFAULT_255_2_778
10
18.7435306
20
25.9049374
40
2.7473305
50
281.195869
51
300.0110136
0
ARC
8
DEFAULT_255_2_778
10
18.7427664
20
25.9094138
40
2.7518702
50
269.9986832
51
281.1933806
0
ARC
8
DEFAULT_255_2_778
10
18.7422835
20
25.9059899
40
2.7484465
50
245.2409452
51
270.0087502
0
ARC
8
DEFAULT_255_2_778
10
18.7450891
20
25.9113914
40
2.7545265
50
239.9982549
51
245.2350054
0
ARC
8
DEFAULT_255_2_778
10
18.7419423
20
25.9067713
40
2.748952
50
206.2828236
51
240.0069032
0
ARC
8
DEFAULT_255_2_778
10
18.7404883
20
25.9069679
40
2.7477353
50
179.9879971
51
206.2999237
0
LINE
8
DEFAULT_255_2_778
10
15.9927532
20
25.9075435
11
15.9927532
21
25.9075435
0
LINE
8
DEFAULT_255_2_778
10
17.4699219
20
27.1803781
11
20.0155219
21
24.6347781
0
LINE
8
DEFAULT_255_2_778
10
17.4699917
20
24.634803
11
20.0154917
21
27.180403
0
LINE
8
DEFAULT_255_2_778
10
14.7428917
20
22.707603
11
14.7428917
21
29.107603
0
ARC
8
DEFAULT_255_2_778
10
18.7413989
20
33.527903
40
2.7486457
50
146.2822792
51
180.0074936
0
ARC
8
DEFAULT_255_2_778
10
18.7412952
20
33.5289955
40
2.7479531
50
119.9895387
51
146.3000267
0
ARC
8
DEFAULT_255_2_778
10
18.7418758
20
33.5300496
40
2.7473305
50
101.195869
51
120.0110136
0
ARC
8
DEFAULT_255_2_778
10
18.74264
20
33.5255732
40
2.7518702
50
89.9986832
51
101.1933806
0
ARC
8
DEFAULT_255_2_778
10
18.7431229
20
33.5289971
40
2.7484465
50
65.2409452
51
90.0087502
0
ARC
8
DEFAULT_255_2_778
10
18.7403173
20
33.5235955
40
2.7545265
50
59.9982549
51
65.2350054
0
ARC
8
DEFAULT_255_2_778
10
18.7434314
20
33.5281664
40
2.749011
50
26.2837748
51
60.0068263
0
ARC
8
DEFAULT_255_2_778
10
18.7451723
20
33.5280964
40
2.7474811
50
359.9884695
51
26.3011602
0
ARC
8
DEFAULT_255_2_778
10
18.743821
20
33.527149
40
2.7488323
50
326.2834548
51
0.0082217
0
ARC
8
DEFAULT_255_2_778
10
18.744146
20
33.5259394
40
2.7478906
50
299.9894531
51
326.3006729
0
ARC
8
DEFAULT_255_2_778
10
18.7435306
20
33.5249374
40
2.7473305
50
281.195869
51
300.0110136
0
ARC
8
DEFAULT_255_2_778
10
18.7427664
20
33.5294138
40
2.7518702
50
269.9986832
51
281.1933806
0
ARC
8
DEFAULT_255_2_778
10
18.7422835
20
33.5259899
40
2.7484465
50
245.2409452
51
270.0087502
0
ARC
8
DEFAULT_255_2_778
10
18.7450891
20
33.5313914
40
2.7545265
50
239.9982549
51
245.2350054
0
ARC
8
DEFAULT_255_2_778
10
18.7419423
20
33.5267713
40
2.748952
50
206.2828236
51
240.0069032
0
ARC
8
DEFAULT_255_2_778
10
18.7404883
20
33.5269679
40
2.7477353
50
179.9879971
51
206.2999237
0
LINE
8
DEFAULT_255_2_778
10
15.9927532
20
33.5275435
11
15.9927532
21
33.5275435
0
LINE
8
DEFAULT_255_2_778
10
17.4699219
20
34.8003781
11
20.0155219
21
32.2547781
0
LINE
8
DEFAULT_255_2_778
10
17.4699917
20
32.254803
11
20.0154917
21
34.800403
0
LINE
8
DEFAULT_255_2_778
10
14.7428917
20
30.327603
11
14.7428917
21
36.727603
0
ARC
8
DEFAULT_255_2_778
10
18.7413989
20
41.1479129
40
2.7486457
50
146.2822792
51
180.0074936
0
ARC
8
DEFAULT_255_2_778
10
18.7412952
20
41.1490055
40
2.7479531
50
119.9895387
51
146.3000267
0
ARC
8
DEFAULT_255_2_778
10
18.7418758
20
41.1500595
40
2.7473305
50
101.195869
51
120.0110136
0
ARC
8
DEFAULT_255_2_778
10
18.74264
20
41.1455831
40
2.7518702
50
89.9986832
51
101.1933806
0
ARC
8
DEFAULT_255_2_778
10
18.7431229
20
41.149007
40
2.7484465
50
65.2409452
51
90.0087502
0
ARC
8
DEFAULT_255_2_778
10
18.7403173
20
41.1436055
40
2.7545265
50
59.9982549
51
65.2350054
0
ARC
8
DEFAULT_255_2_778
10
18.7434314
20
41.1481763
40
2.749011
50
26.2837748
51
60.0068263
0
ARC
8
DEFAULT_255_2_778
10
18.7451723
20
41.1481063
40
2.7474811
50
359.9884695
51
26.3011602
0
ARC
8
DEFAULT_255_2_778
10
18.743821
20
41.147159
40
2.7488323
50
326.2834548
51
0.0082217
0
ARC
8
DEFAULT_255_2_778
10
18.744146
20
41.1459493
40
2.7478906
50
299.9894531
51
326.3006729
0
ARC
8
DEFAULT_255_2_778
10
18.7435306
20
41.1449473
40
2.7473305
50
281.195869
51
300.0110136
0
ARC
8
DEFAULT_255_2_778
10
18.7427664
20
41.1494238
40
2.7518702
50
269.9986832
51
281.1933806
0
ARC
8
DEFAULT_255_2_778
10
18.7422835
20
41.1459998
40
2.7484465
50
245.2409452
51
270.0087502
0
ARC
8
DEFAULT_255_2_778
10
18.7450891
20
41.1514014
40
2.7545265
50
239.9982549
51
245.2350054
0
ARC
8
DEFAULT_255_2_778
10
18.7419423
20
41.1467812
40
2.748952
50
206.2828236
51
240.0069032
0
ARC
8
DEFAULT_255_2_778
10
18.7404883
20
41.1469778
40
2.7477353
50
179.9879971
51
206.2999237
0
LINE
8
DEFAULT_255_2_778
10
15.9927532
20
41.1475534
11
15.9927532
21
41.1475534
0
LINE
8
DEFAULT_255_2_778
10
17.4699219
20
42.4203781
11
20.0155219
21
39.8747781
0
LINE
8
DEFAULT_255_2_778
10
17.4699917
20
39.874803
11
20.0154917
21
42.420403
0
LINE
8
DEFAULT_255_2_778
10
14.7428917
20
37.947603
11
14.7428917
21
44.347603
0
ARC
8
DEFAULT_255_2_778
10
18.7415579
20
48.7681963
40
2.7488047
50
146.2832822
51
180.0073532
0
ARC
8
DEFAULT_255_2_778
10
18.7407986
20
48.7697511
40
2.7473102
50
119.9853183
51
146.301465
0
ARC
8
DEFAULT_255_2_778
10
18.7418758
20
48.7703496
40
2.7473305
50
101.195869
51
120.0110136
0
ARC
8
DEFAULT_255_2_778
10
18.74264
20
48.7658732
40
2.7518702
50
89.9986832
51
101.1933806
0
ARC
8
DEFAULT_255_2_778
10
18.7431229
20
48.7692971
40
2.7484465
50
65.2409452
51
90.0087502
0
ARC
8
DEFAULT_255_2_778
10
18.7403173
20
48.7638955
40
2.7545265
50
59.9982549
51
65.2350054
0
ARC
8
DEFAULT_255_2_778
10
18.743831
20
48.7688073
40
2.748516
50
26.281696
51
60.0104886
0
ARC
8
DEFAULT_255_2_778
10
18.7449933
20
48.7683868
40
2.74766
50
359.9886699
51
26.3002895
0
ARC
8
DEFAULT_255_2_778
10
18.743821
20
48.767449
40
2.7488323
50
326.2834548
51
0.0082217
0
ARC
8
DEFAULT_255_2_778
10
18.744146
20
48.7662394
40
2.7478906
50
299.9894531
51
326.3006729
0
ARC
8
DEFAULT_255_2_778
10
18.7435306
20
48.7652374
40
2.7473305
50
281.195869
51
300.0110136
0
ARC
8
DEFAULT_255_2_778
10
18.7427664
20
48.7697138
40
2.7518702
50
269.9986832
51
281.1933806
0
ARC
8
DEFAULT_255_2_778
10
18.7422835
20
48.7662899
40
2.7484465
50
245.2409452
51
270.0087502
0
ARC
8
DEFAULT_255_2_778
10
18.7450891
20
48.7716914
40
2.7545265
50
239.9982549
51
245.2350054
0
ARC
8
DEFAULT_255_2_778
10
18.7419423
20
48.7670713
40
2.748952
50
206.2828236
51
240.0069032
0
ARC
8
DEFAULT_255_2_778
10
18.7404883
20
48.7672679
40
2.7477353
50
179.9879971
51
206.2999237
0
LINE
8
DEFAULT_255_2_778
10
15.9927532
20
48.7678435
11
15.9927532
21
48.7678435
0
LINE
8
DEFAULT_255_2_778
10
17.4699219
20
50.0403781
11
20.0155219
21
47.4947781
0
LINE
8
DEFAULT_255_2_778
10
17.4699917
20
47.494803
11
20.0154917
21
50.040403
0
LINE
8
DEFAULT_255_2_778
10
14.7428917
20
45.567603
11
14.7428917
21
51.967603
0
ARC
8
DEFAULT_255_2_778
10
18.7413989
20
56.387903
40
2.7486457
50
146.2822792
51
180.0074936
0
ARC
8
DEFAULT_255_2_778
10
18.7412952
20
56.3889955
40
2.7479531
50
119.9895387
51
146.3000267
0
ARC
8
DEFAULT_255_2_778
10
18.7418758
20
56.3900496
40
2.7473305
50
101.195869
51
120.0110136
0
ARC
8
DEFAULT_255_2_778
10
18.74264
20
56.3855732
40
2.7518702
50
89.9986832
51
101.1933806
0
ARC
8
DEFAULT_255_2_778
10
18.7431229
20
56.3889971
40
2.7484465
50
65.2409452
51
90.0087502
0
ARC
8
DEFAULT_255_2_778
10
18.7403173
20
56.3835955
40
2.7545265
50
59.9982549
51
65.2350054
0
ARC
8
DEFAULT_255_2_778
10
18.7434314
20
56.3881664
40
2.749011
50
26.2837748
51
60.0068263
0
ARC
8
DEFAULT_255_2_778
10
18.7451723
20
56.3880964
40
2.7474811
50
359.9884695
51
26.3011602
0
ARC
8
DEFAULT_255_2_778
10
18.743821
20
56.387149
40
2.7488323
50
326.2834548
51
0.0082217
0
ARC
8
DEFAULT_255_2_778
10
18.744146
20
56.3859394
40
2.7478906
50
299.9894531
51
326.3006729
0
ARC
8
DEFAULT_255_2_778
10
18.7435306
20
56.3849374
40
2.7473305
50
281.195869
51
300.0110136
0
ARC
8
DEFAULT_255_2_778
10
18.7427664
20
56.3894138
40
2.7518702
50
269.9986832
51
281.1933806
0
ARC
8
DEFAULT_255_2_778
10
18.7422835
20
56.3859899
40
2.7484465
50
245.2409452
51
270.0087502
0
ARC
8
DEFAULT_255_2_778
10
18.7450891
20
56.3913914
40
2.7545265
50
239.9982549
51
245.2350054
0
ARC
8
DEFAULT_255_2_778
10
18.7419423
20
56.3867713
40
2.748952
50
206.2828236
51
240.0069032
0
ARC
8
DEFAULT_255_2_778
10
18.7404883
20
56.3869679
40
2.7477353
50
179.9879971
51
206.2999237
0
LINE
8
DEFAULT_255_2_778
10
15.9927532
20
56.3875435
11
15.9927532
21
56.3875435
0
LINE
8
DEFAULT_255_2_778
10
17.4699219
20
57.6603781
11
20.0155219
21
55.1147781
0
LINE
8
DEFAULT_255_2_778
10
17.4699917
20
55.114803
11
20.0154917
21
57.660403
0
LINE
8
DEFAULT_255_2_778
10
14.7428917
20
53.187603
11
14.7428917
21
59.587603
0
ARC
8
DEFAULT_255_2_778
10
18.7415579
20
64.0078963
40
2.7488047
50
146.2832822
51
180.0073532
0
ARC
8
DEFAULT_255_2_778
10
18.7407986
20
64.0094511
40
2.7473102
50
119.9853183
51
146.301465
0
ARC
8
DEFAULT_255_2_778
10
18.7418758
20
64.0100496
40
2.7473305
50
101.195869
51
120.0110136
0
ARC
8
DEFAULT_255_2_778
10
18.74264
20
64.0055732
40
2.7518702
50
89.9986832
51
101.1933806
0
ARC
8
DEFAULT_255_2_778
10
18.7431229
20
64.0089971
40
2.7484465
50
65.2409452
51
90.0087502
0
ARC
8
DEFAULT_255_2_778
10
18.7403173
20
64.0035955
40
2.7545265
50
59.9982549
51
65.2350054
0
ARC
8
DEFAULT_255_2_778
10
18.743831
20
64.0085073
40
2.748516
50
26.281696
51
60.0104886
0
ARC
8
DEFAULT_255_2_778
10
18.7449933
20
64.0080868
40
2.74766
50
359.9886699
51
26.3002895
0
ARC
8
DEFAULT_255_2_778
10
18.743821
20
64.007149
40
2.7488323
50
326.2834548
51
0.0082217
0
ARC
8
DEFAULT_255_2_778
10
18.744146
20
64.0059394
40
2.7478906
50
299.9894531
51
326.3006729
0
ARC
8
DEFAULT_255_2_778
10
18.7435306
20
64.0049374
40
2.7473305
50
281.195869
51
300.0110136
0
ARC
8
DEFAULT_255_2_778
10
18.7427664
20
64.0094138
40
2.7518702
50
269.9986832
51
281.1933806
0
ARC
8
DEFAULT_255_2_778
10
18.7422835
20
64.0059899
40
2.7484465
50
245.2409452
51
270.0087502
0
ARC
8
DEFAULT_255_2_778
10
18.7450891
20
64.0113914
40
2.7545265
50
239.9982549
51
245.2350054
0
ARC
8
DEFAULT_255_2_778
10
18.7419423
20
64.0067713
40
2.748952
50
206.2828236
51
240.0069032
0
ARC
8
DEFAULT_255_2_778
10
18.7404883
20
64.0069679
40
2.7477353
50
179.9879971
51
206.2999237
0
LINE
8
DEFAULT_255_2_778
10
15.9927532
20
64.0075435
11
15.9927532
21
64.0075435
0
LINE
8
DEFAULT_255_2_778
10
17.4699219
20
65.2803781
11
20.0155219
21
62.7347781
0
LINE
8
DEFAULT_255_2_778
10
17.4699917
20
62.734803
11
20.0154917
21
65.280403
0
LINE
8
DEFAULT_255_2_778
10
14.7428917
20
60.807603
11
14.7428917
21
67.207603
0
ARC
8
DEFAULT_255_2_778
10
18.7413989
20
71.627903
40
2.7486457
50
146.2822792
51
180.0074936
0
ARC
8
DEFAULT_255_2_778
10
18.7412952
20
71.6289955
40
2.7479531
50
119.9895387
51
146.3000267
0
ARC
8
DEFAULT_255_2_778
10
18.7418758
20
71.6300496
40
2.7473305
50
101.195869
51
120.0110136
0
ARC
8
DEFAULT_255_2_778
10
18.74264
20
71.6255732
40
2.7518702
50
89.9986832
51
101.1933806
0
ARC
8
DEFAULT_255_2_778
10
18.7431229
20
71.6289971
40
2.7484465
50
65.2409452
51
90.0087502
0
ARC
8
DEFAULT_255_2_778
10
18.7403173
20
71.6235955
40
2.7545265
50
59.9982549
51
65.2350054
0
ARC
8
DEFAULT_255_2_778
10
18.7434314
20
71.6281664
40
2.749011
50
26.2837748
51
60.0068263
0
ARC
8
DEFAULT_255_2_778
10
18.7451723
20
71.6280964
40
2.7474811
50
359.9884695
51
26.3011602
0
ARC
8
DEFAULT_255_2_778
10
18.743821
20
71.627149
40
2.7488323
50
326.2834548
51
0.0082217
0
ARC
8
DEFAULT_255_2_778
10
18.744146
20
71.6259394
40
2.7478906
50
299.9894531
51
326.3006729
0
ARC
8
DEFAULT_255_2_778
10
18.7435306
20
71.6249374
40
2.7473305
50
281.195869
51
300.0110136
0
ARC
8
DEFAULT_255_2_778
10
18.7427664
20
71.6294138
40
2.7518702
50
269.9986832
51
281.1933806
0
ARC
8
DEFAULT_255_2_778
10
18.7422835
20
71.6259899
40
2.7484465
50
245.2409452
51
270.0087502
0
ARC
8
DEFAULT_255_2_778
10
18.7450891
20
71.6313914
40
2.7545265
50
239.9982549
51
245.2350054
0
ARC
8
DEFAULT_255_2_778
10
18.7419423
20
71.6267713
40
2.748952
50
206.2828236
51
240.0069032
0
ARC
8
DEFAULT_255_2_778
10
18.7404883
20
71.6269679
40
2.7477353
50
179.9879971
51
206.2999237
0
LINE
8
DEFAULT_255_2_778
10
15.9927532
20
71.6275435
11
15.9927532
21
71.6275435
0
LINE
8
DEFAULT_255_2_778
10
17.4699219
20
72.9003781
11
20.0155219
21
70.3547781
0
LINE
8
DEFAULT_255_2_778
10
17.4699917
20
70.354803
11
20.0154917
21
72.900403
0
LINE
8
DEFAULT_255_2_778
10
14.7428917
20
68.427603
11
14.7428917
21
74.827603
0
ARC
8
DEFAULT_255_2_778
10
18.7413989
20
79.247903
40
2.7486457
50
146.2822792
51
180.0074936
0
ARC
8
DEFAULT_255_2_778
10
18.7412952
20
79.2489955
40
2.7479531
50
119.9895387
51
146.3000267
0
ARC
8
DEFAULT_255_2_778
10
18.7418758
20
79.2500496
40
2.7473305
50
101.195869
51
120.0110136
0
ARC
8
DEFAULT_255_2_778
10
18.74264
20
79.2455732
40
2.7518702
50
89.9986832
51
101.1933806
0
ARC
8
DEFAULT_255_2_778
10
18.7431229
20
79.2489971
40
2.7484465
50
65.2409452
51
90.0087502
0
ARC
8
DEFAULT_255_2_778
10
18.7403173
20
79.2435955
40
2.7545265
50
59.9982549
51
65.2350054
0
ARC
8
DEFAULT_255_2_778
10
18.7434314
20
79.2481664
40
2.749011
50
26.2837748
51
60.0068263
0
ARC
8
DEFAULT_255_2_778
10
18.7451723
20
79.2480964
40
2.7474811
50
359.9884695
51
26.3011602
0
ARC
8
DEFAULT_255_2_778
10
18.743821
20
79.247149
40
2.7488323
50
326.2834548
51
0.0082217
0
ARC
8
DEFAULT_255_2_778
10
18.744146
20
79.2459394
40
2.7478906
50
299.9894531
51
326.3006729
0
ARC
8
DEFAULT_255_2_778
10
18.7435306
20
79.2449374
40
2.7473305
50
281.195869
51
300.0110136
0
ARC
8
DEFAULT_255_2_778
10
18.7427664
20
79.2494138
40
2.7518702
50
269.9986832
51
281.1933806
0
ARC
8
DEFAULT_255_2_778
10
18.7422835
20
79.2459899
40
2.7484465
50
245.2409452
51
270.0087502
0
ARC
8
DEFAULT_255_2_778
10
18.7450891
20
79.2513914
40
2.7545265
50
239.9982549
51
245.2350054
0
ARC
8
DEFAULT_255_2_778
10
18.7419423
20
79.2467713
40
2.748952
50
206.2828236
51
240.0069032
0
ARC
8
DEFAULT_255_2_778
10
18.7404883
20
79.2469679
40
2.7477353
50
179.9879971
51
206.2999237
0
LINE
8
DEFAULT_255_2_778
10
15.9927532
20
79.2475435
11
15.9927532
21
79.2475435
0
LINE
8
DEFAULT_255_2_778
10
17.4699219
20
80.5203781
11
20.0155219
21
77.9747781
0
LINE
8
DEFAULT_255_2_778
10
17.4699917
20
77.974803
11
20.0154917
21
80.520403
0
LINE
8
DEFAULT_255_2_778
10
14.7428917
20
76.047603
11
14.7428917
21
82.447603
0
ENDSEC
0
EOF