0
SECTION
2
HEADER
9
$MEASUREMENT
70
1
0
ENDSEC
0
SECTION
2
TABLES
0
TABLE
2
LTYPE
0
LTYPE
72
65
70
64
2
CONTINUOUS
3
______
73
0
40
0
0
ENDTAB
0
TABLE
2
LAYER
0
LAYER
2
DEFAULT_255_2_778
70
0
62
255
6
CONTINUOUS
0
ENDTAB
0
ENDSEC
0
SECTION
2
ENTITIES
0
ARC
8
DEFAULT_255_2_778
10
24.5155188
20
94.787533
40
0.3009534
50
135.0935328
51
179.9507945
0
ARC
8
DEFAULT_255_2_778
10
24.5142296
20
94.7882756
40
0.2995163
50
90.0078044
51
135.0200519
0
LINE
8
DEFAULT_255_2_778
10
24.5141888
20
95.0877917
11
24.5145655
21
95.0877914
0
LINE
8
DEFAULT_255_2_778
10
24.5145655
20
95.0877914
11
37.4146655
21
95.0877914
0
LINE
8
DEFAULT_255_2_778
10
37.4146655
20
95.0877914
11
37.4146655
21
92.2876914
0
LINE
8
DEFAULT_255_2_778
10
37.4146655
20
92.2876914
11
31.8146655
21
92.2876914
0
LINE
8
DEFAULT_255_2_778
10
31.8144655
20
7.8874914
11
37.4143655
21
7.8874914
0
LINE
8
DEFAULT_255_2_778
10
37.4143655
20
7.8874914
11
37.4143655
21
5.0873914
0
LINE
8
DEFAULT_255_2_778
10
24.2145655
20
94.7877914
11
24.2145655
21
5.3876914
0
LINE
8
DEFAULT_255_2_778
10
31.4143655
20
8.2875914
11
31.4143655
21
91.8876914
0
LINE
8
DEFAULT_255_2_778
10
52.1270655
20
95.0875914
11
52.1270655
21
95.9876914
0
LINE
8
DEFAULT_255_2_778
10
52.1270655
20
95.9876914
11
52.9268655
21
95.9876914
0
LINE
8
DEFAULT_255_2_778
10
52.9268655
20
95.9876914
11
52.9268655
21
96.3874914
0
LINE
8
DEFAULT_255_2_778
10
52.9268655
20
96.3874914
11
53.9269655
21
96.3874914
0
LINE
8
DEFAULT_255_2_778
10
53.9269655
20
96.3874914
11
53.9269655
21
96.7874914
0
LINE
8
DEFAULT_255_2_778
10
53.9269655
20
96.7874914
11
55.1271655
21
96.7874914
0
LINE
8
DEFAULT_255_2_778
10
55.1271655
20
96.7874914
11
55.1271655
21
97.1875914
0
LINE
8
DEFAULT_255_2_778
10
55.1271655
20
97.1875914
11
56.6270655
21
97.1875914
0
LINE
8
DEFAULT_255_2_778
10
56.6270655
20
97.1875914
11
56.6270655
21
97.5875914
0
LINE
8
DEFAULT_255_2_778
10
56.6270655
20
97.5875914
11
61.6271655
21
97.5875914
0
LINE
8
DEFAULT_255_2_778
10
61.6271655
20
97.5875914
11
61.6271655
21
97.1875914
0
LINE
8
DEFAULT_255_2_778
10
61.6271655
20
97.1875914
11
63.1270655
21
97.1875914
0
LINE
8
DEFAULT_255_2_778
10
63.1270655
20
97.1875914
11
63.1270655
21
96.7874914
0
LINE
8
DEFAULT_255_2_778
10
63.1270655
20
96.7874914
11
64.3269655
21
96.7874914
0
LINE
8
DEFAULT_255_2_778
10
64.3269655
20
96.7874914
11
64.3269655
21
96.3874914
0
LINE
8
DEFAULT_255_2_778
10
64.3269655
20
96.3874914
11
65.3268655
21
96.3874914
0
LINE
8
DEFAULT_255_2_778
10
65.3268655
20
96.3874914
11
65.3268655
21
95.9876914
0
LINE
8
DEFAULT_255_2_778
10
65.3268655
20
95.9876914
11
66.1269655
21
95.9876914
0
LINE
8
DEFAULT_255_2_778
10
66.1269655
20
95.9876914
11
66.1269655
21
95.0877914
0
LINE
8
DEFAULT_255_2_778
10
0.2144655
20
84.2475914
11
0.2144655
21
7.8773914
0
LINE
8
DEFAULT_255_2_778
10
0.2144655
20
7.8773914
11
3.4143655
21
7.8773914
0
LINE
8
DEFAULT_255_2_778
10
3.4143655
20
7.8773914
11
3.4143655
21
9.3773914
0
LINE
8
DEFAULT_255_2_778
10
3.4143655
20
9.3773914
11
0.2144655
21
9.3773914
0
LINE
8
DEFAULT_255_2_778
10
0.2144233
20
11.3776177
11
2.2144233
21
11.3776177
0
LINE
8
DEFAULT_255_2_778
10
2.2144233
20
11.3776177
11
2.2144233
21
81.1477177
0
LINE
8
DEFAULT_255_2_778
10
2.2144233
20
81.1477177
11
0.2144233
21
81.1477177
0
LINE
8
DEFAULT_255_2_778
10
3.6148233
20
84.2476177
11
3.6148233
21
82.4476177
0
LINE
8
DEFAULT_255_2_778
10
3.6148233
20
82.4476177
11
0.2147233
21
82.4476177
0
LINE
8
DEFAULT_255_2_778
10
0.2147233
20
82.4476177
11
0.2147233
21
81.2478177
0
LINE
8
DEFAULT_255_2_778
10
0.2147233
20
81.2478177
11
3.2148233
21
81.2478177
0
LINE
8
DEFAULT_255_2_778
10
3.2148233
20
81.2475177
11
3.2148233
21
11.2776177
0
LINE
8
DEFAULT_255_2_778
10
3.2148233
20
11.2776177
11
0.2147233
21
11.2776177
0
LINE
8
DEFAULT_255_2_778
10
0.2147233
20
11.2776177
11
0.2147233
21
9.4777177
0
LINE
8
DEFAULT_255_2_778
10
0.2147233
20
9.4777177
11
22.2148233
21
9.4777177
0
LINE
8
DEFAULT_255_2_778
10
22.2148233
20
9.4777177
11
22.2148233
21
12.5773177
0
LINE
8
DEFAULT_255_2_778
10
22.2148233
20
12.5773177
11
24.2148233
21
12.5773177
0
LINE
8
DEFAULT_255_2_778
10
2.4144233
20
8.0778177
11
1.2145233
21
8.0778177
0
LINE
8
DEFAULT_255_2_778
10
24.214495
20
84.2476197
11
0.214395
21
84.2476197
0
LINE
8
DEFAULT_255_2_778
10
85.214395
20
32.6875197
11
86.362695
21
32.6875197
0
LINE
8
DEFAULT_255_2_778
10
86.362695
20
32.6875197
11
86.514295
21
35.1875197
0
LINE
8
DEFAULT_255_2_778
10
86.514295
20
35.1875197
11
87.014395
21
35.1875197
0
LINE
8
DEFAULT_255_2_778
10
87.014395
20
35.1875197
11
88.585195
21
32.3311197
0
LINE
8
DEFAULT_255_2_778
10
89.214395
20
1.7876197
11
85.314495
21
1.7876197
0
LINE
8
DEFAULT_255_2_778
10
85.3145209
20
5.0876464
11
85.3145209
21
-0.2124536
0
LINE
8
DEFAULT_255_2_778
10
85.3145209
20
-0.2124536
11
89.2145209
21
-0.2124536
0
LINE
8
DEFAULT_255_2_778
10
89.2145209
20
-0.2124536
11
89.2145209
21
32.2114464
0
LINE
8
DEFAULT_255_2_778
10
87.2144279
20
5.0877397
11
87.2144279
21
4.8376397
0
LINE
8
DEFAULT_255_2_778
10
87.2144279
20
4.8376397
11
89.2144279
21
4.8376397
0
LINE
8
DEFAULT_255_2_778
10
84.6643279
20
70.5876397
11
89.0641279
21
70.5876397
0
LINE
8
DEFAULT_255_2_778
10
89.2146279
20
70.5879397
11
89.2146279
21
68.0879397
0
LINE
8
DEFAULT_255_2_778
10
89.2146279
20
68.0879397
11
85.2144279
21
68.0879397
0
LINE
8
DEFAULT_255_2_778
10
85.2144279
20
68.0879397
11
85.2147279
21
64.2972397
0
LINE
8
DEFAULT_255_2_778
10
38.9136279
20
5.0877397
11
38.9136279
21
7.9875397
0
LINE
8
DEFAULT_255_2_778
10
38.9136279
20
7.9875397
11
32.1144279
21
7.9875397
0
LINE
8
DEFAULT_255_2_778
10
32.1144279
20
7.9875397
11
31.4143279
21
8.6873397
0
ARC
8
DEFAULT_255_2_778
10
88.9142951
20
94.7877367
40
0.3001308
50
0.0249788
51
89.9941166
0
LINE
8
DEFAULT_255_2_778
10
89.0644259
20
70.5876675
11
89.2144259
21
70.5876675
0
LINE
8
DEFAULT_255_2_778
10
88.9143259
20
95.0878675
11
31.4143259
21
95.0878675
0
LINE
8
DEFAULT_255_2_778
10
31.4143259
20
82.8876675
11
32.6145259
21
82.8876675
0
LINE
8
DEFAULT_255_2_778
10
32.6145259
20
82.8876675
11
32.6145259
21
74.8877675
0
LINE
8
DEFAULT_255_2_778
10
32.6145259
20
74.8877675
11
31.4143259
21
74.8877675
0
LINE
8
DEFAULT_255_2_778
10
31.4143259
20
63.6876675
11
32.6145259
21
63.6876675
0
LINE
8
DEFAULT_255_2_778
10
32.6145259
20
63.6876675
11
32.6145259
21
55.6876675
0
LINE
8
DEFAULT_255_2_778
10
32.6145259
20
55.6876675
11
31.4143259
21
55.6876675
0
LINE
8
DEFAULT_255_2_778
10
85.2141259
20
32.6877675
11
85.2144259
21
62.2485675
0
LINE
8
DEFAULT_255_2_778
10
24.5145259
20
5.0877675
11
88.9143259
21
5.0877675
0
LINE
8
DEFAULT_255_2_778
10
89.2146259
20
93.0878675
11
89.2146259
21
94.7878675
0
ARC
8
DEFAULT_255_2_778
10
38.9638939
20
65.3375707
40
0.5000116
50
180.0013268
51
270.0101312
0
ARC
8
DEFAULT_255_2_778
10
78.4642561
20
65.3374854
40
0.4999262
50
269.9915458
51
0.0084542
0
ARC
8
DEFAULT_255_2_778
10
78.4641919
20
84.8376688
40
0.4999904
50
359.9988949
51
90.0010993
0
ARC
8
DEFAULT_255_2_778
10
38.9639581
20
84.8375834
40
0.5000757
50
89.9972237
51
179.991324
0
LINE
8
DEFAULT_255_2_778
10
86.3630823
20
32.6877591
11
86.7146823
21
32.6877591
0
LINE
8
DEFAULT_255_2_778
10
89.2144823
20
32.1876591
11
89.1718823
21
32.2196591
0
LINE
8
DEFAULT_255_2_778
10
89.1718823
20
32.2196591
11
86.7143823
21
32.6877591
0
LINE
8
DEFAULT_255_2_778
10
38.9136823
20
95.0878591
11
38.9136823
21
92.1877591
0
LINE
8
DEFAULT_255_2_778
10
38.9136823
20
92.1877591
11
32.1144823
21
92.1877591
0
LINE
8
DEFAULT_255_2_778
10
32.1144823
20
92.1877591
11
31.4143823
21
91.4876591
0
LINE
8
DEFAULT_255_2_778
10
24.2142823
20
82.2976591
11
22.7143823
21
82.2976591
0
LINE
8
DEFAULT_255_2_778
10
22.7143823
20
82.2976591
11
22.7143823
21
81.2977591
0
LINE
8
DEFAULT_255_2_778
10
22.7143823
20
81.2977591
11
23.2143823
21
80.7977591
0
LINE
8
DEFAULT_255_2_778
10
24.2142823
20
12.0877591
11
22.7143823
21
12.0877591
0
LINE
8
DEFAULT_255_2_778
10
22.7143823
20
12.0877591
11
22.7143823
21
8.4881591
0
LINE
8
DEFAULT_255_2_778
10
22.7143823
20
8.4881591
11
24.2144823
21
8.4881591
0
LINE
8
DEFAULT_255_2_778
10
22.2145823
20
84.2476591
11
22.2145823
21
80.6971591
0
LINE
8
DEFAULT_255_2_778
10
89.2146823
20
65.5881591
11
89.2146823
21
70.5869591
0
LINE
8
DEFAULT_255_2_778
10
86.2106823
20
68.0884591
11
86.8106823
21
66.5885591
0
LINE
8
DEFAULT_255_2_778
10
86.8106823
20
66.5885591
11
87.5105823
21
65.5883591
0
LINE
8
DEFAULT_255_2_778
10
87.5105823
20
65.5883591
11
89.2146823
21
65.5883591
0
LINE
8
DEFAULT_255_2_778
10
38.9639823
20
64.8375591
11
78.4641823
21
64.8375591
0
LINE
8
DEFAULT_255_2_778
10
78.9641823
20
65.3375591
11
78.9641823
21
84.8376591
0
LINE
8
DEFAULT_255_2_778
10
78.4641823
20
85.3376591
11
38.9639823
21
85.3376591
0
LINE
8
DEFAULT_255_2_778
10
38.4638823
20
84.8376591
11
38.4638823
21
65.3375591
0
LINE
8
DEFAULT_255_2_778
10
75.5145823
20
16.6375591
11
75.5145823
21
14.9876591
0
LINE
8
DEFAULT_255_2_778
10
75.5145823
20
14.9876591
11
72.2144823
21
14.9876591
0
LINE
8
DEFAULT_255_2_778
10
72.2144823
20
14.9876591
11
72.2144823
21
16.6375591
0
LINE
8
DEFAULT_255_2_778
10
72.2144823
20
16.6375591
11
75.5145823
21
16.6375591
0
LINE
8
DEFAULT_255_2_778
10
75.5145823
20
45.7877591
11
75.5145823
21
44.1378591
0
LINE
8
DEFAULT_255_2_778
10
75.5145823
20
44.1378591
11
72.2144823
21
44.1378591
0
LINE
8
DEFAULT_255_2_778
10
72.2144823
20
44.1378591
11
72.2144823
21
45.7877591
0
LINE
8
DEFAULT_255_2_778
10
72.2144823
20
45.7877591
11
75.5145823
21
45.7877591
0
LINE
8
DEFAULT_255_2_778
10
52.1269823
20
5.0877591
11
52.1269823
21
4.1878591
0
LINE
8
DEFAULT_255_2_778
10
52.1269823
20
4.1878591
11
52.9268823
21
4.1878591
0
LINE
8
DEFAULT_255_2_778
10
52.9268823
20
4.1878591
11
52.9268823
21
3.7880591
0
LINE
8
DEFAULT_255_2_778
10
52.9268823
20
3.7880591
11
53.9269823
21
3.7880591
0
LINE
8
DEFAULT_255_2_778
10
53.9269823
20
3.7880591
11
53.9269823
21
3.3880591
0
LINE
8
DEFAULT_255_2_778
10
53.9269823
20
3.3880591
11
55.1270823
21
3.3880591
0
LINE
8
DEFAULT_255_2_778
10
55.1270823
20
3.3880591
11
55.1270823
21
2.9879591
0
LINE
8
DEFAULT_255_2_778
10
55.1270823
20
2.9879591
11
56.6270823
21
2.9879591
0
LINE
8
DEFAULT_255_2_778
10
56.6270823
20
2.9879591
11
56.6270823
21
2.5879591
0
LINE
8
DEFAULT_255_2_778
10
56.6270823
20
2.5879591
11
61.6271823
21
2.5879591
0
LINE
8
DEFAULT_255_2_778
10
61.6271823
20
2.5879591
11
61.6271823
21
2.9879591
0
LINE
8
DEFAULT_255_2_778
10
61.6271823
20
2.9879591
11
63.1270823
21
2.9879591
0
LINE
8
DEFAULT_255_2_778
10
63.1270823
20
2.9879591
11
63.1270823
21
3.3880591
0
LINE
8
DEFAULT_255_2_778
10
63.1270823
20
3.3880591
11
64.3269823
21
3.3880591
0
LINE
8
DEFAULT_255_2_778
10
64.3269823
20
3.3880591
11
64.3269823
21
3.7880591
0
LINE
8
DEFAULT_255_2_778
10
64.3269823
20
3.7880591
11
65.3267823
21
3.7880591
0
LINE
8
DEFAULT_255_2_778
10
65.3267823
20
3.7880591
11
65.3267823
21
4.1878591
0
LINE
8
DEFAULT_255_2_778
10
65.3267823
20
4.1878591
11
66.1268823
21
4.1878591
0
LINE
8
DEFAULT_255_2_778
10
66.1268823
20
4.1878591
11
66.1268823
21
5.0877591
0
LINE
8
DEFAULT_255_2_778
10
25.9144823
20
5.0877591
11
25.9144823
21
4.8776591
0
LINE
8
DEFAULT_255_2_778
10
25.9144823
20
4.8776591
11
23.9144823
21
4.8776591
0
LINE
8
DEFAULT_255_2_778
10
23.9144823
20
4.8776591
11
23.9144823
21
8.4881591
0
LINE
8
DEFAULT_255_2_778
10
17.8449823
20
9.4776591
11
13.7073823
21
8.7519591
0
LINE
8
DEFAULT_255_2_778
10
27.3146823
20
5.0877591
11
27.3146823
21
3.4777591
0
LINE
8
DEFAULT_255_2_778
10
27.3146823
20
3.4777591
11
22.9146823
21
3.4777591
0
LINE
8
DEFAULT_255_2_778
10
22.9146823
20
3.4777591
11
22.9146823
21
5.4777591
0
LINE
8
DEFAULT_255_2_778
10
22.9146823
20
5.4777591
11
12.7146823
21
5.4777591
0
LINE
8
DEFAULT_255_2_778
10
12.7146823
20
5.4777591
11
12.7146823
21
7.5697591
0
LINE
8
DEFAULT_255_2_778
10
31.8144552
20
92.2877373
11
31.8140777
21
92.2877375
0
ARC
8
DEFAULT_255_2_778
10
31.8140227
20
91.888023
40
0.3997145
50
89.9921103
51
135.0053845
0
ARC
8
DEFAULT_255_2_778
10
31.8139869
20
91.8881041
40
0.3996319
50
135.0099835
51
180.0128069
0
ARC
8
DEFAULT_255_2_778
10
31.5925458
20
91.8879204
40
0.1781907
50
179.9696534
51
180.0910427
0
ARC
8
DEFAULT_255_2_778
10
24.5143161
20
5.3872023
40
0.299761
50
179.9550836
51
225.0005536
0
ARC
8
DEFAULT_255_2_778
10
24.5142906
20
5.3871262
40
0.299689
50
224.9937205
51
270.0505906
0
ARC
8
DEFAULT_255_2_778
10
31.5925457
20
8.2872542
40
0.1781907
50
179.9089573
51
180.0303466
0
ARC
8
DEFAULT_255_2_778
10
31.8139869
20
8.2870704
40
0.3996318
50
179.9871931
51
224.9900165
0
ARC
8
DEFAULT_255_2_778
10
31.8140227
20
8.2871516
40
0.3997146
50
224.9946155
51
270.0078897
0
LINE
8
DEFAULT_255_2_778
10
31.8140777
20
7.8874371
11
31.8144552
21
7.8874373
0
ARC
8
DEFAULT_255_2_778
10
88.9141417
20
5.3880322
40
0.3003951
50
270.0597915
51
358.6657101
0
ARC
8
DEFAULT_255_2_778
10
84.7146652
20
92.8871334
40
0.200404
50
90.0600346
51
134.9203647
0
ARC
8
DEFAULT_255_2_778
10
84.7154531
20
92.8873647
40
0.2007979
50
135.126154
51
179.950746
0
ARC
8
DEFAULT_255_2_778
10
84.7144494
20
70.7877316
40
0.2000942
50
180.0269965
51
270.0016586
0
ARC
8
DEFAULT_255_2_778
10
84.1215305
20
63.2715377
40
1.497283
50
317.1225305
51
336.8868409
0
ARC
8
DEFAULT_255_2_778
10
84.1171601
20
63.2720266
40
1.5014951
50
336.935148
51
0.0213962
0
ARC
8
DEFAULT_255_2_778
10
84.1205135
20
63.2736824
40
1.4981422
50
359.9581175
51
31.1249327
0
ARC
8
DEFAULT_255_2_778
10
84.1156498
20
63.2691276
40
1.5046608
50
31.1776728
51
42.8509291
0
ARC
8
DEFAULT_255_2_778
10
58.2169367
20
50.091207
40
2.0023845
50
156.5733489
51
180.0992821
0
ARC
8
DEFAULT_255_2_778
10
58.2097587
20
50.092154
40
1.9954226
50
100.1929838
51
156.5163563
0
ARC
8
DEFAULT_255_2_778
10
58.2135347
20
50.0599337
40
2.0278038
50
89.9711642
51
100.1368845
0
ARC
8
DEFAULT_255_2_778
10
58.218025
20
50.0853558
40
2.0023845
50
66.5733489
51
90.0992821
0
ARC
8
DEFAULT_255_2_778
10
58.218972
20
50.0925338
40
1.9954226
50
10.1929838
51
66.5163563
0
ARC
8
DEFAULT_255_2_778
10
58.1867516
20
50.0887578
40
2.0278038
50
359.9711642
51
10.1368845
0
ARC
8
DEFAULT_255_2_778
10
58.2121737
20
50.0842676
40
2.0023845
50
336.5733489
51
0.0992821
0
ARC
8
DEFAULT_255_2_778
10
58.2193518
20
50.0833206
40
1.9954226
50
280.1929838
51
336.5163563
0
ARC
8
DEFAULT_255_2_778
10
58.2155758
20
50.1155409
40
2.0278038
50
269.9711642
51
280.1368845
0
ARC
8
DEFAULT_255_2_778
10
58.2110855
20
50.0901188
40
2.0023845
50
246.5733489
51
270.0992821
0
ARC
8
DEFAULT_255_2_778
10
58.2101385
20
50.0829408
40
1.9954226
50
190.1929838
51
246.5163563
0
ARC
8
DEFAULT_255_2_778
10
58.2423588
20
50.0867167
40
2.0278038
50
179.9711642
51
190.1368845
0
LINE
8
DEFAULT_255_2_778
10
13.2631552
20
8.5775373
11
22.7143552
21
8.5775373
0
LINE
8
DEFAULT_255_2_778
10
14.7146552
20
5.4776373
11
22.9146552
21
3.4776373
0
LINE
8
DEFAULT_255_2_778
10
89.2144552
20
5.3810373
11
89.2144552
21
5.3877373
0
LINE
8
DEFAULT_255_2_778
10
56.2145552
20
50.0877373
11
56.2145552
21
50.0877373
0
ARC
8
DEFAULT_255_2_778
10
13.9141669
20
7.5707186
40
1.1989653
50
99.9313064
51
144.604557
0
ARC
8
DEFAULT_255_2_778
10
13.9112542
20
7.5707566
40
1.19657
50
144.5252538
51
180.0449562
0
LINE
8
DEFAULT_255_2_778
10
2.2144845
20
25.2976177
11
3.2145845
21
25.2976177
0
LINE
8
DEFAULT_255_2_778
10
2.2144845
20
26.5176177
11
3.2145845
21
26.5176177
0
LINE
8
DEFAULT_255_2_778
10
2.2146845
20
18.8976177
11
3.2145845
21
18.8976177
0
LINE
8
DEFAULT_255_2_778
10
2.2146845
20
17.6776177
11
3.2145845
21
17.6776177
0
LINE
8
DEFAULT_255_2_778
10
2.2144845
20
48.1576177
11
3.2145845
21
48.1576177
0
LINE
8
DEFAULT_255_2_778
10
2.2144845
20
49.3776177
11
3.2145845
21
49.3776177
0
LINE
8
DEFAULT_255_2_778
10
2.2144845
20
40.5376177
11
3.2145845
21
40.5376177
0
LINE
8
DEFAULT_255_2_778
10
2.2144845
20
41.7579177
11
3.2145845
21
41.7579177
0
LINE
8
DEFAULT_255_2_778
10
2.2144845
20
34.1376177
11
3.2145845
21
34.1376177
0
LINE
8
DEFAULT_255_2_778
10
2.2144845
20
32.9176177
11
3.2145845
21
32.9176177
0
LINE
8
DEFAULT_255_2_778
10
2.4144845
20
84.2476177
11
2.4144845
21
82.5477177
0
LINE
8
DEFAULT_255_2_778
10
1.2145845
20
84.2476177
11
1.2145845
21
82.5477177
0
LINE
8
DEFAULT_255_2_778
10
0.2144646
20
82.5477302
11
3.4143646
21
82.5477302
0
LINE
8
DEFAULT_255_2_778
10
3.4143646
20
82.5477302
11
3.4143646
21
84.2476302
0
LINE
8
DEFAULT_255_2_778
10
2.4144646
20
9.3777302
11
2.4144646
21
7.8777302
0
LINE
8
DEFAULT_255_2_778
10
1.2145646
20
9.3777302
11
1.2145646
21
7.8777302
0
LINE
8
DEFAULT_255_2_778
10
2.2146646
20
79.8576302
11
3.2145646
21
79.8576302
0
LINE
8
DEFAULT_255_2_778
10
2.2146646
20
78.6376302
11
3.2145646
21
78.6376302
0
LINE
8
DEFAULT_255_2_778
10
2.2146646
20
71.0176302
11
3.2145646
21
71.0176302
0
LINE
8
DEFAULT_255_2_778
10
2.214645
20
72.2375905
11
3.214545
21
72.2375905
0
LINE
8
DEFAULT_255_2_778
10
2.214445
20
56.9975905
11
3.214545
21
56.9975905
0
LINE
8
DEFAULT_255_2_778
10
2.214445
20
55.7775905
11
3.214545
21
55.7775905
0
LINE
8
DEFAULT_255_2_778
10
2.214445
20
64.6175905
11
3.214545
21
64.6175905
0
LINE
8
DEFAULT_255_2_778
10
2.214445
20
63.3975905
11
3.214545
21
63.3975905
0
LINE
8
DEFAULT_255_2_778
10
2.614445
20
82.5475905
11
2.614445
21
82.4475905
0
LINE
8
DEFAULT_255_2_778
10
1.014545
20
82.5475905
11
1.014545
21
82.4475905
0
LINE
8
DEFAULT_255_2_778
10
2.614445
20
9.4775905
11
2.614445
21
9.3775905
0
LINE
8
DEFAULT_255_2_778
10
1.014545
20
9.4775905
11
1.014545
21
9.3775905
0
LINE
8
DEFAULT_255_2_778
10
86.584745
20
93.0875905
11
84.664445
21
93.0875905
0
LINE
8
DEFAULT_255_2_778
10
89.214445
20
93.0877905
11
86.584745
21
93.0877905
0
LINE
8
DEFAULT_255_2_778
10
40.914545
20
95.0877905
11
40.914545
21
93.0877905
0
LINE
8
DEFAULT_255_2_778
10
49.914345
20
95.0877905
11
49.914345
21
93.0877905
0
ARC
8
DEFAULT_255_2_778
10
76.1640672
20
10.8874022
40
0.2004042
50
0.0600753
51
44.9203504
0
ARC
8
DEFAULT_255_2_778
10
76.1644607
20
10.8870067
40
0.2004058
50
45.0798527
51
89.9397812
0
ARC
8
DEFAULT_255_2_778
10
71.5648094
20
10.8871816
40
0.2002307
50
90.0395178
51
134.9407974
0
ARC
8
DEFAULT_255_2_778
10
71.5652755
20
10.8874025
40
0.2004041
50
135.0797108
51
179.940011
0
ARC
8
DEFAULT_255_2_778
10
76.164569
20
8.2877146
40
0.1999024
50
269.9433584
51
0.0280008
0
ARC
8
DEFAULT_255_2_778
10
71.5641884
20
8.2876294
40
0.1998171
50
179.947541
51
270.052459
0
LINE
8
DEFAULT_255_2_778
10
50.9144713
20
95.0878123
11
49.9142713
21
93.0878123
0
LINE
8
DEFAULT_255_2_778
10
49.9142713
20
93.0878123
11
40.9142713
21
93.0878123
0
LINE
8
DEFAULT_255_2_778
10
40.9142713
20
93.0878123
11
39.9143713
21
95.0878123
0
LINE
8
DEFAULT_255_2_778
10
76.3644713
20
8.2875123
11
76.3644713
21
10.8876123
0
LINE
8
DEFAULT_255_2_778
10
71.3643713
20
10.8876123
11
71.3643713
21
8.2875123
0
LINE
8
DEFAULT_255_2_778
10
76.1646713
20
11.0874123
11
71.5646713
21
11.0874123
0
LINE
8
DEFAULT_255_2_778
10
76.1643713
20
8.0878123
11
71.5643713
21
8.0878123
0
ARC
8
DEFAULT_255_2_778
10
76.1643772
20
89.2877514
40
0.2000943
50
269.9983658
51
359.9730137
0
ARC
8
DEFAULT_255_2_778
10
71.5641739
20
89.2875595
40
0.1999024
50
179.9719992
51
270.0566416
0
ARC
8
DEFAULT_255_2_778
10
76.1632494
20
91.8874093
40
0.2012224
50
0.0990636
51
44.8239809
0
ARC
8
DEFAULT_255_2_778
10
76.1649834
20
91.8886137
40
0.1991438
50
44.9299005
51
90.0897434
0
ARC
8
DEFAULT_255_2_778
10
71.5648057
20
91.8872947
40
0.2004625
50
90.0383601
51
134.9134529
0
ARC
8
DEFAULT_255_2_778
10
71.5659981
20
91.8875495
40
0.2011267
50
135.2052475
51
179.94083
0
ARC
8
DEFAULT_255_2_778
10
55.5144891
20
10.8876218
40
0.1999824
50
0.0101354
51
44.9702207
0
ARC
8
DEFAULT_255_2_778
10
55.514123
20
10.8862344
40
0.2012233
50
45.1760212
51
89.9007557
0
ARC
8
DEFAULT_255_2_778
10
50.91472
20
10.8862344
40
0.2012231
50
90.0992443
51
134.8239788
0
ARC
8
DEFAULT_255_2_778
10
50.913515
20
10.8879691
40
0.1991438
50
134.9299005
51
180.0897434
0
ARC
8
DEFAULT_255_2_778
10
55.5146545
20
8.2876742
40
0.1998171
50
269.947541
51
0.052459
0
ARC
8
DEFAULT_255_2_778
10
50.9143804
20
8.2878659
40
0.2000087
50
180.0025037
51
269.9974617
0
ARC
8
DEFAULT_255_2_778
10
55.5144626
20
89.287666
40
0.2000089
50
270.0025484
51
359.9974719
0
ARC
8
DEFAULT_255_2_778
10
50.9143804
20
89.2876659
40
0.2000087
50
180.0025037
51
269.9974617
0
LINE
8
DEFAULT_255_2_778
10
71.3642715
20
89.2876572
11
71.3642715
21
91.8877572
0
LINE
8
DEFAULT_255_2_778
10
76.3644715
20
91.8877572
11
76.3644715
21
89.2876572
0
LINE
8
DEFAULT_255_2_778
10
76.1643715
20
89.0876572
11
71.5643715
21
89.0876572
0
LINE
8
DEFAULT_255_2_778
10
76.1646715
20
92.0877572
11
71.5646715
21
92.0877572
0
LINE
8
DEFAULT_255_2_778
10
55.7144715
20
8.2875572
11
55.7144715
21
10.8876572
0
LINE
8
DEFAULT_255_2_778
10
50.7143715
20
10.8876572
11
50.7143715
21
8.2875572
0
LINE
8
DEFAULT_255_2_778
10
55.5144715
20
11.0874572
11
50.9143715
21
11.0874572
0
LINE
8
DEFAULT_255_2_778
10
55.5144715
20
8.0878572
11
50.9143715
21
8.0878572
0
LINE
8
DEFAULT_255_2_778
10
50.7143715
20
89.2876572
11
50.7143715
21
91.8877572
0
LINE
8
DEFAULT_255_2_778
10
55.7144715
20
91.8877572
11
55.7144715
21
89.2876572
0
LINE
8
DEFAULT_255_2_778
10
55.5144715
20
89.0876572
11
50.9143715
21
89.0876572
0
ARC
8
DEFAULT_255_2_778
10
55.5133012
20
91.887408
40
0.2012224
50
0.0991214
51
44.8240219
0
ARC
8
DEFAULT_255_2_778
10
55.5149615
20
91.8884362
40
0.1993206
50
44.9508048
51
90.1546764
0
ARC
8
DEFAULT_255_2_778
10
50.9147684
20
91.886299
40
0.2014574
50
90.0981287
51
134.7964727
0
ARC
8
DEFAULT_255_2_778
10
50.9138347
20
91.8882562
40
0.199412
50
135.002326
51
180.143703
0
LINE
8
DEFAULT_255_2_778
10
55.5144234
20
92.0877561
11
50.9144234
21
92.0877561
0
LINE
8
DEFAULT_255_2_778
10
22.2145234
20
80.6974561
11
24.2145234
21
80.6974561
0
LINE
8
DEFAULT_255_2_778
10
22.2145519
20
82.5971449
11
24.2145519
21
82.5971449
0
LINE
8
DEFAULT_255_2_778
10
76.7144519
20
17.3876449
11
71.0145519
21
17.3876449
0
LINE
8
DEFAULT_255_2_778
10
71.0145519
20
17.3876449
11
71.0145519
21
43.3877449
0
LINE
8
DEFAULT_255_2_778
10
71.0145519
20
43.3877449
11
76.7144519
21
43.3877449
0
LINE
8
DEFAULT_255_2_778
10
76.7144519
20
43.3877449
11
76.7144519
21
17.3876449
0
LINE
8
DEFAULT_255_2_778
10
77.9641519
20
45.5877449
11
77.9641519
21
15.1876449
0
LINE
8
DEFAULT_255_2_778
10
77.9641519
20
15.1876449
11
69.7644519
21
15.1876449
0
LINE
8
DEFAULT_255_2_778
10
69.7644519
20
15.1876449
11
69.7644519
21
45.5877449
0
LINE
8
DEFAULT_255_2_778
10
69.7644519
20
45.5877449
11
77.9641519
21
45.5877449
0
LINE
8
DEFAULT_255_2_778
10
79.1645519
20
28.8877449
11
80.6644519
21
28.7877449
0
LINE
8
DEFAULT_255_2_778
10
80.6644519
20
28.7877449
11
80.6644519
21
12.4878449
0
LINE
8
DEFAULT_255_2_778
10
80.6644519
20
12.4878449
11
67.0645519
21
12.4878449
0
LINE
8
DEFAULT_255_2_778
10
67.0645519
20
12.4878449
11
67.0643519
21
48.2878449
0
LINE
8
DEFAULT_255_2_778
10
67.0643519
20
48.2878449
11
80.6641519
21
48.2878449
0
LINE
8
DEFAULT_255_2_778
10
80.6641519
20
48.2878449
11
80.6641519
21
31.9879449
0
LINE
8
DEFAULT_255_2_778
10
80.6641519
20
31.9879449
11
79.1642519
21
31.8879449
0
LINE
8
DEFAULT_255_2_778
10
76.2644175
20
18.487532
11
76.2644175
21
42.287632
0
LINE
8
DEFAULT_255_2_778
10
76.2644175
20
42.287632
11
78.0644175
21
42.287632
0
LINE
8
DEFAULT_255_2_778
10
78.0644175
20
42.287632
11
78.0644175
21
18.487532
0
LINE
8
DEFAULT_255_2_778
10
78.0644175
20
18.487532
11
76.2644175
21
18.487532
0
LINE
8
DEFAULT_255_2_778
10
71.4644175
20
42.287632
11
71.4644175
21
18.487532
0
LINE
8
DEFAULT_255_2_778
10
71.4644175
20
18.487532
11
69.6644175
21
18.487532
0
LINE
8
DEFAULT_255_2_778
10
69.6644175
20
18.487532
11
69.6644175
21
42.287632
0
LINE
8
DEFAULT_255_2_778
10
69.6644175
20
42.287632
11
71.4644175
21
42.287632
0
LINE
8
DEFAULT_255_2_778
10
68.564736
20
13.987708
11
79.164736
21
13.987708
0
LINE
8
DEFAULT_255_2_778
10
79.164736
20
13.987708
11
79.164736
21
46.787808
0
LINE
8
DEFAULT_255_2_778
10
79.164736
20
46.787808
11
68.564736
21
46.787808
0
LINE
8
DEFAULT_255_2_778
10
68.564736
20
46.787808
11
68.564736
21
13.987708
0
LINE
8
DEFAULT_255_2_778
10
59.841436
20
97.787608
11
59.841436
21
97.587608
0
LINE
8
DEFAULT_255_2_778
10
57.071236
20
97.587608
11
57.071236
21
97.787608
0
LINE
8
DEFAULT_255_2_778
10
57.071236
20
97.787608
11
61.226836
21
97.787608
0
LINE
8
DEFAULT_255_2_778
10
61.226836
20
97.787608
11
61.226836
21
97.587608
0
LINE
8
DEFAULT_255_2_778
10
59.841436
20
2.387608
11
59.841436
21
2.587608
0
LINE
8
DEFAULT_255_2_778
10
57.0712473
20
2.5876727
11
57.0712473
21
2.3876727
0
LINE
8
DEFAULT_255_2_778
10
57.0712473
20
2.3876727
11
61.2268473
21
2.3876727
0
LINE
8
DEFAULT_255_2_778
10
61.2268473
20
2.3876727
11
61.2268473
21
2.5876727
0
LINE
8
DEFAULT_255_2_778
10
84.7143473
20
82.0875727
11
87.5634473
21
82.0875727
0
LINE
8
DEFAULT_255_2_778
10
87.5634473
20
82.0875727
11
87.5634473
21
81.5874727
0
LINE
8
DEFAULT_255_2_778
10
87.5634473
20
81.5874727
11
84.7143473
21
81.5874727
0
LINE
8
DEFAULT_255_2_778
10
84.7143473
20
81.5874727
11
84.7143473
21
71.6872727
0
LINE
8
DEFAULT_255_2_778
10
84.7143473
20
71.6872727
11
85.7142473
21
70.6874727
0
LINE
8
DEFAULT_255_2_778
10
85.7142473
20
70.6874727
11
89.2141473
21
70.6874727
0
LINE
8
DEFAULT_255_2_778
10
89.2141473
20
70.6874727
11
89.2141473
21
92.9875727
0
LINE
8
DEFAULT_255_2_778
10
89.2141473
20
92.9875727
11
85.7145473
21
92.9875727
0
LINE
8
DEFAULT_255_2_778
10
85.7145473
20
92.9875727
11
84.7146473
21
91.9876727
0
LINE
8
DEFAULT_255_2_778
10
84.7146473
20
91.9876727
11
84.7146473
21
82.0877727
0
LINE
8
DEFAULT_255_2_778
10
84.5143473
20
92.8875727
11
84.5143473
21
70.7876727
0
ENDSEC
0
EOF