0
SECTION
2
HEADER
9
$MEASUREMENT
70
1
0
ENDSEC
0
SECTION
2
TABLES
0
TABLE
2
LTYPE
0
LTYPE
72
65
70
64
2
CONTINUOUS
3
______
73
0
40
0
0
ENDTAB
0
TABLE
2
LAYER
0
LAYER
2
DEFAULT_255_2_778
70
0
62
255
6
CONTINUOUS
0
ENDTAB
0
ENDSEC
0
SECTION
2
ENTITIES
0
LINE
8
DEFAULT_255_2_778
10
14.8249
20
77.3877396
11
14.8249
21
6.8876396
0
ARC
8
DEFAULT_255_2_778
10
14.5250388
20
6.8876107
40
0.3001085
50
315.0269503
51
0.0173976
0
ARC
8
DEFAULT_255_2_778
10
14.5254119
20
6.8873907
40
0.299689
50
269.9494094
51
315.0062795
0
ARC
8
DEFAULT_255_2_778
10
5.8251567
20
6.8878112
40
0.3001094
50
180.0208901
51
269.9791099
0
ARC
8
DEFAULT_255_2_778
10
31.2249722
20
5.3874871
40
0.2997853
50
269.976134
51
315.0256554
0
ARC
8
DEFAULT_255_2_778
10
31.225087
20
5.3875667
40
0.2997603
50
314.9993769
51
0.0449409
0
ARC
8
DEFAULT_255_2_778
10
21.0680439
20
3.2851195
40
1.993198
50
179.9315196
51
204.3126274
0
ARC
8
DEFAULT_255_2_778
10
21.0767097
20
3.2901023
40
2.0031469
50
204.3404582
51
260.1947019
0
ARC
8
DEFAULT_255_2_778
10
21.0744155
20
3.3010512
40
2.0135495
50
260.3120873
51
270.0122867
0
ARC
8
DEFAULT_255_2_778
10
21.0772296
20
3.2806984
40
1.993198
50
269.9315196
51
294.3126274
0
ARC
8
DEFAULT_255_2_778
10
21.0722469
20
3.2893642
40
2.0031469
50
294.3404582
51
350.1947019
0
ARC
8
DEFAULT_255_2_778
10
21.0612979
20
3.28707
40
2.0135495
50
350.3120873
51
0.0122867
0
LINE
8
DEFAULT_255_2_778
10
14.5251473
20
6.5877018
11
5.8250473
21
6.5877018
0
LINE
8
DEFAULT_255_2_778
10
2.6252473
20
2.3877018
11
2.6252473
21
2.5877018
0
LINE
8
DEFAULT_255_2_778
10
3.0252473
20
2.3877018
11
3.0252473
21
2.5877018
0
LINE
8
DEFAULT_255_2_778
10
2.0251473
20
2.5877018
11
2.0251473
21
2.3877018
0
LINE
8
DEFAULT_255_2_778
10
2.0251473
20
2.3877018
11
3.6250473
21
2.3877018
0
LINE
8
DEFAULT_255_2_778
10
3.6250473
20
2.3877018
11
3.6250473
21
2.5877018
0
LINE
8
DEFAULT_255_2_778
10
4.5749473
20
2.9877018
11
4.5749473
21
2.5877018
0
LINE
8
DEFAULT_255_2_778
10
4.5749473
20
2.5877018
11
1.0750473
21
2.5877018
0
LINE
8
DEFAULT_255_2_778
10
1.0750473
20
2.5877018
11
1.0750473
21
2.9877018
0
LINE
8
DEFAULT_255_2_778
10
4.5749473
20
3.3878018
11
4.5749473
21
2.9877018
0
LINE
8
DEFAULT_255_2_778
10
4.5749473
20
2.9877018
11
1.0750473
21
2.9877018
0
LINE
8
DEFAULT_255_2_778
10
1.0750473
20
2.9877018
11
1.0750473
21
3.3878018
0
LINE
8
DEFAULT_255_2_778
10
4.5749473
20
3.7878018
11
4.5749473
21
3.3878018
0
LINE
8
DEFAULT_255_2_778
10
4.5749473
20
3.3878018
11
1.0750473
21
3.3878018
0
LINE
8
DEFAULT_255_2_778
10
1.0750473
20
3.3878018
11
1.0750473
21
3.7878018
0
LINE
8
DEFAULT_255_2_778
10
4.5749473
20
4.1879018
11
4.5749473
21
3.7878018
0
LINE
8
DEFAULT_255_2_778
10
4.5749473
20
3.7878018
11
1.0750473
21
3.7878018
0
LINE
8
DEFAULT_255_2_778
10
1.0750473
20
3.7878018
11
1.0750473
21
4.1879018
0
LINE
8
DEFAULT_255_2_778
10
4.5749473
20
5.0877018
11
4.5749473
21
4.1879018
0
LINE
8
DEFAULT_255_2_778
10
4.5749473
20
4.1879018
11
1.0750473
21
4.1879018
0
LINE
8
DEFAULT_255_2_778
10
1.0750473
20
4.1879018
11
1.0750473
21
5.0877018
0
LINE
8
DEFAULT_255_2_778
10
0.5249473
20
94.7876018
11
0.5249473
21
5.3849018
0
LINE
8
DEFAULT_255_2_778
10
0.8276473
20
5.0877018
11
31.2248473
21
5.0877018
0
LINE
8
DEFAULT_255_2_778
10
31.2250473
20
95.0876018
11
0.8249473
21
95.0876018
0
LINE
8
DEFAULT_255_2_778
10
23.0748473
20
3.2875018
11
25.5749473
21
3.2875018
0
LINE
8
DEFAULT_255_2_778
10
25.5749473
20
3.2875018
11
25.5749473
21
4.2876018
0
LINE
8
DEFAULT_255_2_778
10
25.5749473
20
4.2876018
11
16.5748473
21
4.2876018
0
LINE
8
DEFAULT_255_2_778
10
16.5748473
20
4.2876018
11
16.5748473
21
3.2875018
0
LINE
8
DEFAULT_255_2_778
10
16.5748473
20
3.2875018
11
19.0748473
21
3.2875018
0
LINE
8
DEFAULT_255_2_778
10
27.0750473
20
5.0877018
11
27.0750473
21
1.7878018
0
LINE
8
DEFAULT_255_2_778
10
27.0750473
20
1.7878018
11
24.5750473
21
-0.2120982
0
LINE
8
DEFAULT_255_2_778
10
24.5750473
20
-0.2123982
11
17.5749473
21
-0.2123982
0
LINE
8
DEFAULT_255_2_778
10
17.5749473
20
-0.2123982
11
15.0749473
21
1.7876018
0
ARC
8
DEFAULT_255_2_778
10
31.036631
20
94.7877519
40
0.2997614
50
44.9994656
51
90.0448617
0
ARC
8
DEFAULT_255_2_778
10
31.036711
20
94.7876381
40
0.2997853
50
359.976134
51
45.0256554
0
ARC
8
DEFAULT_255_2_778
10
31.0363654
20
5.3875442
40
0.3001309
50
270.0058902
51
359.9750049
0
LINE
8
DEFAULT_255_2_778
10
15.0748963
20
5.0877132
11
15.0748963
21
1.7878132
0
LINE
8
DEFAULT_255_2_778
10
3.0249963
20
97.7876132
11
3.0249963
21
97.5876132
0
LINE
8
DEFAULT_255_2_778
10
2.6248963
20
97.7876132
11
2.6248963
21
97.5876132
0
LINE
8
DEFAULT_255_2_778
10
3.6250963
20
97.5876132
11
3.6250963
21
97.7876132
0
LINE
8
DEFAULT_255_2_778
10
3.6250963
20
97.7876132
11
2.0248963
21
97.7876132
0
LINE
8
DEFAULT_255_2_778
10
2.0248963
20
97.7876132
11
2.0248963
21
97.5876132
0
LINE
8
DEFAULT_255_2_778
10
1.0749963
20
97.1875132
11
1.0749963
21
97.5876132
0
LINE
8
DEFAULT_255_2_778
10
1.0749963
20
97.5876132
11
4.5748963
21
97.5876132
0
LINE
8
DEFAULT_255_2_778
10
4.5748963
20
97.5876132
11
4.5748963
21
97.1875132
0
LINE
8
DEFAULT_255_2_778
10
1.0749963
20
96.7875132
11
1.0749963
21
97.1875132
0
LINE
8
DEFAULT_255_2_778
10
1.0749963
20
97.1875132
11
4.5748963
21
97.1875132
0
LINE
8
DEFAULT_255_2_778
10
4.5748963
20
97.1875132
11
4.5748963
21
96.7875132
0
LINE
8
DEFAULT_255_2_778
10
1.0749963
20
96.3874132
11
1.0749963
21
96.7875132
0
LINE
8
DEFAULT_255_2_778
10
1.0749963
20
96.7875132
11
4.5748963
21
96.7875132
0
LINE
8
DEFAULT_255_2_778
10
4.5748963
20
96.7875132
11
4.5748963
21
96.3874132
0
LINE
8
DEFAULT_255_2_778
10
1.0749963
20
95.9876132
11
1.0749963
21
96.3874132
0
LINE
8
DEFAULT_255_2_778
10
1.0749963
20
96.3874132
11
4.5748963
21
96.3874132
0
LINE
8
DEFAULT_255_2_778
10
4.5748963
20
96.3874132
11
4.5748963
21
95.9876132
0
LINE
8
DEFAULT_255_2_778
10
4.5748963
20
95.0875132
11
4.5748963
21
95.9876132
0
LINE
8
DEFAULT_255_2_778
10
4.5748963
20
95.9876132
11
1.0749963
21
95.9876132
0
LINE
8
DEFAULT_255_2_778
10
1.0749963
20
95.9876132
11
1.0749963
21
95.0875132
0
LINE
8
DEFAULT_255_2_778
10
1.0749963
20
95.0875132
11
4.5748963
21
95.0875132
0
LINE
8
DEFAULT_255_2_778
10
0.5248963
20
92.9878132
11
0.2248963
21
92.9878132
0
LINE
8
DEFAULT_255_2_778
10
0.2248963
20
92.9878132
11
0.2248963
21
82.0878132
0
LINE
8
DEFAULT_255_2_778
10
0.2248963
20
82.0878132
11
0.5248963
21
82.0878132
0
LINE
8
DEFAULT_255_2_778
10
0.5248963
20
81.5877132
11
0.2248963
21
81.5877132
0
LINE
8
DEFAULT_255_2_778
10
0.2248963
20
81.5877132
11
0.2248963
21
70.6877132
0
LINE
8
DEFAULT_255_2_778
10
0.2248963
20
70.6877132
11
0.5248963
21
70.6877132
0
LINE
8
DEFAULT_255_2_778
10
0.4010963
20
82.0878132
11
0.4010963
21
81.5877132
0
LINE
8
DEFAULT_255_2_778
10
31.5250963
20
94.7878132
11
31.5250963
21
5.3877132
0
LINE
8
DEFAULT_255_2_778
10
31.3364963
20
94.7875132
11
31.3364963
21
5.3874132
0
LINE
8
DEFAULT_255_2_778
10
27.5250963
20
95.0878132
11
31.2250963
21
95.0878132
0
LINE
8
DEFAULT_255_2_778
10
11.3436963
20
82.5767132
11
10.4253963
21
82.9111132
0
LINE
8
DEFAULT_255_2_778
10
10.4253963
20
82.9111132
11
10.4253963
21
82.5471132
0
LINE
8
DEFAULT_255_2_778
10
10.4253963
20
82.5471132
11
9.0002963
21
82.5471132
0
LINE
8
DEFAULT_255_2_778
10
11.3436963
20
82.0989132
11
10.4253963
21
81.7647132
0
LINE
8
DEFAULT_255_2_778
10
10.4253963
20
81.7647132
11
10.4253963
21
82.1288132
0
LINE
8
DEFAULT_255_2_778
10
10.4253963
20
82.1288132
11
9.0002963
21
82.1288132
0
LINE
8
DEFAULT_255_2_778
10
22.0437963
20
82.5767132
11
21.1253963
21
82.9111132
0
LINE
8
DEFAULT_255_2_778
10
22.0437963
20
82.0989132
11
21.1253963
21
81.7647132
0
LINE
8
DEFAULT_255_2_778
10
21.1253502
20
82.9111989
11
21.1253502
21
82.5470989
0
LINE
8
DEFAULT_255_2_778
10
21.1253502
20
82.5470989
11
19.7003502
21
82.5470989
0
LINE
8
DEFAULT_255_2_778
10
21.1253502
20
81.7644989
11
21.1253502
21
82.1285989
0
LINE
8
DEFAULT_255_2_778
10
21.1253502
20
82.1285989
11
19.7003502
21
82.1285989
0
LINE
8
DEFAULT_255_2_778
10
7.0246502
20
71.3263989
11
7.0246502
21
76.8262989
0
LINE
8
DEFAULT_255_2_778
10
7.1500502
20
69.2464989
11
7.1500502
21
14.9261989
0
LINE
8
DEFAULT_255_2_778
10
7.1500502
20
14.9261989
11
13.1500502
21
15.9263989
0
LINE
8
DEFAULT_255_2_778
10
13.1500502
20
15.9263989
11
13.1500502
21
68.2466989
0
LINE
8
DEFAULT_255_2_778
10
13.1500502
20
68.2466989
11
7.1500502
21
69.2467989
0
LINE
8
DEFAULT_255_2_778
10
6.0250502
20
71.3266989
11
14.2750502
21
71.3266989
0
LINE
8
DEFAULT_255_2_778
10
14.2750502
20
71.3266989
11
14.2750502
21
12.8465989
0
LINE
8
DEFAULT_255_2_778
10
14.2750502
20
12.8465989
11
6.0250502
21
12.8465989
0
LINE
8
DEFAULT_255_2_778
10
14.0247502
20
7.3461989
11
6.0250502
21
7.3461989
0
ARC
8
DEFAULT_255_2_778
10
14.5250063
20
77.3878263
40
0.3001087
50
359.9826105
51
44.9730267
0
ARC
8
DEFAULT_255_2_778
10
14.5252056
20
77.3876254
40
0.3001097
50
45.0270485
51
90.0172913
0
ARC
8
DEFAULT_255_2_778
10
5.8249243
20
77.3876256
40
0.3001096
50
89.9826815
51
134.972961
0
ARC
8
DEFAULT_255_2_778
10
5.8251235
20
77.3878263
40
0.3001084
50
135.0269503
51
180.0173976
0
ARC
8
DEFAULT_255_2_778
10
0.8250456
20
5.3877658
40
0.3001306
50
180.005844
51
269.9750701
0
ARC
8
DEFAULT_255_2_778
10
0.8248243
20
94.7874256
40
0.3001096
50
89.9826815
51
134.972961
0
ARC
8
DEFAULT_255_2_778
10
0.8250242
20
94.787626
40
0.3001091
50
135.0269926
51
180.0173348
0
ARC
8
DEFAULT_255_2_778
10
31.2252837
20
5.3870734
40
0.2994383
50
269.9485929
51
315.0531964
0
ARC
8
DEFAULT_255_2_778
10
31.2256768
20
5.3874665
40
0.2994383
50
314.9468036
51
0.0514071
0
ARC
8
DEFAULT_255_2_778
10
10.1695995
20
82.3397237
40
1.187586
50
144.5513021
51
180.0911123
0
ARC
8
DEFAULT_255_2_778
10
10.1746078
20
82.3387036
40
1.1922594
50
95.3438576
51
144.6509552
0
ARC
8
DEFAULT_255_2_778
10
10.1750468
20
82.3227741
40
1.2081611
50
89.9920236
51
95.2942295
0
ARC
8
DEFAULT_255_2_778
10
10.1770992
20
82.3433119
40
1.1876248
50
54.5523862
51
90.0909025
0
ARC
8
DEFAULT_255_2_778
10
10.1761669
20
82.3383866
40
1.1921799
50
5.3461268
51
54.6531661
0
ARC
8
DEFAULT_255_2_778
10
10.1604942
20
82.338003
40
1.2078207
50
359.992039
51
5.2949725
0
ARC
8
DEFAULT_255_2_778
10
10.1805092
20
82.335932
40
1.1878073
50
324.5551973
51
0.0918026
0
ARC
8
DEFAULT_255_2_778
10
10.1757714
20
82.3367429
40
1.1921393
50
275.3460689
51
324.6554969
0
ARC
8
DEFAULT_255_2_778
10
10.1753828
20
82.352456
40
1.2078207
50
269.9920391
51
275.2949725
0
ARC
8
DEFAULT_255_2_778
10
10.1733076
20
82.3324022
40
1.1877685
50
234.5541132
51
270.0920124
0
ARC
8
DEFAULT_255_2_778
10
10.1742063
20
82.337223
40
1.1922189
50
185.3437996
51
234.653286
0
ARC
8
DEFAULT_255_2_778
10
10.1901761
20
82.337667
40
1.2081611
50
179.9920236
51
185.2942295
0
ARC
8
DEFAULT_255_2_778
10
10.1840865
20
82.3457437
40
3.9089795
50
180.0000059
51
180.1159188
0
ARC
8
DEFAULT_255_2_778
10
10.1675148
20
82.3456392
40
3.8924078
50
135.0031612
51
179.9984671
0
ARC
8
DEFAULT_255_2_778
10
10.1672111
20
82.3453355
40
3.8924077
50
90.0015329
51
134.9968388
0
ARC
8
DEFAULT_255_2_778
10
10.1671065
20
82.3287637
40
3.9089796
50
89.8840812
51
89.9999941
0
ARC
8
DEFAULT_255_2_778
10
10.1829243
20
82.3279914
40
3.9097518
50
90.0000059
51
90.1159071
0
ARC
8
DEFAULT_255_2_778
10
10.1828951
20
82.3452778
40
3.8924654
50
45.0035125
51
89.9995764
0
ARC
8
DEFAULT_255_2_778
10
10.1826153
20
82.3456392
40
3.8924077
50
0.0015329
51
44.9968388
0
ARC
8
DEFAULT_255_2_778
10
10.1660435
20
82.3457437
40
3.9089796
50
359.8840812
51
359.9999941
0
ARC
8
DEFAULT_255_2_778
10
10.1652713
20
82.3299259
40
3.9097518
50
0.0000059
51
0.1159071
0
ARC
8
DEFAULT_255_2_778
10
10.1825576
20
82.3299551
40
3.8924654
50
315.0035125
51
359.9995764
0
ARC
8
DEFAULT_255_2_778
10
10.1828951
20
82.3302926
40
3.8924654
50
270.0004236
51
314.9964875
0
ARC
8
DEFAULT_255_2_778
10
10.1829243
20
82.347579
40
3.9097518
50
269.8840929
51
269.9999941
0
ARC
8
DEFAULT_255_2_778
10
10.1671065
20
82.3468068
40
3.9089795
50
270.0000059
51
270.1159188
0
ARC
8
DEFAULT_255_2_778
10
10.1672111
20
82.330235
40
3.8924078
50
225.0031612
51
269.9984671
0
ARC
8
DEFAULT_255_2_778
10
10.1675724
20
82.3299551
40
3.8924654
50
180.0004236
51
224.9964875
0
ARC
8
DEFAULT_255_2_778
10
10.1848588
20
82.3299259
40
3.9097518
50
179.8840929
51
179.9999941
0
ARC
8
DEFAULT_255_2_778
10
20.8777578
20
82.3556291
40
1.1957752
50
179.9991598
51
180.8526312
0
ARC
8
DEFAULT_255_2_778
10
20.875385
20
82.3555199
40
1.1934024
50
120.2869641
51
179.9939147
0
ARC
8
DEFAULT_255_2_778
10
20.8749705
20
82.3565969
40
1.1922633
50
89.9876477
51
120.295863
0
LINE
8
DEFAULT_255_2_778
10
20.8752275
20
83.5488602
11
20.875581
21
83.5488602
0
ARC
8
DEFAULT_255_2_778
10
20.8754498
20
82.3561912
40
1.192669
50
59.7094159
51
89.9936974
0
ARC
8
DEFAULT_255_2_778
10
20.8751444
20
82.3556354
40
1.193303
50
0.000908
51
59.7102141
0
ARC
8
DEFAULT_255_2_778
10
20.8716519
20
82.3556367
40
1.1967956
50
359.1477321
51
0.0008399
0
ARC
8
DEFAULT_255_2_778
10
20.8716615
20
82.3200338
40
1.1967859
50
359.9991526
51
0.8522699
0
ARC
8
DEFAULT_255_2_778
10
20.875268
20
82.3199641
40
1.1931795
50
300.2863798
51
0.0024969
0
ARC
8
DEFAULT_255_2_778
10
20.8754351
20
82.3189843
40
1.1922491
50
270.00701
51
300.3031906
0
LINE
8
DEFAULT_255_2_778
10
20.875581
20
81.1267353
11
20.8752275
21
81.1267352
0
ARC
8
DEFAULT_255_2_778
10
20.8749853
20
82.3185792
40
1.191844
50
239.691535
51
270.0116455
0
ARC
8
DEFAULT_255_2_778
10
20.8752609
20
82.3200794
40
1.1932784
50
180.0026735
51
239.7164602
0
ARC
8
DEFAULT_255_2_778
10
20.8777482
20
82.3200414
40
1.1957656
50
179.1473667
51
180.0008477
0
ARC
8
DEFAULT_255_2_778
10
20.8715057
20
82.3383586
40
3.8963907
50
156.0203617
51
180.0121079
0
ARC
8
DEFAULT_255_2_778
10
20.8745033
20
82.3380518
40
3.8992544
50
123.589184
51
156.0341444
0
ARC
8
DEFAULT_255_2_778
10
20.8800443
20
82.3289025
40
3.9099416
50
119.9992978
51
123.5826499
0
ARC
8
DEFAULT_255_2_778
10
20.8742719
20
82.3401789
40
3.8972898
50
104.9913577
51
120.0086916
0
ARC
8
DEFAULT_255_2_778
10
20.8748675
20
82.3361378
40
3.9013475
50
89.9970994
51
104.9844557
0
ARC
8
DEFAULT_255_2_778
10
20.8755593
20
82.3388609
40
3.8986243
50
67.8473175
51
90.007264
0
ARC
8
DEFAULT_255_2_778
10
20.8733878
20
82.3351486
40
3.9028813
50
59.9968366
51
67.838342
0
ARC
8
DEFAULT_255_2_778
10
20.877476
20
82.3401915
40
3.89647
50
36.0197558
51
60.0118162
0
ARC
8
DEFAULT_255_2_778
10
20.875799
20
82.3378151
40
3.8992238
50
3.5888981
51
36.0335087
0
ARC
8
DEFAULT_255_2_778
10
20.8654379
20
82.3376165
40
3.9095772
50
359.9988088
51
3.5822974
0
ARC
8
DEFAULT_255_2_778
10
20.8721933
20
82.3342468
40
3.9028231
50
344.17377
51
0.0482758
0
ARC
8
DEFAULT_255_2_778
10
20.8793038
20
82.3372819
40
3.8968131
50
315.0821697
51
344.102324
0
ARC
8
DEFAULT_255_2_778
10
20.8751687
20
82.3333851
40
3.8969937
50
285.9435398
51
315.1656673
0
ARC
8
DEFAULT_255_2_778
10
20.8784176
20
82.3399655
40
3.9024317
50
269.9515109
51
285.871135
0
ARC
8
DEFAULT_255_2_778
10
20.8718282
20
82.3401757
40
3.9026419
50
254.1729905
51
270.0482546
0
ARC
8
DEFAULT_255_2_778
10
20.8749269
20
82.333248
40
3.8968249
50
225.0809907
51
254.1013772
0
ARC
8
DEFAULT_255_2_778
10
20.8711466
20
82.3375119
40
3.8971789
50
195.9433472
51
225.1646088
0
ARC
8
DEFAULT_255_2_778
10
20.8776283
20
82.3342362
40
3.9025147
50
179.9515653
51
195.8709645
0
ARC
8
DEFAULT_255_2_778
10
10.5182219
20
10.098608
40
1.2938085
50
146.7148745
51
180.0917915
0
ARC
8
DEFAULT_255_2_778
10
10.5240736
20
10.096875
40
1.2996527
50
96.4921002
51
146.792589
0
ARC
8
DEFAULT_255_2_778
10
10.5240599
20
10.0825404
40
1.3138949
50
89.9888749
51
96.4208275
0
ARC
8
DEFAULT_255_2_778
10
10.5263878
20
10.1026284
40
1.2938085
50
56.7148745
51
90.0917915
0
ARC
8
DEFAULT_255_2_778
10
10.5246548
20
10.0967766
40
1.2996527
50
6.4921002
51
56.792589
0
ARC
8
DEFAULT_255_2_778
10
10.5103202
20
10.0967903
40
1.3138949
50
359.9888749
51
6.4208275
0
ARC
8
DEFAULT_255_2_778
10
10.5303582
20
10.0944339
40
1.2938585
50
326.8021795
51
0.093053
0
ARC
8
DEFAULT_255_2_778
10
10.5246106
20
10.0961629
40
1.2996158
50
276.4997895
51
326.8771337
0
ARC
8
DEFAULT_255_2_778
10
10.5245721
20
10.1107069
40
1.3140717
50
269.9887905
51
276.4296717
0
ARC
8
DEFAULT_255_2_778
10
10.5222272
20
10.090522
40
1.2938885
50
236.7179954
51
270.0924523
0
ARC
8
DEFAULT_255_2_778
10
10.5238828
20
10.0962102
40
1.2995535
50
186.4896882
51
236.7945945
0
ARC
8
DEFAULT_255_2_778
10
10.5386087
20
10.0962788
40
1.3141938
50
179.9888195
51
186.4200928
0
ARC
8
DEFAULT_255_2_778
10
10.5209802
20
10.0993241
40
1.1465686
50
145.3189331
51
180.1393671
0
ARC
8
DEFAULT_255_2_778
10
10.5211244
20
10.0997064
40
1.1464696
50
95.3072847
51
145.338741
0
ARC
8
DEFAULT_255_2_778
10
10.5241309
20
10.0719636
40
1.1743716
50
89.9910167
51
95.328141
0
ARC
8
DEFAULT_255_2_778
10
10.5261394
20
10.1014902
40
1.1448465
50
53.2614277
51
90.0913029
0
ARC
8
DEFAULT_255_2_778
10
10.5258282
20
10.0973075
40
1.1483866
50
4.3408848
51
53.3738144
0
ARC
8
DEFAULT_255_2_778
10
10.5083799
20
10.0966445
40
1.1658353
50
359.9946269
51
4.308468
0
ARC
8
DEFAULT_255_2_778
10
10.5294024
20
10.0947085
40
1.1448141
50
323.2171205
51
0.0914248
0
ARC
8
DEFAULT_255_2_778
10
10.5251425
20
10.0951029
40
1.1484642
50
274.3484931
51
323.3286148
0
ARC
8
DEFAULT_255_2_778
10
10.5244243
20
10.1128502
40
1.166215
50
269.9946299
51
274.3175665
0
ARC
8
DEFAULT_255_2_778
10
10.5231839
20
9.6573922
40
0.7107579
50
269.9696175
51
270.0911839
0
ARC
8
DEFAULT_255_2_778
10
10.522832
20
10.0953557
40
1.1487215
50
225.0107041
51
269.9987529
0
ARC
8
DEFAULT_255_2_778
10
10.5229608
20
10.0949799
40
1.1485468
50
179.9976398
51
224.9929049
0
ARC
8
DEFAULT_255_2_778
10
10.3219662
20
10.0951528
40
0.9475522
50
179.9164113
51
180.0075981
0
ARC
8
DEFAULT_255_2_778
10
10.5182718
20
74.0782365
40
1.2938585
50
146.8021795
51
180.093053
0
ARC
8
DEFAULT_255_2_778
10
10.5240195
20
74.0765075
40
1.2996158
50
96.4997895
51
146.8771337
0
ARC
8
DEFAULT_255_2_778
10
10.5240579
20
74.0619636
40
1.3140717
50
89.9887905
51
96.4296717
0
ARC
8
DEFAULT_255_2_778
10
10.5264028
20
74.0821484
40
1.2938885
50
56.7179954
51
90.0924523
0
ARC
8
DEFAULT_255_2_778
10
10.5247472
20
74.0764602
40
1.2995535
50
6.4896882
51
56.7945945
0
ARC
8
DEFAULT_255_2_778
10
10.5100213
20
74.0763917
40
1.3141938
50
359.9888195
51
6.4200928
0
ARC
8
DEFAULT_255_2_778
10
10.5304082
20
74.0740624
40
1.2938085
50
326.7148745
51
0.0917915
0
ARC
8
DEFAULT_255_2_778
10
10.5245564
20
74.0757954
40
1.2996527
50
276.4921002
51
326.792589
0
ARC
8
DEFAULT_255_2_778
10
10.5245701
20
74.09013
40
1.3138949
50
269.9888749
51
276.4208275
0
ARC
8
DEFAULT_255_2_778
10
10.5222423
20
74.0700421
40
1.2938085
50
236.7148745
51
270.0917915
0
ARC
8
DEFAULT_255_2_778
10
10.5239752
20
74.0758938
40
1.2996527
50
186.4921002
51
236.792589
0
ARC
8
DEFAULT_255_2_778
10
10.5383098
20
74.0758801
40
1.3138949
50
179.9888749
51
186.4208275
0
ARC
8
DEFAULT_255_2_778
10
10.5211675
20
74.0789421
40
1.1467559
50
145.3218519
51
180.1402404
0
ARC
8
DEFAULT_255_2_778
10
10.521119
20
74.0794469
40
1.1464288
50
95.3072067
51
145.3412231
0
ARC
8
DEFAULT_255_2_778
10
10.5241309
20
74.0516636
40
1.1743716
50
89.9910167
51
95.328141
0
ARC
8
DEFAULT_255_2_778
10
10.5261418
20
74.0812226
40
1.1448141
50
53.2171205
51
90.0914248
0
ARC
8
DEFAULT_255_2_778
10
10.5257473
20
74.0769627
40
1.1484642
50
4.3484931
51
53.3286148
0
ARC
8
DEFAULT_255_2_778
10
10.508
20
74.0762445
40
1.166215
50
359.9946299
51
4.3175665
0
ARC
8
DEFAULT_255_2_778
10
10.529575
20
74.0743293
40
1.1446415
50
323.1710433
51
0.0903956
0
ARC
8
DEFAULT_255_2_778
10
10.5251403
20
74.0748358
40
1.1484971
50
274.3584594
51
323.2834351
0
ARC
8
DEFAULT_255_2_778
10
10.5244241
20
74.0925798
40
1.1662445
50
269.9946405
51
274.3272923
0
ARC
8
DEFAULT_255_2_778
10
10.5229032
20
73.6644178
40
0.7380839
50
269.963492
51
270.1095925
0
ARC
8
DEFAULT_255_2_778
10
10.5226607
20
74.07464
40
1.1483064
50
225.0020873
51
269.9886384
0
ARC
8
DEFAULT_255_2_778
10
10.5229033
20
74.074656
40
1.1484893
50
180.001416
51
224.9940932
0
ARC
8
DEFAULT_255_2_778
10
10.3214048
20
74.0747533
40
0.9469908
50
179.9163891
51
180.0076002
0
ARC
8
DEFAULT_255_2_778
10
16.0239052
20
50.3885453
40
0.4989912
50
89.8725621
51
180.1159799
0
ARC
8
DEFAULT_255_2_778
10
16.0261102
20
50.3886303
40
0.4989061
50
359.8742308
51
90.1257692
0
ARC
8
DEFAULT_255_2_778
10
16.0260251
20
50.3864253
40
0.4989912
50
269.8840201
51
0.1274379
0
ARC
8
DEFAULT_255_2_778
10
16.0239902
20
50.3865104
40
0.4990763
50
179.88235
51
270.11765
0
LINE
8
DEFAULT_255_2_778
10
14.024715
20
76.8262352
11
6.025115
21
76.8262352
0
LINE
8
DEFAULT_255_2_778
10
14.525115
20
77.6877352
11
5.825015
21
77.6877352
0
LINE
8
DEFAULT_255_2_778
10
5.525015
20
77.3877352
11
5.525015
21
6.8876352
0
LINE
8
DEFAULT_255_2_778
10
5.525015
20
6.8876352
11
6.025115
21
6.8876352
0
LINE
8
DEFAULT_255_2_778
10
6.025115
20
6.8876352
11
6.025115
21
77.6877352
0
LINE
8
DEFAULT_255_2_778
10
8.982015
20
82.3378352
11
8.982015
21
82.3378352
0
LINE
8
DEFAULT_255_2_778
10
6.275115
20
82.3378352
11
6.275115
21
82.3378352
0
LINE
8
DEFAULT_255_2_778
10
19.682115
20
82.3378352
11
19.682115
21
82.3378352
0
LINE
8
DEFAULT_255_2_778
10
16.975115
20
82.3375352
11
16.975115
21
82.3375352
0
LINE
8
DEFAULT_255_2_778
10
9.224415
20
10.0965352
11
9.224415
21
10.0965352
0
LINE
8
DEFAULT_255_2_778
10
9.374415
20
10.0965352
11
9.374415
21
10.0965352
0
LINE
8
DEFAULT_255_2_778
10
14.024515
20
12.8463352
11
14.024515
21
7.3464352
0
LINE
8
DEFAULT_255_2_778
10
7.024415
20
12.8463352
11
7.024415
21
7.3464352
0
LINE
8
DEFAULT_255_2_778
10
9.224415
20
74.0761352
11
9.224415
21
74.0761352
0
LINE
8
DEFAULT_255_2_778
10
9.374415
20
74.0761352
11
9.374415
21
74.0761352
0
LINE
8
DEFAULT_255_2_778
10
14.024515
20
71.3261352
11
14.024515
21
76.8262352
0
LINE
8
DEFAULT_255_2_778
10
15.524915
20
50.3875352
11
15.524915
21
50.3875352
0
ENDSEC
0
EOF