0
SECTION
2
HEADER
9
$MEASUREMENT
70
1
0
ENDSEC
0
SECTION
2
TABLES
0
TABLE
2
LTYPE
0
LTYPE
72
65
70
64
2
CONTINUOUS
3
______
73
0
40
0
0
ENDTAB
0
TABLE
2
LAYER
0
LAYER
2
DEFAULT_255_2_778
70
0
62
255
6
CONTINUOUS
0
ENDTAB
0
ENDSEC
0
SECTION
2
ENTITIES
0
LINE
8
DEFAULT_255_2_778
10
6.0251616
20
7.3457553
11
6.0251616
21
76.8258553
0
LINE
8
DEFAULT_255_2_778
10
6.0251616
20
76.8258553
11
10.0250616
21
76.8258553
0
LINE
8
DEFAULT_255_2_778
10
14.0245616
20
7.3457553
11
6.0248616
21
7.3457553
0
LINE
8
DEFAULT_255_2_778
10
14.024542
20
76.8258553
11
6.024842
21
76.8258553
0
LINE
8
DEFAULT_255_2_778
10
18.525042
20
7.3457553
11
18.525042
21
76.8258553
0
LINE
8
DEFAULT_255_2_778
10
18.525042
20
76.8258553
11
22.525042
21
76.8258553
0
LINE
8
DEFAULT_255_2_778
10
26.524742
20
7.3457553
11
18.525042
21
7.3457553
0
LINE
8
DEFAULT_255_2_778
10
26.5247616
20
76.8259
11
18.5250616
21
76.8259
0
ARC
8
DEFAULT_255_2_778
10
5.8251484
20
6.8873769
40
0.3001094
50
180.0208901
51
269.9791099
0
ARC
8
DEFAULT_255_2_778
10
27.0254471
20
6.8866097
40
0.2993425
50
269.9218888
51
315.0338001
0
ARC
8
DEFAULT_255_2_778
10
27.0253537
20
6.8871426
40
0.2997853
50
314.9743446
51
0.023866
0
ARC
8
DEFAULT_255_2_778
10
27.0253537
20
77.3874924
40
0.2997853
50
359.976134
51
45.0256554
0
ARC
8
DEFAULT_255_2_778
10
27.025274
20
77.3876068
40
0.2997607
50
44.9994233
51
90.0449246
0
ARC
8
DEFAULT_255_2_778
10
5.8249479
20
77.3872588
40
0.3001087
50
89.9826105
51
134.9730267
0
ARC
8
DEFAULT_255_2_778
10
5.8251475
20
77.3874586
40
0.3001084
50
135.0269503
51
180.0173976
0
ARC
8
DEFAULT_255_2_778
10
0.8248479
20
94.7870588
40
0.3001087
50
89.9826105
51
134.9730267
0
ARC
8
DEFAULT_255_2_778
10
0.8250481
20
94.7872583
40
0.3001091
50
135.0269926
51
180.0173348
0
ARC
8
DEFAULT_255_2_778
10
31.0365301
20
94.787059
40
0.3001085
50
45.0269503
51
90.0173976
0
ARC
8
DEFAULT_255_2_778
10
31.0363302
20
94.7872586
40
0.3001086
50
359.9826105
51
44.9730267
0
ARC
8
DEFAULT_255_2_778
10
31.0363295
20
5.3871769
40
0.3001094
50
270.0208901
51
359.9791099
0
LINE
8
DEFAULT_255_2_778
10
5.825039
20
6.5872675
11
27.025039
21
6.5872675
0
LINE
8
DEFAULT_255_2_778
10
27.325139
20
6.8872675
11
27.325139
21
77.3873675
0
LINE
8
DEFAULT_255_2_778
10
27.025039
20
77.6873675
11
5.825039
21
77.6873675
0
LINE
8
DEFAULT_255_2_778
10
5.525039
20
77.3873675
11
5.525039
21
6.8872675
0
LINE
8
DEFAULT_255_2_778
10
5.525039
20
6.8872675
11
6.025139
21
6.8872675
0
LINE
8
DEFAULT_255_2_778
10
6.025139
20
6.8872675
11
6.025139
21
77.6873675
0
LINE
8
DEFAULT_255_2_778
10
0.524939
20
94.7871675
11
0.524939
21
5.3844675
0
LINE
8
DEFAULT_255_2_778
10
31.336439
20
94.7871675
11
31.336439
21
5.3870675
0
LINE
8
DEFAULT_255_2_778
10
31.225039
20
95.0871675
11
0.824939
21
95.0871675
0
ARC
8
DEFAULT_255_2_778
10
31.2249197
20
94.787059
40
0.3001085
50
45.0269503
51
90.0173976
0
ARC
8
DEFAULT_255_2_778
10
31.2251396
20
94.7874321
40
0.299689
50
359.9494094
51
45.0062795
0
ARC
8
DEFAULT_255_2_778
10
31.2251396
20
5.3868029
40
0.299689
50
314.9937205
51
0.0505906
0
ARC
8
DEFAULT_255_2_778
10
31.2249188
20
5.3871777
40
0.3001103
50
269.9827635
51
314.9729322
0
LINE
8
DEFAULT_255_2_778
10
31.5248286
20
94.7871675
11
31.5248286
21
5.3870675
0
LINE
8
DEFAULT_255_2_778
10
31.2248286
20
5.0870675
11
0.8276286
21
5.0870675
0
LINE
8
DEFAULT_255_2_778
10
0.5249286
20
92.9874675
11
0.2249286
21
92.9874675
0
LINE
8
DEFAULT_255_2_778
10
0.2249286
20
92.9874675
11
0.2249286
21
82.0873675
0
LINE
8
DEFAULT_255_2_778
10
0.2249286
20
82.0873675
11
0.5249286
21
82.0873675
0
LINE
8
DEFAULT_255_2_778
10
0.5249286
20
81.5873675
11
0.2249286
21
81.5873675
0
LINE
8
DEFAULT_255_2_778
10
0.2249286
20
81.5873675
11
0.2249286
21
70.6872675
0
LINE
8
DEFAULT_255_2_778
10
0.2249286
20
70.6872675
11
0.5249286
21
70.6872675
0
LINE
8
DEFAULT_255_2_778
10
0.4011286
20
82.0873675
11
0.4011286
21
81.5873675
0
ARC
8
DEFAULT_255_2_778
10
0.8250244
20
5.3873769
40
0.3001094
50
180.0208901
51
269.9791099
0
ARC
8
DEFAULT_255_2_778
10
31.2249842
20
5.3873984
40
0.3001309
50
270.0058902
51
359.9750049
0
ARC
8
DEFAULT_255_2_778
10
31.2253297
20
94.7874924
40
0.2997853
50
359.976134
51
45.0256554
0
ARC
8
DEFAULT_255_2_778
10
31.2252501
20
94.7876068
40
0.2997607
50
44.9994233
51
90.0449246
0
ARC
8
DEFAULT_255_2_778
10
16.0239902
20
50.3880923
40
0.4990763
50
89.88235
51
180.11765
0
ARC
8
DEFAULT_255_2_778
10
16.0260251
20
50.3881774
40
0.4989912
50
359.8725621
51
90.1159799
0
ARC
8
DEFAULT_255_2_778
10
16.0260251
20
50.3859576
40
0.4989912
50
269.8840201
51
0.1274379
0
ARC
8
DEFAULT_255_2_778
10
16.0239902
20
50.3860427
40
0.4990763
50
179.88235
51
270.11765
0
LINE
8
DEFAULT_255_2_778
10
17.524915
20
77.6872675
11
17.524915
21
6.8871675
0
LINE
8
DEFAULT_255_2_778
10
17.524915
20
6.8871675
11
18.525015
21
6.8871675
0
LINE
8
DEFAULT_255_2_778
10
18.525015
20
6.8871675
11
18.525015
21
77.6872675
0
LINE
8
DEFAULT_255_2_778
10
25.025115
20
7.3456675
11
25.025115
21
6.7871675
0
LINE
8
DEFAULT_255_2_778
10
25.025115
20
6.7871675
11
26.025215
21
6.7871675
0
LINE
8
DEFAULT_255_2_778
10
26.025215
20
6.7871675
11
26.025215
21
7.3456675
0
LINE
8
DEFAULT_255_2_778
10
15.524915
20
50.3870675
11
15.524915
21
50.3870675
0
LINE
8
DEFAULT_255_2_778
10
7.149815
20
69.2460675
11
7.149815
21
14.9257675
0
LINE
8
DEFAULT_255_2_778
10
7.149815
20
14.9257675
11
13.149815
21
15.9258675
0
LINE
8
DEFAULT_255_2_778
10
13.149815
20
15.9258675
11
13.149815
21
68.2459675
0
LINE
8
DEFAULT_255_2_778
10
13.149815
20
68.2459675
11
7.149815
21
69.2460675
0
LINE
8
DEFAULT_255_2_778
10
6.025115
20
71.3256675
11
14.275015
21
71.3256675
0
LINE
8
DEFAULT_255_2_778
10
14.275015
20
71.3256675
11
14.275015
21
12.8455675
0
LINE
8
DEFAULT_255_2_778
10
14.275015
20
12.8455675
11
6.025115
21
12.8455675
0
LINE
8
DEFAULT_255_2_778
10
19.650015
20
69.2460675
11
19.650015
21
14.9257675
0
LINE
8
DEFAULT_255_2_778
10
19.650015
20
14.9257675
11
25.650015
21
15.9258675
0
LINE
8
DEFAULT_255_2_778
10
25.650015
20
15.9258675
11
25.650015
21
68.2459675
0
LINE
8
DEFAULT_255_2_778
10
25.650015
20
68.2459675
11
19.650015
21
69.2460675
0
LINE
8
DEFAULT_255_2_778
10
18.5250816
20
71.3257418
11
26.7749816
21
71.3257418
0
LINE
8
DEFAULT_255_2_778
10
26.7749816
20
71.3257418
11
26.7749816
21
12.8456418
0
LINE
8
DEFAULT_255_2_778
10
26.7749816
20
12.8456418
11
18.5250816
21
12.8456418
0
LINE
8
DEFAULT_255_2_778
10
4.5748816
20
2.9873418
11
4.5748816
21
2.5872418
0
LINE
8
DEFAULT_255_2_778
10
4.5748816
20
2.5872418
11
1.0749816
21
2.5872418
0
LINE
8
DEFAULT_255_2_778
10
1.0749816
20
2.5872418
11
1.0749816
21
2.9873418
0
LINE
8
DEFAULT_255_2_778
10
4.5749459
20
3.387325
11
4.5749459
21
2.987325
0
LINE
8
DEFAULT_255_2_778
10
4.5749459
20
2.987325
11
1.0750459
21
2.987325
0
LINE
8
DEFAULT_255_2_778
10
1.0750459
20
2.987325
11
1.0750459
21
3.387325
0
LINE
8
DEFAULT_255_2_778
10
4.5749459
20
3.787325
11
4.5749459
21
3.387325
0
LINE
8
DEFAULT_255_2_778
10
4.5749459
20
3.387325
11
1.0750459
21
3.387325
0
LINE
8
DEFAULT_255_2_778
10
1.0750459
20
3.387325
11
1.0750459
21
3.787325
0
LINE
8
DEFAULT_255_2_778
10
4.5749459
20
4.187425
11
4.5749459
21
3.787425
0
LINE
8
DEFAULT_255_2_778
10
4.5749459
20
3.787425
11
1.0750459
21
3.787425
0
LINE
8
DEFAULT_255_2_778
10
1.0750459
20
3.787425
11
1.0750459
21
4.187425
0
LINE
8
DEFAULT_255_2_778
10
4.5749459
20
5.0872364
11
4.5749459
21
4.1874364
0
LINE
8
DEFAULT_255_2_778
10
4.5749459
20
4.1874364
11
1.0750459
21
4.1874364
0
LINE
8
DEFAULT_255_2_778
10
1.0750459
20
4.1874364
11
1.0750459
21
5.0872364
0
LINE
8
DEFAULT_255_2_778
10
2.6249459
20
2.3871364
11
2.6249459
21
2.5872364
0
LINE
8
DEFAULT_255_2_778
10
3.0250459
20
2.3871364
11
3.0250459
21
2.5872364
0
LINE
8
DEFAULT_255_2_778
10
2.0251545
20
2.5872343
11
2.0251545
21
2.3871343
0
LINE
8
DEFAULT_255_2_778
10
2.0251545
20
2.3871343
11
3.6250545
21
2.3871343
0
LINE
8
DEFAULT_255_2_778
10
3.6250545
20
2.3871343
11
3.6250545
21
2.5872343
0
LINE
8
DEFAULT_255_2_778
10
27.0748545
20
5.0872343
11
27.0748545
21
1.7873343
0
LINE
8
DEFAULT_255_2_778
10
27.0748545
20
1.7873343
11
24.5747545
21
-0.2126657
0
LINE
8
DEFAULT_255_2_778
10
24.5747545
20
-0.2126657
11
17.5749545
21
-0.2126657
0
LINE
8
DEFAULT_255_2_778
10
17.5749545
20
-0.2126657
11
15.0749545
21
1.7873343
0
LINE
8
DEFAULT_255_2_778
10
15.0749545
20
1.7873343
11
15.0749545
21
5.0872343
0
ARC
8
DEFAULT_255_2_778
10
21.0683251
20
3.2845945
40
1.993198
50
179.9315196
51
204.3126274
0
ARC
8
DEFAULT_255_2_778
10
21.0769909
20
3.2895772
40
2.0031469
50
204.3404582
51
260.1947019
0
ARC
8
DEFAULT_255_2_778
10
21.0746967
20
3.3005262
40
2.0135495
50
260.3120873
51
270.0122867
0
ARC
8
DEFAULT_255_2_778
10
21.0775108
20
3.2801734
40
1.993198
50
269.9315196
51
294.3126274
0
ARC
8
DEFAULT_255_2_778
10
21.072528
20
3.2888392
40
2.0031469
50
294.3404582
51
350.1947019
0
ARC
8
DEFAULT_255_2_778
10
21.061579
20
3.286545
40
2.0135495
50
350.3120873
51
0.0122867
0
LINE
8
DEFAULT_255_2_778
10
23.0751285
20
3.2869768
11
25.5752285
21
3.2869768
0
LINE
8
DEFAULT_255_2_778
10
25.5752285
20
3.2869768
11
25.5752285
21
4.2871768
0
LINE
8
DEFAULT_255_2_778
10
25.5752285
20
4.2871768
11
16.5751285
21
4.2871768
0
LINE
8
DEFAULT_255_2_778
10
16.5751285
20
4.2871768
11
16.5751285
21
3.2869768
0
LINE
8
DEFAULT_255_2_778
10
16.5751285
20
3.2869768
11
19.0751285
21
3.2869768
0
LINE
8
DEFAULT_255_2_778
10
3.0250285
20
97.7871768
11
3.0250285
21
97.5871768
0
LINE
8
DEFAULT_255_2_778
10
2.6249285
20
97.7871768
11
2.6249285
21
97.5871768
0
LINE
8
DEFAULT_255_2_778
10
3.6248285
20
97.5871768
11
3.6248285
21
97.7871768
0
LINE
8
DEFAULT_255_2_778
10
3.6248285
20
97.7871768
11
2.0249285
21
97.7871768
0
LINE
8
DEFAULT_255_2_778
10
2.0249285
20
97.7871768
11
2.0249285
21
97.5871768
0
LINE
8
DEFAULT_255_2_778
10
1.0750285
20
97.1870768
11
1.0750285
21
97.5871768
0
LINE
8
DEFAULT_255_2_778
10
1.0750285
20
97.5871768
11
4.5749285
21
97.5871768
0
LINE
8
DEFAULT_255_2_778
10
4.5749285
20
97.5871768
11
4.5749285
21
97.1870768
0
LINE
8
DEFAULT_255_2_778
10
1.0750285
20
96.7870768
11
1.0750285
21
97.1870768
0
LINE
8
DEFAULT_255_2_778
10
1.0750285
20
97.1870768
11
4.5749285
21
97.1870768
0
LINE
8
DEFAULT_255_2_778
10
4.5749285
20
97.1870768
11
4.5749285
21
96.7870768
0
LINE
8
DEFAULT_255_2_778
10
1.0750285
20
96.3869768
11
1.0750285
21
96.7870768
0
LINE
8
DEFAULT_255_2_778
10
1.0750285
20
96.7870768
11
4.5749285
21
96.7870768
0
LINE
8
DEFAULT_255_2_778
10
4.5749285
20
96.7870768
11
4.5749285
21
96.3869768
0
LINE
8
DEFAULT_255_2_778
10
1.0750285
20
95.9871768
11
1.0750285
21
96.3869768
0
LINE
8
DEFAULT_255_2_778
10
1.0750285
20
96.3869768
11
4.5749285
21
96.3869768
0
LINE
8
DEFAULT_255_2_778
10
4.5749285
20
96.3869768
11
4.5749285
21
95.9871768
0
LINE
8
DEFAULT_255_2_778
10
1.0750285
20
95.0870768
11
1.0750285
21
95.9871768
0
LINE
8
DEFAULT_255_2_778
10
1.0750285
20
95.9871768
11
4.5749285
21
95.9871768
0
LINE
8
DEFAULT_255_2_778
10
4.5749285
20
95.9871768
11
4.5749285
21
95.0870768
0
LINE
8
DEFAULT_255_2_778
10
11.3437285
20
82.5762768
11
10.4254285
21
82.9106768
0
LINE
8
DEFAULT_255_2_778
10
10.4254285
20
82.9106768
11
10.4254285
21
82.5466768
0
LINE
8
DEFAULT_255_2_778
10
10.4254285
20
82.5466768
11
9.0003285
21
82.5466768
0
LINE
8
DEFAULT_255_2_778
10
11.3437285
20
82.0981768
11
10.4254285
21
81.7639768
0
LINE
8
DEFAULT_255_2_778
10
10.4254285
20
81.7639768
11
10.4254285
21
82.1280768
0
LINE
8
DEFAULT_255_2_778
10
10.4254285
20
82.1280768
11
9.0003285
21
82.1280768
0
LINE
8
DEFAULT_255_2_778
10
22.0438285
20
82.5762768
11
21.1254285
21
82.9106768
0
LINE
8
DEFAULT_255_2_778
10
21.1254285
20
82.9106768
11
21.1254285
21
82.5466768
0
LINE
8
DEFAULT_255_2_778
10
21.1254285
20
82.5466768
11
19.7003285
21
82.5466768
0
LINE
8
DEFAULT_255_2_778
10
22.0438285
20
82.0981768
11
21.1254285
21
81.7639768
0
LINE
8
DEFAULT_255_2_778
10
21.1254285
20
81.7639768
11
21.1254285
21
82.1280768
0
LINE
8
DEFAULT_255_2_778
10
21.1254285
20
82.1280768
11
19.7003285
21
82.1280768
0
LINE
8
DEFAULT_255_2_778
10
25.0251285
20
76.8260768
11
25.0251285
21
77.6872768
0
LINE
8
DEFAULT_255_2_778
10
26.0249285
20
76.8260768
11
26.0249285
21
77.6872768
0
ARC
8
DEFAULT_255_2_778
10
10.5215967
20
10.0990955
40
1.297198
50
148.2770855
51
180.1324007
0
ARC
8
DEFAULT_255_2_778
10
10.5207449
20
10.0996122
40
1.2962017
50
97.0226393
51
148.276717
0
ARC
8
DEFAULT_255_2_778
10
10.5239539
20
10.0718442
40
1.3241537
50
89.9849309
51
97.0135513
0
ARC
8
DEFAULT_255_2_778
10
10.5272997
20
10.0988033
40
1.297198
50
58.2770855
51
90.1324007
0
ARC
8
DEFAULT_255_2_778
10
10.5278165
20
10.0996551
40
1.2962017
50
7.0226393
51
58.276717
0
ARC
8
DEFAULT_255_2_778
10
10.5000484
20
10.0964461
40
1.3241537
50
359.9849309
51
7.0135513
0
ARC
8
DEFAULT_255_2_778
10
10.5270076
20
10.0931003
40
1.297198
50
328.2770855
51
0.1324007
0
ARC
8
DEFAULT_255_2_778
10
10.5278594
20
10.0925835
40
1.2962017
50
277.0226393
51
328.276717
0
ARC
8
DEFAULT_255_2_778
10
10.5246504
20
10.1203516
40
1.3241537
50
269.9849309
51
277.0135513
0
ARC
8
DEFAULT_255_2_778
10
10.5213045
20
10.0933924
40
1.297198
50
238.2770855
51
270.1324007
0
ARC
8
DEFAULT_255_2_778
10
10.5207878
20
10.0925406
40
1.2962017
50
187.0226393
51
238.276717
0
ARC
8
DEFAULT_255_2_778
10
10.5485558
20
10.0957496
40
1.3241537
50
179.9849309
51
187.0135513
0
LINE
8
DEFAULT_255_2_778
10
9.2244021
20
10.0960979
11
9.2244021
21
10.0960979
0
ARC
8
DEFAULT_255_2_778
10
10.521133
20
10.098855
40
1.1467155
50
145.3212297
51
180.1386974
0
ARC
8
DEFAULT_255_2_778
10
10.5211836
20
10.0993461
40
1.1464777
50
95.3099268
51
145.3428517
0
ARC
8
DEFAULT_255_2_778
10
10.5241346
20
10.0718849
40
1.1740943
50
89.9909081
51
95.3292962
0
ARC
8
DEFAULT_255_2_778
10
10.5270164
20
10.0994361
40
1.1465462
50
54.973098
51
90.1347026
0
ARC
8
DEFAULT_255_2_778
10
10.5274964
20
10.0990575
40
1.1465809
50
5.2831621
51
55.0035975
0
ARC
8
DEFAULT_255_2_778
10
10.5007272
20
10.0962645
40
1.1734936
50
359.9909512
51
5.2986083
0
ARC
8
DEFAULT_255_2_778
10
10.5277493
20
10.0934004
40
1.1464747
50
324.9695739
51
0.1338727
0
ARC
8
DEFAULT_255_2_778
10
10.5272209
20
10.0929886
40
1.1466712
50
275.285908
51
325.0015767
0
ARC
8
DEFAULT_255_2_778
10
10.5245053
20
10.1193615
40
1.1731823
50
269.9909948
51
275.2993129
0
ARC
8
DEFAULT_255_2_778
10
10.5216105
20
10.0926889
40
1.1465129
50
234.9701745
51
270.1354455
0
ARC
8
DEFAULT_255_2_778
10
10.5211872
20
10.0931211
40
1.146624
50
185.2832144
51
234.9998909
0
ARC
8
DEFAULT_255_2_778
10
10.5478837
20
10.0958969
40
1.1734628
50
179.9911041
51
185.2981504
0
LINE
8
DEFAULT_255_2_778
10
9.3744209
20
10.0960791
11
9.3744209
21
10.0960791
0
LINE
8
DEFAULT_255_2_778
10
14.0245595
20
12.8459468
11
14.0245595
21
7.3460468
0
LINE
8
DEFAULT_255_2_778
10
7.0244595
20
12.8459468
11
7.0244595
21
7.3460468
0
ARC
8
DEFAULT_255_2_778
10
10.5215967
20
74.0789955
40
1.297198
50
148.2770855
51
180.1324007
0
ARC
8
DEFAULT_255_2_778
10
10.5207449
20
74.0795122
40
1.2962017
50
97.0226393
51
148.276717
0
ARC
8
DEFAULT_255_2_778
10
10.5239539
20
74.0517442
40
1.3241537
50
89.9849309
51
97.0135513
0
ARC
8
DEFAULT_255_2_778
10
10.5272997
20
74.0787033
40
1.297198
50
58.2770855
51
90.1324007
0
ARC
8
DEFAULT_255_2_778
10
10.5278165
20
74.0795551
40
1.2962017
50
7.0226393
51
58.276717
0
ARC
8
DEFAULT_255_2_778
10
10.5000484
20
74.0763461
40
1.3241537
50
359.9849309
51
7.0135513
0
ARC
8
DEFAULT_255_2_778
10
10.5270076
20
74.0730003
40
1.297198
50
328.2770855
51
0.1324007
0
ARC
8
DEFAULT_255_2_778
10
10.5278594
20
74.0724835
40
1.2962017
50
277.0226393
51
328.276717
0
ARC
8
DEFAULT_255_2_778
10
10.5246504
20
74.1002516
40
1.3241537
50
269.9849309
51
277.0135513
0
ARC
8
DEFAULT_255_2_778
10
10.5213045
20
74.0732924
40
1.297198
50
238.2770855
51
270.1324007
0
ARC
8
DEFAULT_255_2_778
10
10.5207878
20
74.0724406
40
1.2962017
50
187.0226393
51
238.276717
0
ARC
8
DEFAULT_255_2_778
10
10.5485558
20
74.0756496
40
1.3241537
50
179.9849309
51
187.0135513
0
LINE
8
DEFAULT_255_2_778
10
9.2244021
20
74.0759979
11
9.2244021
21
74.0759979
0
ARC
8
DEFAULT_255_2_778
10
10.521133
20
74.078755
40
1.1467155
50
145.3212297
51
180.1386974
0
ARC
8
DEFAULT_255_2_778
10
10.5211836
20
74.0792461
40
1.1464777
50
95.3099268
51
145.3428517
0
ARC
8
DEFAULT_255_2_778
10
10.5241346
20
74.0517849
40
1.1740943
50
89.9909081
51
95.3292962
0
ARC
8
DEFAULT_255_2_778
10
10.5270164
20
74.0793361
40
1.1465462
50
54.973098
51
90.1347026
0
ARC
8
DEFAULT_255_2_778
10
10.5274964
20
74.0789575
40
1.1465809
50
5.2831621
51
55.0035975
0
ARC
8
DEFAULT_255_2_778
10
10.5007272
20
74.0761645
40
1.1734936
50
359.9909512
51
5.2986083
0
ARC
8
DEFAULT_255_2_778
10
10.5277493
20
74.0733004
40
1.1464747
50
324.9695739
51
0.1338727
0
ARC
8
DEFAULT_255_2_778
10
10.5272209
20
74.0728886
40
1.1466712
50
275.285908
51
325.0015767
0
ARC
8
DEFAULT_255_2_778
10
10.5245053
20
74.0992615
40
1.1731823
50
269.9909948
51
275.2993129
0
ARC
8
DEFAULT_255_2_778
10
10.5216105
20
74.0725889
40
1.1465129
50
234.9701745
51
270.1354455
0
ARC
8
DEFAULT_255_2_778
10
10.5211872
20
74.0730211
40
1.146624
50
185.2832144
51
234.9998909
0
ARC
8
DEFAULT_255_2_778
10
10.5478837
20
74.0757969
40
1.1734628
50
179.9911041
51
185.2981504
0
LINE
8
DEFAULT_255_2_778
10
9.3744209
20
74.0759791
11
9.3744209
21
74.0759791
0
LINE
8
DEFAULT_255_2_778
10
7.0244595
20
71.3259468
11
7.0244595
21
76.8258468
0
LINE
8
DEFAULT_255_2_778
10
14.0245595
20
71.3259468
11
14.0245595
21
76.8258468
0
ARC
8
DEFAULT_255_2_778
10
23.0218967
20
10.0990955
40
1.297198
50
148.2770855
51
180.1324007
0
ARC
8
DEFAULT_255_2_778
10
23.0210449
20
10.0996122
40
1.2962017
50
97.0226393
51
148.276717
0
ARC
8
DEFAULT_255_2_778
10
23.0242539
20
10.0718442
40
1.3241537
50
89.9849309
51
97.0135513
0
ARC
8
DEFAULT_255_2_778
10
23.0275997
20
10.0988033
40
1.297198
50
58.2770855
51
90.1324007
0
ARC
8
DEFAULT_255_2_778
10
23.0281165
20
10.0996551
40
1.2962017
50
7.0226393
51
58.276717
0
ARC
8
DEFAULT_255_2_778
10
23.0003484
20
10.0964461
40
1.3241537
50
359.9849309
51
7.0135513
0
ARC
8
DEFAULT_255_2_778
10
23.0273076
20
10.0931003
40
1.297198
50
328.2770855
51
0.1324007
0
ARC
8
DEFAULT_255_2_778
10
23.0281594
20
10.0925835
40
1.2962017
50
277.0226393
51
328.276717
0
ARC
8
DEFAULT_255_2_778
10
23.0249504
20
10.1203516
40
1.3241537
50
269.9849309
51
277.0135513
0
ARC
8
DEFAULT_255_2_778
10
23.0216045
20
10.0933924
40
1.297198
50
238.2770855
51
270.1324007
0
ARC
8
DEFAULT_255_2_778
10
23.0210878
20
10.0925406
40
1.2962017
50
187.0226393
51
238.276717
0
ARC
8
DEFAULT_255_2_778
10
23.0488558
20
10.0957496
40
1.3241537
50
179.9849309
51
187.0135513
0
LINE
8
DEFAULT_255_2_778
10
21.7247021
20
10.0960979
11
21.7247021
21
10.0960979
0
ARC
8
DEFAULT_255_2_778
10
23.021133
20
10.098855
40
1.1467155
50
145.3212297
51
180.1386974
0
ARC
8
DEFAULT_255_2_778
10
23.0211836
20
10.0993461
40
1.1464777
50
95.3099268
51
145.3428517
0
ARC
8
DEFAULT_255_2_778
10
23.0241346
20
10.0718849
40
1.1740943
50
89.9909081
51
95.3292962
0
ARC
8
DEFAULT_255_2_778
10
23.0270164
20
10.0994361
40
1.1465462
50
54.973098
51
90.1347026
0
ARC
8
DEFAULT_255_2_778
10
23.0274964
20
10.0990575
40
1.1465809
50
5.2831621
51
55.0035975
0
ARC
8
DEFAULT_255_2_778
10
23.0007272
20
10.0962645
40
1.1734936
50
359.9909512
51
5.2986083
0
ARC
8
DEFAULT_255_2_778
10
23.0277493
20
10.0934004
40
1.1464747
50
324.9695739
51
0.1338727
0
ARC
8
DEFAULT_255_2_778
10
23.0272209
20
10.0929886
40
1.1466712
50
275.285908
51
325.0015767
0
ARC
8
DEFAULT_255_2_778
10
23.0245053
20
10.1193615
40
1.1731823
50
269.9909948
51
275.2993129
0
ARC
8
DEFAULT_255_2_778
10
23.0216105
20
10.0926889
40
1.1465129
50
234.9701745
51
270.1354455
0
ARC
8
DEFAULT_255_2_778
10
23.0211872
20
10.0931211
40
1.146624
50
185.2832144
51
234.9998909
0
ARC
8
DEFAULT_255_2_778
10
23.0478837
20
10.0958969
40
1.1734628
50
179.9911041
51
185.2981504
0
LINE
8
DEFAULT_255_2_778
10
21.8744209
20
10.0960791
11
21.8744209
21
10.0960791
0
LINE
8
DEFAULT_255_2_778
10
26.5244785
20
12.8459468
11
26.5244785
21
7.3460468
0
LINE
8
DEFAULT_255_2_778
10
19.5246785
20
12.8459468
11
19.5246785
21
7.3460468
0
ARC
8
DEFAULT_255_2_778
10
23.0218967
20
74.0789955
40
1.297198
50
148.2770855
51
180.1324007
0
ARC
8
DEFAULT_255_2_778
10
23.0210449
20
74.0795122
40
1.2962017
50
97.0226393
51
148.276717
0
ARC
8
DEFAULT_255_2_778
10
23.0242539
20
74.0517442
40
1.3241537
50
89.9849309
51
97.0135513
0
ARC
8
DEFAULT_255_2_778
10
23.0275997
20
74.0787033
40
1.297198
50
58.2770855
51
90.1324007
0
ARC
8
DEFAULT_255_2_778
10
23.0281165
20
74.0795551
40
1.2962017
50
7.0226393
51
58.276717
0
ARC
8
DEFAULT_255_2_778
10
23.0003484
20
74.0763461
40
1.3241537
50
359.9849309
51
7.0135513
0
ARC
8
DEFAULT_255_2_778
10
23.0273076
20
74.0730003
40
1.297198
50
328.2770855
51
0.1324007
0
ARC
8
DEFAULT_255_2_778
10
23.0281594
20
74.0724835
40
1.2962017
50
277.0226393
51
328.276717
0
ARC
8
DEFAULT_255_2_778
10
23.0249504
20
74.1002516
40
1.3241537
50
269.9849309
51
277.0135513
0
ARC
8
DEFAULT_255_2_778
10
23.0216045
20
74.0732924
40
1.297198
50
238.2770855
51
270.1324007
0
ARC
8
DEFAULT_255_2_778
10
23.0210878
20
74.0724406
40
1.2962017
50
187.0226393
51
238.276717
0
ARC
8
DEFAULT_255_2_778
10
23.0488558
20
74.0756496
40
1.3241537
50
179.9849309
51
187.0135513
0
LINE
8
DEFAULT_255_2_778
10
21.7247021
20
74.0759979
11
21.7247021
21
74.0759979
0
ARC
8
DEFAULT_255_2_778
10
23.021133
20
74.078755
40
1.1467155
50
145.3212297
51
180.1386974
0
ARC
8
DEFAULT_255_2_778
10
23.0211836
20
74.0792461
40
1.1464777
50
95.3099268
51
145.3428517
0
ARC
8
DEFAULT_255_2_778
10
23.0241346
20
74.0517849
40
1.1740943
50
89.9909081
51
95.3292962
0
ARC
8
DEFAULT_255_2_778
10
23.0270164
20
74.0793361
40
1.1465462
50
54.973098
51
90.1347026
0
ARC
8
DEFAULT_255_2_778
10
23.0274964
20
74.0789575
40
1.1465809
50
5.2831621
51
55.0035975
0
ARC
8
DEFAULT_255_2_778
10
23.0007272
20
74.0761645
40
1.1734936
50
359.9909512
51
5.2986083
0
ARC
8
DEFAULT_255_2_778
10
23.0277493
20
74.0733004
40
1.1464747
50
324.9695739
51
0.1338727
0
ARC
8
DEFAULT_255_2_778
10
23.0272209
20
74.0728886
40
1.1466712
50
275.285908
51
325.0015767
0
ARC
8
DEFAULT_255_2_778
10
23.0245053
20
74.0992615
40
1.1731823
50
269.9909948
51
275.2993129
0
ARC
8
DEFAULT_255_2_778
10
23.0216105
20
74.0725889
40
1.1465129
50
234.9701745
51
270.1354455
0
ARC
8
DEFAULT_255_2_778
10
23.0211872
20
74.0730211
40
1.146624
50
185.2832144
51
234.9998909
0
ARC
8
DEFAULT_255_2_778
10
23.0478837
20
74.0757969
40
1.1734628
50
179.9911041
51
185.2981504
0
LINE
8
DEFAULT_255_2_778
10
21.8744209
20
74.0759791
11
21.8744209
21
74.0759791
0
LINE
8
DEFAULT_255_2_778
10
19.5246785
20
71.3259468
11
19.5246785
21
76.8258468
0
LINE
8
DEFAULT_255_2_778
10
26.5244785
20
71.3259468
11
26.5244785
21
76.8258468
0
ARC
8
DEFAULT_255_2_778
10
10.1693848
20
82.3393227
40
1.1876248
50
144.5523862
51
180.0909025
0
ARC
8
DEFAULT_255_2_778
10
10.1743101
20
82.3383904
40
1.1921799
50
95.3461268
51
144.6531661
0
ARC
8
DEFAULT_255_2_778
10
10.1746937
20
82.3227177
40
1.2078207
50
89.992039
51
95.2949725
0
ARC
8
DEFAULT_255_2_778
10
10.1767647
20
82.3427327
40
1.1878073
50
54.5551973
51
90.0918026
0
ARC
8
DEFAULT_255_2_778
10
10.1759537
20
82.3379949
40
1.1921393
50
5.3460689
51
54.6554969
0
ARC
8
DEFAULT_255_2_778
10
10.1602407
20
82.3376063
40
1.2078207
50
359.9920391
51
5.2949725
0
ARC
8
DEFAULT_255_2_778
10
10.1802945
20
82.335531
40
1.1877685
50
324.5541132
51
0.0920124
0
ARC
8
DEFAULT_255_2_778
10
10.1754737
20
82.3364298
40
1.1922189
50
275.3437996
51
324.653286
0
ARC
8
DEFAULT_255_2_778
10
10.1750297
20
82.3523996
40
1.2081611
50
269.9920236
51
275.2942295
0
ARC
8
DEFAULT_255_2_778
10
10.172973
20
82.331823
40
1.187586
50
234.5513021
51
270.0911123
0
ARC
8
DEFAULT_255_2_778
10
10.1739931
20
82.3368313
40
1.1922594
50
185.3438576
51
234.6509552
0
ARC
8
DEFAULT_255_2_778
10
10.1899226
20
82.3372703
40
1.2081611
50
179.9920236
51
185.2942295
0
LINE
8
DEFAULT_255_2_778
10
8.9817615
20
82.3374385
11
8.9817615
21
82.3374385
0
ARC
8
DEFAULT_255_2_778
10
10.1848774
20
82.3452755
40
3.9097518
50
180.0000059
51
180.1159071
0
ARC
8
DEFAULT_255_2_778
10
10.1671851
20
82.3453145
40
3.8920595
50
135.0010374
51
180.0005795
0
ARC
8
DEFAULT_255_2_778
10
10.1672197
20
82.3452321
40
3.8921422
50
89.9999252
51
135.0005399
0
ARC
8
DEFAULT_255_2_778
10
10.1672244
20
82.3276225
40
3.9097518
50
89.8840929
51
89.9999941
0
ARC
8
DEFAULT_255_2_778
10
10.1830429
20
82.3276235
40
3.9097508
50
90.0000059
51
90.1159071
0
ARC
8
DEFAULT_255_2_778
10
10.1830434
20
82.3454634
40
3.8919109
50
44.9980498
51
90.0000131
0
ARC
8
DEFAULT_255_2_778
10
10.1829822
20
82.3453145
40
3.8920594
50
359.9994205
51
44.9989626
0
ARC
8
DEFAULT_255_2_778
10
10.1652898
20
82.3452755
40
3.9097518
50
359.8840929
51
359.9999941
0
ARC
8
DEFAULT_255_2_778
10
10.1652908
20
82.329457
40
3.9097508
50
0.0000059
51
0.1159071
0
ARC
8
DEFAULT_255_2_778
10
10.1828076
20
82.3294904
40
3.8922341
50
315.0021022
51
359.9995147
0
ARC
8
DEFAULT_255_2_778
10
10.1830095
20
82.3296923
40
3.8922341
50
270.0004853
51
314.9978978
0
ARC
8
DEFAULT_255_2_778
10
10.1830429
20
82.3472091
40
3.9097508
50
269.8840929
51
269.9999941
0
ARC
8
DEFAULT_255_2_778
10
10.1672244
20
82.3472101
40
3.9097518
50
270.0000059
51
270.1159071
0
ARC
8
DEFAULT_255_2_778
10
10.1672535
20
82.3299237
40
3.8924654
50
225.0035125
51
269.9995764
0
ARC
8
DEFAULT_255_2_778
10
10.1673597
20
82.3294904
40
3.8922341
50
180.0004853
51
224.9978978
0
ARC
8
DEFAULT_255_2_778
10
10.1848764
20
82.329457
40
3.9097508
50
179.8840929
51
179.9999941
0
LINE
8
DEFAULT_255_2_778
10
6.2751336
20
82.3373663
11
6.2751336
21
82.3373663
0
ARC
8
DEFAULT_255_2_778
10
20.8694848
20
82.3393227
40
1.1876248
50
144.5523862
51
180.0909025
0
ARC
8
DEFAULT_255_2_778
10
20.8744101
20
82.3383904
40
1.1921799
50
95.3461268
51
144.6531661
0
ARC
8
DEFAULT_255_2_778
10
20.8747937
20
82.3227177
40
1.2078207
50
89.992039
51
95.2949725
0
ARC
8
DEFAULT_255_2_778
10
20.8768647
20
82.3427327
40
1.1878073
50
54.5551973
51
90.0918026
0
ARC
8
DEFAULT_255_2_778
10
20.8760537
20
82.3379949
40
1.1921393
50
5.3460689
51
54.6554969
0
ARC
8
DEFAULT_255_2_778
10
20.8603407
20
82.3376063
40
1.2078207
50
359.9920391
51
5.2949725
0
ARC
8
DEFAULT_255_2_778
10
20.8803945
20
82.335531
40
1.1877685
50
324.5541132
51
0.0920124
0
ARC
8
DEFAULT_255_2_778
10
20.8755737
20
82.3364298
40
1.1922189
50
275.3437996
51
324.653286
0
ARC
8
DEFAULT_255_2_778
10
20.8751297
20
82.3523996
40
1.2081611
50
269.9920236
51
275.2942295
0
ARC
8
DEFAULT_255_2_778
10
20.873073
20
82.331823
40
1.187586
50
234.5513021
51
270.0911123
0
ARC
8
DEFAULT_255_2_778
10
20.8740931
20
82.3368313
40
1.1922594
50
185.3438576
51
234.6509552
0
ARC
8
DEFAULT_255_2_778
10
20.8900226
20
82.3372703
40
1.2081611
50
179.9920236
51
185.2942295
0
LINE
8
DEFAULT_255_2_778
10
19.6818615
20
82.3374385
11
19.6818615
21
82.3374385
0
ARC
8
DEFAULT_255_2_778
10
20.8777822
20
82.340345
40
3.9026419
50
164.1729905
51
180.0482546
0
ARC
8
DEFAULT_255_2_778
10
20.8708546
20
82.3372464
40
3.8968249
50
135.0809907
51
164.1013772
0
ARC
8
DEFAULT_255_2_778
10
20.8751185
20
82.3410266
40
3.8971789
50
105.9433472
51
135.1646088
0
ARC
8
DEFAULT_255_2_778
10
20.8718428
20
82.3345449
40
3.9025147
50
89.9515653
51
105.8709645
0
ARC
8
DEFAULT_255_2_778
10
20.8784324
20
82.3345016
40
3.9025581
50
74.1728192
51
90.0483112
0
ARC
8
DEFAULT_255_2_778
10
20.8753597
20
82.3415264
40
3.8966405
50
45.0799404
51
74.1011805
0
ARC
8
DEFAULT_255_2_778
10
20.879011
20
82.3371458
40
3.8971682
50
15.9424103
51
45.1634277
0
ARC
8
DEFAULT_255_2_778
10
20.8723481
20
82.3403602
40
3.902695
50
359.9515235
51
15.8701663
0
ARC
8
DEFAULT_255_2_778
10
20.8723039
20
82.333766
40
3.9027393
50
344.1735987
51
0.0483324
0
ARC
8
DEFAULT_255_2_778
10
20.8795115
20
82.3367751
40
3.8966287
50
315.0811194
51
344.1021273
0
ARC
8
DEFAULT_255_2_778
10
20.8752597
20
82.3330073
40
3.896983
50
285.9426029
51
315.1644862
0
ARC
8
DEFAULT_255_2_778
10
20.8784474
20
82.3397689
40
3.9026119
50
269.951469
51
285.8703368
0
ARC
8
DEFAULT_255_2_778
10
20.8718534
20
82.3399799
40
3.9028231
50
254.17377
51
270.0482758
0
ARC
8
DEFAULT_255_2_778
10
20.8748884
20
82.3328694
40
3.8968131
50
225.0821697
51
254.102324
0
ARC
8
DEFAULT_255_2_778
10
20.8709917
20
82.3370045
40
3.8969937
50
195.9435398
51
225.1656673
0
ARC
8
DEFAULT_255_2_778
10
20.8775721
20
82.3337556
40
3.9024317
50
179.9515109
51
195.871135
0
LINE
8
DEFAULT_255_2_778
10
16.9751418
20
82.3370582
11
16.9751418
21
82.3370582
0
ENDSEC
0
EOF