0
SECTION
2
HEADER
9
$MEASUREMENT
70
1
0
ENDSEC
0
SECTION
2
TABLES
0
TABLE
2
LTYPE
0
LTYPE
72
65
70
64
2
CONTINUOUS
3
______
73
0
40
0
0
ENDTAB
0
TABLE
2
LAYER
0
LAYER
2
DEFAULT_255_2_778
70
0
62
255
6
CONTINUOUS
0
ENDTAB
0
ENDSEC
0
SECTION
2
ENTITIES
0
ARC
8
DEFAULT_255_2_778
10
64.8757293
20
94.7872407
40
0.3001309
50
0.0249951
51
89.9941098
0
ARC
8
DEFAULT_255_2_778
10
64.8754504
20
5.3871811
40
0.3001098
50
315.0270485
51
0.0172913
0
ARC
8
DEFAULT_255_2_778
10
64.8758248
20
5.3869606
40
0.299689
50
269.9494094
51
315.0062795
0
LINE
8
DEFAULT_255_2_778
10
28.0883602
20
95.0870716
11
28.0883602
21
95.9871716
0
LINE
8
DEFAULT_255_2_778
10
28.0883602
20
95.9871716
11
28.8882602
21
95.9871716
0
LINE
8
DEFAULT_255_2_778
10
28.8882602
20
95.9871716
11
28.8882602
21
96.3869716
0
LINE
8
DEFAULT_255_2_778
10
28.8882602
20
96.3869716
11
29.8880602
21
96.3869716
0
LINE
8
DEFAULT_255_2_778
10
29.8880602
20
96.3869716
11
29.8880602
21
96.7870716
0
LINE
8
DEFAULT_255_2_778
10
29.8880602
20
96.7870716
11
31.0882602
21
96.7870716
0
LINE
8
DEFAULT_255_2_778
10
31.0882602
20
96.7870716
11
31.0882602
21
97.1870716
0
LINE
8
DEFAULT_255_2_778
10
31.0882602
20
97.1870716
11
32.5881602
21
97.1870716
0
LINE
8
DEFAULT_255_2_778
10
32.5881602
20
97.1870716
11
32.5881602
21
97.5871716
0
LINE
8
DEFAULT_255_2_778
10
32.5881602
20
97.5871716
11
37.5882602
21
97.5871716
0
LINE
8
DEFAULT_255_2_778
10
37.5882602
20
97.5871716
11
37.5882602
21
97.1870716
0
LINE
8
DEFAULT_255_2_778
10
37.5882602
20
97.1870716
11
39.0881602
21
97.1870716
0
LINE
8
DEFAULT_255_2_778
10
39.0881602
20
97.1870716
11
39.0881602
21
96.7870716
0
LINE
8
DEFAULT_255_2_778
10
39.0881602
20
96.7870716
11
40.2880602
21
96.7870716
0
LINE
8
DEFAULT_255_2_778
10
40.2880602
20
96.7870716
11
40.2880602
21
96.3869716
0
LINE
8
DEFAULT_255_2_778
10
40.2880602
20
96.3869716
11
41.2881602
21
96.3869716
0
LINE
8
DEFAULT_255_2_778
10
41.2881602
20
96.3869716
11
41.2881602
21
95.9871716
0
LINE
8
DEFAULT_255_2_778
10
41.2881602
20
95.9871716
11
42.0882602
21
95.9871716
0
LINE
8
DEFAULT_255_2_778
10
42.0882602
20
95.9871716
11
42.0882602
21
95.0870716
0
LINE
8
DEFAULT_255_2_778
10
35.8028602
20
97.7871716
11
35.8028602
21
97.5871716
0
LINE
8
DEFAULT_255_2_778
10
33.0329602
20
97.5871716
11
33.0329602
21
97.7871716
0
LINE
8
DEFAULT_255_2_778
10
33.0329602
20
97.7871716
11
37.1884602
21
97.7871716
0
LINE
8
DEFAULT_255_2_778
10
37.1884602
20
97.7871716
11
37.1884602
21
97.5871716
0
LINE
8
DEFAULT_255_2_778
10
7.3757602
20
82.8871716
11
8.5758602
21
82.8871716
0
LINE
8
DEFAULT_255_2_778
10
8.5758602
20
82.8871716
11
8.5758602
21
74.8871716
0
LINE
8
DEFAULT_255_2_778
10
8.5758602
20
74.8871716
11
7.3757602
21
74.8871716
0
LINE
8
DEFAULT_255_2_778
10
7.3757602
20
63.6871716
11
8.5758602
21
63.6871716
0
LINE
8
DEFAULT_255_2_778
10
8.5758602
20
63.6871716
11
8.5758602
21
55.6871716
0
LINE
8
DEFAULT_255_2_778
10
8.5758602
20
55.6871716
11
7.3757602
21
55.6871716
0
LINE
8
DEFAULT_255_2_778
10
61.1758602
20
64.0072716
11
61.1758602
21
68.0874716
0
LINE
8
DEFAULT_255_2_778
10
61.1758602
20
32.6872716
11
61.1758602
21
61.9673716
0
LINE
8
DEFAULT_255_2_778
10
65.1758602
20
68.0871716
11
65.1758602
21
70.5871716
0
LINE
8
DEFAULT_255_2_778
10
65.1758602
20
70.5871716
11
65.0258602
21
70.5871716
0
LINE
8
DEFAULT_255_2_778
10
62.0257602
20
93.0873716
11
65.1758602
21
93.0873716
0
LINE
8
DEFAULT_255_2_778
10
65.1758602
20
93.0873716
11
65.1758602
21
94.7873716
0
LINE
8
DEFAULT_255_2_778
10
62.6755602
20
32.6872716
11
65.1755602
21
32.1871716
0
LINE
8
DEFAULT_255_2_778
10
65.1755602
20
32.1871716
11
65.1755602
21
5.3872716
0
LINE
8
DEFAULT_255_2_778
10
61.1758602
20
32.6872716
11
62.6755602
21
32.6872716
0
LINE
8
DEFAULT_255_2_778
10
16.8758602
20
93.0873716
11
15.8757602
21
95.0873716
0
LINE
8
DEFAULT_255_2_778
10
30.8760602
20
95.0873716
11
29.8761602
21
93.0873716
0
LINE
8
DEFAULT_255_2_778
10
16.875917
20
95.0873675
11
16.875917
21
93.0873675
0
LINE
8
DEFAULT_255_2_778
10
16.875917
20
93.0873675
11
29.876017
21
93.0873675
0
LINE
8
DEFAULT_255_2_778
10
29.876017
20
93.0873675
11
29.876017
21
95.0873675
0
LINE
8
DEFAULT_255_2_778
10
7.375817
20
8.6874675
11
8.075917
21
7.9873675
0
LINE
8
DEFAULT_255_2_778
10
8.075917
20
7.9873675
11
8.075917
21
7.8873675
0
LINE
8
DEFAULT_255_2_778
10
11.875817
20
7.9873675
11
11.875817
21
7.8873675
0
LINE
8
DEFAULT_255_2_778
10
11.375817
20
7.9873675
11
11.375817
21
7.8873675
0
LINE
8
DEFAULT_255_2_778
10
10.375617
20
7.9873675
11
10.375617
21
7.8873675
0
LINE
8
DEFAULT_255_2_778
10
9.475817
20
7.9873675
11
9.475817
21
7.8873675
0
LINE
8
DEFAULT_255_2_778
10
14.875117
20
5.0872675
11
14.875117
21
7.9873675
0
LINE
8
DEFAULT_255_2_778
10
14.875117
20
7.9873675
11
8.075917
21
7.9873675
0
ARC
8
DEFAULT_255_2_778
10
52.1258977
20
8.2874425
40
0.2000302
50
269.9800103
51
359.9913489
0
ARC
8
DEFAULT_255_2_778
10
52.1255229
20
10.8870018
40
0.2004051
50
0.0601821
51
44.9202517
0
ARC
8
DEFAULT_255_2_778
10
52.1259173
20
10.8866067
40
0.2004058
50
45.0798527
51
89.9397812
0
ARC
8
DEFAULT_255_2_778
10
47.5264004
20
10.8857303
40
0.2012822
50
90.0775721
51
134.8169266
0
ARC
8
DEFAULT_255_2_778
10
47.5251714
20
10.8875243
40
0.1991438
50
134.9299005
51
180.0897434
0
ARC
8
DEFAULT_255_2_778
10
47.5260581
20
8.2874425
40
0.2000302
50
180.0086511
51
270.0199897
0
ARC
8
DEFAULT_255_2_778
10
47.5259222
20
89.2875066
40
0.2000942
50
179.9983456
51
269.9729934
0
ARC
8
DEFAULT_255_2_778
10
47.5265294
20
91.8872801
40
0.2007015
50
135.1552818
51
179.9907976
0
ARC
8
DEFAULT_255_2_778
10
47.5252896
20
91.887993
40
0.1993201
50
89.8452748
51
135.0492733
0
ARC
8
DEFAULT_255_2_778
10
52.1256903
20
91.8870831
40
0.2002292
50
45.0589995
51
89.9606257
0
ARC
8
DEFAULT_255_2_778
10
52.1244047
20
91.8869637
40
0.2012236
50
0.0992688
51
44.8239089
0
ARC
8
DEFAULT_255_2_778
10
52.1257256
20
89.2873147
40
0.1999024
50
269.9719992
51
0.0566416
0
ARC
8
DEFAULT_255_2_778
10
14.9254273
20
65.3373189
40
0.4999994
50
179.9892894
51
224.9924763
0
ARC
8
DEFAULT_255_2_778
10
14.9254743
20
65.337408
40
0.5000956
50
224.9958871
51
269.9946851
0
ARC
8
DEFAULT_255_2_778
10
54.425331
20
65.3374093
40
0.5000969
50
269.9996485
51
0.0003515
0
ARC
8
DEFAULT_255_2_778
10
54.425331
20
84.8374154
40
0.5000969
50
359.9996485
51
90.0003515
0
ARC
8
DEFAULT_255_2_778
10
14.9254743
20
84.8374167
40
0.5000956
50
90.0053149
51
135.0041129
0
ARC
8
DEFAULT_255_2_778
10
14.9250793
20
84.8376499
40
0.4996515
50
134.9909954
51
180.0272389
0
ARC
8
DEFAULT_255_2_778
10
34.4257366
20
44.0873196
40
1.0001912
50
0.0053149
51
45.0041129
0
ARC
8
DEFAULT_255_2_778
10
34.4257448
20
44.0873452
40
1.0001674
50
45.0034073
51
90.0009706
0
ARC
8
DEFAULT_255_2_778
10
15.4244904
20
44.0913869
40
0.9961262
50
89.92882
51
131.6565888
0
ARC
8
DEFAULT_255_2_778
10
15.4236513
20
44.0885394
40
0.9976993
50
131.5118989
51
178.2681104
0
ARC
8
DEFAULT_255_2_778
10
15.4443254
20
44.087435
40
1.0183973
50
178.2411575
51
180.0012746
0
ARC
8
DEFAULT_255_2_778
10
15.4223727
20
15.0860547
40
0.9964459
50
179.9161862
51
221.6346894
0
ARC
8
DEFAULT_255_2_778
10
15.4249415
20
15.0850172
40
0.9976798
50
221.4921479
51
268.2485153
0
ARC
8
DEFAULT_255_2_778
10
15.4260882
20
15.1064586
40
1.0191463
50
268.2209218
51
269.9797433
0
ARC
8
DEFAULT_255_2_778
10
34.4271769
20
15.0837474
40
0.9964361
50
269.9166792
51
311.6442336
0
ARC
8
DEFAULT_255_2_778
10
34.4281887
20
15.0863529
40
0.997714
50
311.501386
51
358.2693554
0
ARC
8
DEFAULT_255_2_778
10
34.4068041
20
15.0875026
40
1.0191238
50
358.2410549
51
0.0005447
0
LINE
8
DEFAULT_255_2_778
10
14.8751279
20
95.0874123
11
14.8751279
21
92.1876123
0
LINE
8
DEFAULT_255_2_778
10
14.8751279
20
92.1876123
11
8.0759279
21
92.1876123
0
LINE
8
DEFAULT_255_2_778
10
8.0759279
20
92.1876123
11
7.3758279
21
91.4875123
0
LINE
8
DEFAULT_255_2_778
10
61.3757279
20
93.0874123
11
61.3757279
21
92.6871123
0
LINE
8
DEFAULT_255_2_778
10
61.3757279
20
70.9876123
11
61.3757279
21
70.5875123
0
LINE
8
DEFAULT_255_2_778
10
52.1258279
20
11.0875123
11
47.5258279
21
11.0875123
0
LINE
8
DEFAULT_255_2_778
10
52.1258279
20
8.0874123
11
47.5258279
21
8.0874123
0
LINE
8
DEFAULT_255_2_778
10
52.3259279
20
8.2874123
11
52.3259279
21
10.8872123
0
LINE
8
DEFAULT_255_2_778
10
47.3260279
20
10.8872123
11
47.3260279
21
8.2874123
0
LINE
8
DEFAULT_255_2_778
10
47.3258279
20
89.2875123
11
47.3258279
21
91.8873123
0
LINE
8
DEFAULT_255_2_778
10
47.5258279
20
92.0873123
11
52.1258279
21
92.0873123
0
LINE
8
DEFAULT_255_2_778
10
52.3256279
20
91.8873123
11
52.3256279
21
89.2875123
0
LINE
8
DEFAULT_255_2_778
10
52.1256279
20
89.0874123
11
47.5258279
21
89.0874123
0
LINE
8
DEFAULT_255_2_778
10
31.6759279
20
8.2874123
11
31.6759279
21
10.8872123
0
LINE
8
DEFAULT_255_2_778
10
26.6758279
20
10.8872123
11
26.6758279
21
8.2874123
0
LINE
8
DEFAULT_255_2_778
10
31.6759279
20
91.8873123
11
31.6759279
21
89.2875123
0
LINE
8
DEFAULT_255_2_778
10
26.6758279
20
89.2875123
11
26.6758279
21
91.8873123
0
LINE
8
DEFAULT_255_2_778
10
65.1761279
20
68.0875123
11
61.1762279
21
68.0875123
0
LINE
8
DEFAULT_255_2_778
10
60.6258279
20
70.5872123
11
65.1759279
21
70.5872123
0
LINE
8
DEFAULT_255_2_778
10
62.4962279
20
93.0874123
11
60.5758279
21
93.0874123
0
LINE
8
DEFAULT_255_2_778
10
65.0259279
20
93.0874123
11
65.1759279
21
93.0874123
0
LINE
8
DEFAULT_255_2_778
10
14.9254279
20
64.8373123
11
54.4253279
21
64.8373123
0
LINE
8
DEFAULT_255_2_778
10
54.9254279
20
65.3374123
11
54.9254279
21
84.8374123
0
LINE
8
DEFAULT_255_2_778
10
54.4253279
20
85.3375123
11
14.9254279
21
85.3375123
0
LINE
8
DEFAULT_255_2_778
10
14.4254279
20
84.8374123
11
14.4254279
21
65.3374123
0
LINE
8
DEFAULT_255_2_778
10
34.4257279
20
45.0875123
11
15.4257279
21
45.0875123
0
LINE
8
DEFAULT_255_2_778
10
14.4259279
20
44.0874123
11
14.4259279
21
15.0875123
0
LINE
8
DEFAULT_255_2_778
10
15.4257279
20
14.0873123
11
34.4257279
21
14.0873123
0
LINE
8
DEFAULT_255_2_778
10
35.4259279
20
15.0875123
11
35.4259279
21
44.0874123
0
LINE
8
DEFAULT_255_2_778
10
55.1262279
20
28.8871123
11
56.6261279
21
28.7871123
0
LINE
8
DEFAULT_255_2_778
10
56.6261279
20
28.7871123
11
56.6261279
21
12.4874123
0
LINE
8
DEFAULT_255_2_778
10
56.6261279
20
12.4874123
11
43.0263279
21
12.4874123
0
LINE
8
DEFAULT_255_2_778
10
43.0263279
20
12.4874123
11
43.0263279
21
48.2874123
0
LINE
8
DEFAULT_255_2_778
10
43.0263279
20
48.2874123
11
56.6261279
21
48.2874123
0
LINE
8
DEFAULT_255_2_778
10
56.6261279
20
48.2874123
11
56.6261279
21
31.9872123
0
LINE
8
DEFAULT_255_2_778
10
56.6261279
20
31.9872123
11
55.1262279
21
31.8872123
0
LINE
8
DEFAULT_255_2_778
10
44.5262279
20
13.9873123
11
55.1262279
21
13.9873123
0
LINE
8
DEFAULT_255_2_778
10
55.1262279
20
13.9873123
11
55.1262279
21
30.3873123
0
LINE
8
DEFAULT_255_2_778
10
55.1262279
20
30.3873123
11
55.1262279
21
46.7872123
0
LINE
8
DEFAULT_255_2_778
10
55.1262279
20
46.7872123
11
44.5262279
21
46.7872123
0
LINE
8
DEFAULT_255_2_778
10
44.5262279
20
46.7872123
11
44.5262279
21
13.9873123
0
ARC
8
DEFAULT_255_2_778
10
14.925906
20
65.3370929
40
0.4997474
50
224.9793514
51
270.0112208
0
ARC
8
DEFAULT_255_2_778
10
14.9259995
20
65.3374918
40
0.5000956
50
180.0053149
51
225.0041129
0
ARC
8
DEFAULT_255_2_778
10
54.4261069
20
65.3374424
40
0.5000969
50
269.9996485
51
0.0003515
0
ARC
8
DEFAULT_255_2_778
10
60.6259481
20
92.8859895
40
0.2014563
50
90.0979236
51
134.7965447
0
ARC
8
DEFAULT_255_2_778
10
60.6250159
20
92.8879454
40
0.1994127
50
135.0024479
51
180.1436459
0
ARC
8
DEFAULT_255_2_778
10
60.6255061
20
70.7871478
40
0.1999024
50
179.9433584
51
270.0280008
0
LINE
8
DEFAULT_255_2_778
10
14.4259038
20
65.3374454
11
14.4262038
21
84.8374454
0
LINE
8
DEFAULT_255_2_778
10
54.9262038
20
65.3374454
11
54.9262038
21
84.8374454
0
LINE
8
DEFAULT_255_2_778
10
61.6760038
20
92.9874454
11
65.1759038
21
92.9874454
0
LINE
8
DEFAULT_255_2_778
10
65.1759038
20
92.9874454
11
65.1759038
21
81.8373454
0
LINE
8
DEFAULT_255_2_778
10
65.1759038
20
81.8373454
11
65.1759038
21
70.6872454
0
LINE
8
DEFAULT_255_2_778
10
65.1759038
20
70.6872454
11
61.6760038
21
70.6872454
0
LINE
8
DEFAULT_255_2_778
10
61.6760038
20
70.6872454
11
60.6759038
21
71.6871454
0
LINE
8
DEFAULT_255_2_778
10
60.6759038
20
71.6871454
11
60.6759038
21
81.5873454
0
LINE
8
DEFAULT_255_2_778
10
60.6759038
20
81.5873454
11
63.5249038
21
81.5873454
0
LINE
8
DEFAULT_255_2_778
10
63.5249038
20
81.5873454
11
63.5249038
21
82.0873454
0
LINE
8
DEFAULT_255_2_778
10
63.5249038
20
82.0873454
11
60.6759038
21
82.0873454
0
LINE
8
DEFAULT_255_2_778
10
60.6759038
20
82.0873454
11
60.6759038
21
91.9873454
0
LINE
8
DEFAULT_255_2_778
10
62.5256038
20
82.0873454
11
62.5256038
21
81.5873454
0
LINE
8
DEFAULT_255_2_778
10
60.4256038
20
92.8874454
11
60.4256038
21
70.7873454
0
LINE
8
DEFAULT_255_2_778
10
61.3754038
20
82.0873454
11
61.3754038
21
81.5873454
0
LINE
8
DEFAULT_255_2_778
10
60.6758834
20
91.9870164
11
61.6759834
21
92.9869164
0
LINE
8
DEFAULT_255_2_778
10
65.0258834
20
93.0874164
11
65.0258834
21
92.9874164
0
LINE
8
DEFAULT_255_2_778
10
65.0258834
20
70.6872164
11
65.0258834
21
70.5872164
0
LINE
8
DEFAULT_255_2_778
10
65.1758834
20
1.7874164
11
61.2759834
21
1.7874164
0
LINE
8
DEFAULT_255_2_778
10
65.1759073
20
4.837259
11
63.1759073
21
4.837259
0
LINE
8
DEFAULT_255_2_778
10
63.1759073
20
4.837259
11
63.1759073
21
5.087259
0
LINE
8
DEFAULT_255_2_778
10
65.1759073
20
31.187359
11
65.1759073
21
30.930459
0
LINE
8
DEFAULT_255_2_778
10
61.2759394
20
5.0875018
11
61.2759394
21
-0.2125982
0
LINE
8
DEFAULT_255_2_778
10
61.2759394
20
-0.2125982
11
65.1758394
21
-0.2125982
0
LINE
8
DEFAULT_255_2_778
10
65.1758394
20
-0.2125982
11
65.1758394
21
31.6371018
0
LINE
8
DEFAULT_255_2_778
10
64.8009394
20
32.2621018
11
63.3761394
21
34.6370018
0
LINE
8
DEFAULT_255_2_778
10
63.3761394
20
34.6370018
11
62.3760394
21
34.6370018
0
LINE
8
DEFAULT_255_2_778
10
62.3760394
20
34.6370018
11
62.1987394
21
32.6873018
0
LINE
8
DEFAULT_255_2_778
10
13.3760394
20
95.0874018
11
13.3760394
21
92.2873018
0
LINE
8
DEFAULT_255_2_778
10
0.1759394
20
94.9400018
11
0.1759394
21
5.0873018
0
LINE
8
DEFAULT_255_2_778
10
0.1759394
20
5.0873018
11
64.8758394
21
5.0873018
0
ARC
8
DEFAULT_255_2_778
10
5.8758839
20
91.7873012
40
0.4999902
50
89.9988868
51
180.0011189
0
ARC
8
DEFAULT_255_2_778
10
5.8759052
20
91.787203
40
0.5000116
50
179.9898688
51
269.9986732
0
ARC
8
DEFAULT_255_2_778
10
5.8759052
20
8.3871798
40
0.5000116
50
90.0013268
51
180.0101312
0
ARC
8
DEFAULT_255_2_778
10
5.875884
20
8.3870818
40
0.4999904
50
179.9988949
51
270.0010993
0
ARC
8
DEFAULT_255_2_778
10
0.3272847
20
94.9369249
40
0.1512919
50
135.220821
51
179.8233194
0
ARC
8
DEFAULT_255_2_778
10
0.32646
20
94.9360994
40
0.1512926
50
90.1766307
51
134.7789117
0
LINE
8
DEFAULT_255_2_778
10
5.8761936
20
8.8874914
11
7.3760936
21
8.8874914
0
LINE
8
DEFAULT_255_2_778
10
13.3760936
20
7.8873914
11
13.3760936
21
5.0872914
0
LINE
8
DEFAULT_255_2_778
10
7.3760936
20
7.8873914
11
7.3760936
21
91.2871914
0
LINE
8
DEFAULT_255_2_778
10
13.3778936
20
92.2872914
11
5.8758936
21
92.2872914
0
LINE
8
DEFAULT_255_2_778
10
5.8758936
20
91.2871914
11
7.3757936
21
91.2871914
0
LINE
8
DEFAULT_255_2_778
10
5.8758936
20
7.8870914
11
13.3778936
21
7.8870914
0
LINE
8
DEFAULT_255_2_778
10
0.3259936
20
95.0873914
11
64.8763936
21
95.0873914
0
LINE
8
DEFAULT_255_2_778
10
28.0884936
20
5.0872914
11
28.0884936
21
4.1873914
0
LINE
8
DEFAULT_255_2_778
10
28.0884936
20
4.1873914
11
28.8882936
21
4.1873914
0
LINE
8
DEFAULT_255_2_778
10
28.8882936
20
4.1873914
11
28.8882936
21
3.7873914
0
LINE
8
DEFAULT_255_2_778
10
28.8882936
20
3.7873914
11
29.8881936
21
3.7873914
0
LINE
8
DEFAULT_255_2_778
10
29.8881936
20
3.7873914
11
29.8881936
21
3.3872914
0
LINE
8
DEFAULT_255_2_778
10
29.8881936
20
3.3872914
11
31.0882936
21
3.3872914
0
LINE
8
DEFAULT_255_2_778
10
31.0882936
20
3.3872914
11
31.0882936
21
2.9872914
0
LINE
8
DEFAULT_255_2_778
10
31.0882936
20
2.9872914
11
32.5882936
21
2.9872914
0
LINE
8
DEFAULT_255_2_778
10
32.5882936
20
2.9872914
11
32.5882936
21
2.5871914
0
LINE
8
DEFAULT_255_2_778
10
32.5882936
20
2.5871914
11
37.5882936
21
2.5871914
0
LINE
8
DEFAULT_255_2_778
10
37.5882936
20
2.5871914
11
37.5882936
21
2.9872914
0
LINE
8
DEFAULT_255_2_778
10
37.5882936
20
2.9872914
11
39.0882936
21
2.9872914
0
LINE
8
DEFAULT_255_2_778
10
39.0882936
20
2.9872914
11
39.0882936
21
3.3872914
0
LINE
8
DEFAULT_255_2_778
10
39.0882936
20
3.3872914
11
40.2881936
21
3.3872914
0
LINE
8
DEFAULT_255_2_778
10
40.2881936
20
3.3872914
11
40.2881936
21
3.7873914
0
LINE
8
DEFAULT_255_2_778
10
40.2881936
20
3.7873914
11
41.2882936
21
3.7873914
0
LINE
8
DEFAULT_255_2_778
10
41.2882936
20
3.7873914
11
41.2882936
21
4.1873914
0
LINE
8
DEFAULT_255_2_778
10
41.2882936
20
4.1873914
11
42.0883936
21
4.1873914
0
LINE
8
DEFAULT_255_2_778
10
42.0883936
20
4.1873914
11
42.0883936
21
5.0872914
0
LINE
8
DEFAULT_255_2_778
10
37.1884503
20
2.3872661
11
33.0329503
21
2.3872661
0
LINE
8
DEFAULT_255_2_778
10
33.0329503
20
2.3872661
11
33.0329503
21
2.5872661
0
LINE
8
DEFAULT_255_2_778
10
35.8028503
20
2.3872661
11
35.8028503
21
2.5872661
0
LINE
8
DEFAULT_255_2_778
10
37.1884503
20
2.3872661
11
37.1884503
21
2.5872661
0
LINE
8
DEFAULT_255_2_778
10
45.7260503
20
42.8872661
11
46.9759503
21
42.8872661
0
LINE
8
DEFAULT_255_2_778
10
52.6758503
20
42.8872661
11
53.9257503
21
42.8872661
0
LINE
8
DEFAULT_255_2_778
10
51.4759503
20
45.7873661
11
51.4759503
21
44.1374661
0
LINE
8
DEFAULT_255_2_778
10
51.4759503
20
44.1374661
11
48.1758503
21
44.1374661
0
LINE
8
DEFAULT_255_2_778
10
48.1758503
20
44.1374661
11
48.1758503
21
45.7873661
0
LINE
8
DEFAULT_255_2_778
10
48.1758503
20
45.7873661
11
51.4759503
21
45.7873661
0
LINE
8
DEFAULT_255_2_778
10
52.6758503
20
42.2871661
11
54.0260503
21
42.2871661
0
LINE
8
DEFAULT_255_2_778
10
54.0260503
20
42.2871661
11
54.0260503
21
18.4871661
0
LINE
8
DEFAULT_255_2_778
10
54.0260503
20
18.4871661
11
52.6758503
21
18.4871661
0
LINE
8
DEFAULT_255_2_778
10
52.6758503
20
18.4871661
11
52.6758503
21
43.3870661
0
LINE
8
DEFAULT_255_2_778
10
52.6758503
20
43.3870661
11
46.9759503
21
43.3870661
0
LINE
8
DEFAULT_255_2_778
10
46.9759503
20
43.3870661
11
46.9759503
21
17.3872661
0
LINE
8
DEFAULT_255_2_778
10
46.9759503
20
18.4871661
11
45.6257503
21
18.4871661
0
LINE
8
DEFAULT_255_2_778
10
45.6257503
20
18.4871661
11
45.6257503
21
42.2871661
0
LINE
8
DEFAULT_255_2_778
10
45.6257503
20
42.2871661
11
46.9759503
21
42.2871661
0
LINE
8
DEFAULT_255_2_778
10
48.1758503
20
15.1872661
11
45.7260503
21
15.1872661
0
LINE
8
DEFAULT_255_2_778
10
45.7260503
20
15.1872661
11
45.7260503
21
17.8873661
0
LINE
8
DEFAULT_255_2_778
10
45.7260503
20
17.8873661
11
46.9762503
21
17.8873661
0
LINE
8
DEFAULT_255_2_778
10
45.7260491
20
42.8872475
11
45.7260491
21
45.5873475
0
LINE
8
DEFAULT_255_2_778
10
45.7260491
20
45.5873475
11
48.1758491
21
45.5873475
0
LINE
8
DEFAULT_255_2_778
10
51.4759491
20
45.5873475
11
53.9257491
21
45.5873475
0
LINE
8
DEFAULT_255_2_778
10
53.9257491
20
45.5873475
11
53.9257491
21
42.8872475
0
LINE
8
DEFAULT_255_2_778
10
52.6758491
20
17.8873475
11
53.9257491
21
17.8873475
0
LINE
8
DEFAULT_255_2_778
10
53.9257491
20
17.8873475
11
53.9257491
21
15.1872475
0
LINE
8
DEFAULT_255_2_778
10
53.9257491
20
15.1872475
11
51.4759491
21
15.1872475
0
ARC
8
DEFAULT_255_2_778
10
26.8756631
20
89.2873065
40
0.1998171
50
179.947541
51
270.052459
0
ARC
8
DEFAULT_255_2_778
10
31.4760437
20
89.2873918
40
0.1999024
50
269.9433584
51
0.0280008
0
ARC
8
DEFAULT_255_2_778
10
31.4747235
20
91.8872413
40
0.2012229
50
0.0991459
51
44.823952
0
ARC
8
DEFAULT_255_2_778
10
31.4763844
20
91.8882701
40
0.1993201
50
44.9507267
51
90.1547252
0
ARC
8
DEFAULT_255_2_778
10
26.8760562
20
91.8871853
40
0.2004042
50
90.0600753
51
134.9203504
0
ARC
8
DEFAULT_255_2_778
10
26.8772678
20
91.8872416
40
0.201222
50
135.1759492
51
179.9009609
0
ARC
8
DEFAULT_255_2_778
10
31.4754161
20
10.8870516
40
0.2002301
50
0.0394519
51
44.9408817
0
ARC
8
DEFAULT_255_2_778
10
31.4752983
20
10.8857677
40
0.201222
50
45.1759492
51
89.9009609
0
ARC
8
DEFAULT_255_2_778
10
26.8757596
20
10.886818
40
0.2001716
50
90.0611212
51
134.9477917
0
ARC
8
DEFAULT_255_2_778
10
26.8756546
20
10.8872261
40
0.1998084
50
135.0091508
51
180.0105176
0
ARC
8
DEFAULT_255_2_778
10
26.8756631
20
8.2875065
40
0.1998171
50
179.947541
51
270.052459
0
ARC
8
DEFAULT_255_2_778
10
31.4760437
20
8.2875918
40
0.1999024
50
269.9433584
51
0.0280008
0
ARC
8
DEFAULT_255_2_778
10
60.0787213
20
62.9861899
40
1.497283
50
317.1225305
51
336.8868409
0
ARC
8
DEFAULT_255_2_778
10
60.074351
20
62.9866787
40
1.5014951
50
336.935148
51
0.0213962
0
ARC
8
DEFAULT_255_2_778
10
60.0777043
20
62.9883346
40
1.4981422
50
359.9581175
51
31.1249327
0
ARC
8
DEFAULT_255_2_778
10
60.0728407
20
62.9837798
40
1.5046608
50
31.1776728
51
42.8509291
0
ARC
8
DEFAULT_255_2_778
10
34.1783276
20
50.0908592
40
2.0023845
50
156.5733489
51
180.0992821
0
ARC
8
DEFAULT_255_2_778
10
34.1711496
20
50.0918062
40
1.9954226
50
100.1929838
51
156.5163563
0
ARC
8
DEFAULT_255_2_778
10
34.1749255
20
50.0595858
40
2.0278038
50
89.9711642
51
100.1368845
0
ARC
8
DEFAULT_255_2_778
10
34.1794158
20
50.085008
40
2.0023845
50
66.5733489
51
90.0992821
0
ARC
8
DEFAULT_255_2_778
10
34.1803628
20
50.092186
40
1.9954226
50
10.1929838
51
66.5163563
0
ARC
8
DEFAULT_255_2_778
10
34.1481425
20
50.08841
40
2.0278038
50
359.9711642
51
10.1368845
0
ARC
8
DEFAULT_255_2_778
10
34.1735646
20
50.0839197
40
2.0023845
50
336.5733489
51
0.0992821
0
ARC
8
DEFAULT_255_2_778
10
34.1807426
20
50.0829727
40
1.9954226
50
280.1929838
51
336.5163563
0
ARC
8
DEFAULT_255_2_778
10
34.1769667
20
50.1151931
40
2.0278038
50
269.9711642
51
280.1368845
0
ARC
8
DEFAULT_255_2_778
10
34.1724764
20
50.0897709
40
2.0023845
50
246.5733489
51
270.0992821
0
ARC
8
DEFAULT_255_2_778
10
34.1715294
20
50.0825929
40
1.9954226
50
190.1929838
51
246.5163563
0
ARC
8
DEFAULT_255_2_778
10
34.2037497
20
50.0863689
40
2.0278038
50
179.9711642
51
190.1368845
0
ARC
8
DEFAULT_255_2_778
10
14.9261482
20
84.837542
40
0.4997474
50
89.9887792
51
135.0206486
0
ARC
8
DEFAULT_255_2_778
10
14.9260675
20
84.8372152
40
0.4999214
50
134.9876146
51
180.0029556
0
ARC
8
DEFAULT_255_2_778
10
54.4260706
20
84.837214
40
0.5000755
50
359.9971846
51
89.9913517
0
LINE
8
DEFAULT_255_2_778
10
52.6759461
20
18.4873895
11
52.6759461
21
17.3874895
0
LINE
8
DEFAULT_255_2_778
10
52.6759461
20
17.3874895
11
46.9759461
21
17.3874895
0
LINE
8
DEFAULT_255_2_778
10
46.9759461
20
17.3874895
11
46.9759461
21
18.4873895
0
LINE
8
DEFAULT_255_2_778
10
51.4760461
20
16.6373895
11
51.4760461
21
14.9874895
0
LINE
8
DEFAULT_255_2_778
10
51.4760461
20
14.9874895
11
48.1758461
21
14.9874895
0
LINE
8
DEFAULT_255_2_778
10
48.1758461
20
14.9874895
11
48.1758461
21
16.6373895
0
LINE
8
DEFAULT_255_2_778
10
48.1758461
20
16.6373895
11
51.4760461
21
16.6373895
0
LINE
8
DEFAULT_255_2_778
10
31.4758461
20
89.0874895
11
26.8758461
21
89.0874895
0
LINE
8
DEFAULT_255_2_778
10
31.4758461
20
92.0875895
11
26.8758461
21
92.0875895
0
LINE
8
DEFAULT_255_2_778
10
31.4758461
20
11.0874895
11
26.8758461
21
11.0874895
0
LINE
8
DEFAULT_255_2_778
10
31.4758461
20
8.0873895
11
26.8758461
21
8.0873895
0
LINE
8
DEFAULT_255_2_778
10
32.1759461
20
50.0873895
11
32.1759461
21
50.0873895
0
ENDSEC
0
EOF