0
SECTION
2
HEADER
9
$MEASUREMENT
70
1
0
ENDSEC
0
SECTION
2
TABLES
0
TABLE
2
LTYPE
0
LTYPE
72
65
70
64
2
CONTINUOUS
3
______
73
0
40
0
0
ENDTAB
0
TABLE
2
LAYER
0
LAYER
2
DEFAULT_255_2_778
70
0
62
255
6
CONTINUOUS
0
ENDTAB
0
ENDSEC
0
SECTION
2
ENTITIES
0
LINE
8
DEFAULT_255_2_778
10
0.4687428
20
94.7873904
11
0.4687428
21
5.3872904
0
LINE
8
DEFAULT_255_2_778
10
4.0186428
20
2.5872904
11
4.0186428
21
1.7873904
0
LINE
8
DEFAULT_255_2_778
10
0.4718938
20
92.9873705
11
0.1686938
21
92.9873705
0
LINE
8
DEFAULT_255_2_778
10
0.1686938
20
92.9873705
11
0.1686938
21
82.0873705
0
LINE
8
DEFAULT_255_2_778
10
0.1686938
20
82.0873705
11
0.4686938
21
82.0873705
0
LINE
8
DEFAULT_255_2_778
10
0.4718938
20
70.6872705
11
0.1686938
21
70.6872705
0
LINE
8
DEFAULT_255_2_778
10
0.1686938
20
70.6872705
11
0.1686938
21
81.5872705
0
LINE
8
DEFAULT_255_2_778
10
0.1686938
20
81.5872705
11
0.4686938
21
81.5872705
0
LINE
8
DEFAULT_255_2_778
10
0.3173502
20
70.687271
11
0.4686502
21
71.117971
0
LINE
8
DEFAULT_255_2_778
10
0.3448502
20
82.087371
11
0.3448502
21
81.587271
0
LINE
8
DEFAULT_255_2_778
10
17.0686502
20
39.512171
11
4.6686502
21
39.512171
0
LINE
8
DEFAULT_255_2_778
10
4.6686502
20
39.512171
11
4.6686502
21
15.862471
0
LINE
8
DEFAULT_255_2_778
10
4.6686502
20
15.862471
11
17.0686502
21
15.862471
0
LINE
8
DEFAULT_255_2_778
10
17.0686502
20
39.5122446
11
17.0686502
21
15.8624446
0
LINE
8
DEFAULT_255_2_778
10
13.9687502
20
47.7873446
11
14.9689502
21
47.7873446
0
LINE
8
DEFAULT_255_2_778
10
13.9687502
20
7.5873446
11
14.9689502
21
7.5873446
0
LINE
8
DEFAULT_255_2_778
10
0.3173502
20
92.9874446
11
0.4686502
21
92.5567446
0
LINE
8
DEFAULT_255_2_778
10
13.9685502
20
51.3872446
11
6.5686502
21
51.3872446
0
LINE
8
DEFAULT_255_2_778
10
6.5686502
20
51.3872446
11
6.5686502
21
63.5872446
0
LINE
8
DEFAULT_255_2_778
10
6.5686502
20
63.5872446
11
13.9685502
21
63.5872446
0
LINE
8
DEFAULT_255_2_778
10
13.9685502
20
63.5872446
11
13.9685502
21
51.3872446
0
LINE
8
DEFAULT_255_2_778
10
5.7688502
20
45.0126446
11
5.7688502
21
39.5125446
0
LINE
8
DEFAULT_255_2_778
10
5.7688502
20
15.8624446
11
5.7688502
21
10.3625446
0
LINE
8
DEFAULT_255_2_778
10
4.5686502
20
51.4473446
11
4.5686502
21
63.5274446
0
ARC
8
DEFAULT_255_2_778
10
20.1687328
20
94.7875264
40
0.3001081
50
359.9825861
51
44.9730961
0
ARC
8
DEFAULT_255_2_778
10
20.1689315
20
94.7873254
40
0.3001097
50
45.0270485
51
90.0172913
0
ARC
8
DEFAULT_255_2_778
10
0.7686502
20
94.7873256
40
0.3001096
50
89.9826815
51
134.972961
0
ARC
8
DEFAULT_255_2_778
10
0.7688501
20
94.787526
40
0.3001091
50
135.0269926
51
180.0173348
0
LINE
8
DEFAULT_255_2_778
10
13.9688409
20
63.5872352
11
13.9688409
21
51.4473352
0
LINE
8
DEFAULT_255_2_778
10
20.1688409
20
95.0874352
11
0.7687409
21
95.0874352
0
LINE
8
DEFAULT_255_2_778
10
0.7687409
20
5.0875352
11
20.1688409
21
5.0875352
0
ARC
8
DEFAULT_255_2_778
10
19.9800718
20
5.3874282
40
0.3001094
50
270.0208901
51
359.9791099
0
ARC
8
DEFAULT_255_2_778
10
10.9696742
20
41.7158377
40
1.9009583
50
155.7782619
51
180.1016559
0
ARC
8
DEFAULT_255_2_778
10
10.9644859
20
41.7163148
40
1.8960318
50
100.0791624
51
155.727085
0
ARC
8
DEFAULT_255_2_778
10
10.9677756
20
41.6866294
40
1.9258358
50
89.9719337
51
100.0209591
0
ARC
8
DEFAULT_255_2_778
10
10.9720917
20
41.7115097
40
1.9009583
50
65.7782619
51
90.1016559
0
ARC
8
DEFAULT_255_2_778
10
10.9725687
20
41.716698
40
1.8960318
50
10.0791624
51
65.727085
0
ARC
8
DEFAULT_255_2_778
10
10.9428833
20
41.7134084
40
1.9258358
50
359.9719337
51
10.0209591
0
ARC
8
DEFAULT_255_2_778
10
10.9677636
20
41.7090923
40
1.9009583
50
335.7782619
51
0.1016559
0
ARC
8
DEFAULT_255_2_778
10
10.9729519
20
41.7086152
40
1.8960318
50
280.0791624
51
335.727085
0
ARC
8
DEFAULT_255_2_778
10
10.9696623
20
41.7383006
40
1.9258358
50
269.9719337
51
280.0209591
0
ARC
8
DEFAULT_255_2_778
10
10.9653462
20
41.7134203
40
1.9009583
50
245.7782619
51
270.1016559
0
ARC
8
DEFAULT_255_2_778
10
10.9648691
20
41.708232
40
1.8960318
50
190.0791624
51
245.727085
0
ARC
8
DEFAULT_255_2_778
10
10.9945545
20
41.7115216
40
1.9258358
50
179.9719337
51
190.0209591
0
ARC
8
DEFAULT_255_2_778
10
10.9696742
20
13.6657377
40
1.9009583
50
155.7782619
51
180.1016559
0
ARC
8
DEFAULT_255_2_778
10
10.9644859
20
13.6662148
40
1.8960318
50
100.0791624
51
155.727085
0
ARC
8
DEFAULT_255_2_778
10
10.9677756
20
13.6365294
40
1.9258358
50
89.9719337
51
100.0209591
0
ARC
8
DEFAULT_255_2_778
10
10.9720917
20
13.6614097
40
1.9009583
50
65.7782619
51
90.1016559
0
ARC
8
DEFAULT_255_2_778
10
10.9725687
20
13.666598
40
1.8960318
50
10.0791624
51
65.727085
0
ARC
8
DEFAULT_255_2_778
10
10.9428833
20
13.6633084
40
1.9258358
50
359.9719337
51
10.0209591
0
ARC
8
DEFAULT_255_2_778
10
10.9677636
20
13.6589923
40
1.9009583
50
335.7782619
51
0.1016559
0
ARC
8
DEFAULT_255_2_778
10
10.9729519
20
13.6585152
40
1.8960318
50
280.0791624
51
335.727085
0
ARC
8
DEFAULT_255_2_778
10
10.9696623
20
13.6882006
40
1.9258358
50
269.9719337
51
280.0209591
0
ARC
8
DEFAULT_255_2_778
10
10.9653462
20
13.6633203
40
1.9009583
50
245.7782619
51
270.1016559
0
ARC
8
DEFAULT_255_2_778
10
10.9648691
20
13.658132
40
1.8960318
50
190.0791624
51
245.727085
0
ARC
8
DEFAULT_255_2_778
10
10.9945545
20
13.6614216
40
1.9258358
50
179.9719337
51
190.0209591
0
ARC
8
DEFAULT_255_2_778
10
0.7688283
20
5.3873744
40
0.3001094
50
180.0208901
51
269.9791099
0
ARC
8
DEFAULT_255_2_778
10
10.4678304
20
50.0883535
40
0.4990127
50
89.8750162
51
180.1249781
0
ARC
8
DEFAULT_255_2_778
10
10.4700076
20
50.0883536
40
0.4990126
50
359.8750082
51
90.1249976
0
ARC
8
DEFAULT_255_2_778
10
10.4700288
20
50.0862549
40
0.4989912
50
269.8725621
51
0.1159799
0
ARC
8
DEFAULT_255_2_778
10
10.4678091
20
50.0862549
40
0.4989912
50
179.8840201
51
270.1274379
0
ARC
8
DEFAULT_255_2_778
10
6.1689637
20
6.1207204
40
0.3333554
50
269.9923077
51
359.9904715
0
ARC
8
DEFAULT_255_2_778
10
6.1689636
20
9.4539097
40
0.3333554
50
0.0095077
51
90.0076715
0
LINE
8
DEFAULT_255_2_778
10
9.0687189
20
41.712465
11
9.0687189
21
41.712465
0
LINE
8
DEFAULT_255_2_778
10
9.0687189
20
13.662365
11
9.0687189
21
13.662365
0
LINE
8
DEFAULT_255_2_778
10
9.9688189
20
50.087265
11
9.9688189
21
50.087265
0
LINE
8
DEFAULT_255_2_778
10
6.1689189
20
9.787565
11
2.1689189
21
9.787565
0
LINE
8
DEFAULT_255_2_778
10
2.1689189
20
5.787365
11
6.1689189
21
5.787365
0
LINE
8
DEFAULT_255_2_778
10
1.8355189
20
9.454165
11
1.8355189
21
6.120965
0
LINE
8
DEFAULT_255_2_778
10
6.5023189
20
6.120665
11
6.5023189
21
9.453965
0
LINE
8
DEFAULT_255_2_778
10
12.0188189
20
30.992365
11
12.0188189
21
28.192265
0
LINE
8
DEFAULT_255_2_778
10
12.0188189
20
34.802365
11
12.0188189
21
32.002265
0
LINE
8
DEFAULT_255_2_778
10
11.2187189
20
30.992365
11
11.2187189
21
28.192265
0
LINE
8
DEFAULT_255_2_778
10
11.2187189
20
34.802365
11
11.2187189
21
32.002265
0
LINE
8
DEFAULT_255_2_778
10
12.6186073
20
28.1922427
11
10.6186073
21
28.1922427
0
LINE
8
DEFAULT_255_2_778
10
10.6186073
20
28.1922427
11
10.6186073
21
30.9923427
0
LINE
8
DEFAULT_255_2_778
10
10.6186073
20
30.9923427
11
12.6186073
21
30.9923427
0
LINE
8
DEFAULT_255_2_778
10
12.6186073
20
30.9923427
11
12.6186073
21
28.1922427
0
LINE
8
DEFAULT_255_2_778
10
12.6186073
20
32.0022427
11
10.6186073
21
32.0022427
0
LINE
8
DEFAULT_255_2_778
10
10.6186073
20
32.0022427
11
10.6186073
21
34.8023427
0
LINE
8
DEFAULT_255_2_778
10
10.6186073
20
34.8023427
11
12.6186073
21
34.8023427
0
LINE
8
DEFAULT_255_2_778
10
12.6186073
20
34.8023427
11
12.6186073
21
32.0022427
0
LINE
8
DEFAULT_255_2_778
10
12.6186073
20
20.5722427
11
10.6186073
21
20.5722427
0
LINE
8
DEFAULT_255_2_778
10
10.6186073
20
20.5722427
11
10.6186073
21
23.3723427
0
LINE
8
DEFAULT_255_2_778
10
10.6186073
20
23.3723427
11
12.6186073
21
23.3723427
0
LINE
8
DEFAULT_255_2_778
10
12.6186073
20
23.3723427
11
12.6186073
21
20.5722427
0
LINE
8
DEFAULT_255_2_778
10
12.6186073
20
24.3825426
11
10.6186073
21
24.3825426
0
LINE
8
DEFAULT_255_2_778
10
10.6186073
20
24.3825426
11
10.6186073
21
27.1823426
0
LINE
8
DEFAULT_255_2_778
10
10.6186073
20
27.1823426
11
12.6186073
21
27.1823426
0
LINE
8
DEFAULT_255_2_778
10
12.6186073
20
27.1823426
11
12.6186073
21
24.3825426
0
LINE
8
DEFAULT_255_2_778
10
12.0188073
20
23.3723426
11
12.0188073
21
20.5722426
0
LINE
8
DEFAULT_255_2_778
10
12.0188741
20
27.1822698
11
12.0188741
21
24.3824698
0
LINE
8
DEFAULT_255_2_778
10
11.2187741
20
23.3722698
11
11.2187741
21
20.5722698
0
LINE
8
DEFAULT_255_2_778
10
11.2187741
20
27.1822698
11
11.2187741
21
24.3824698
0
LINE
8
DEFAULT_255_2_778
10
2.9687741
20
97.7871698
11
2.9687741
21
97.5871698
0
LINE
8
DEFAULT_255_2_778
10
2.5686741
20
97.7871698
11
2.5686741
21
97.5871698
0
LINE
8
DEFAULT_255_2_778
10
1.0187741
20
97.1870698
11
1.0187741
21
97.5871698
0
LINE
8
DEFAULT_255_2_778
10
1.0187741
20
97.5871698
11
4.5186741
21
97.5871698
0
LINE
8
DEFAULT_255_2_778
10
4.5186741
20
97.5871698
11
4.5186741
21
97.1870698
0
LINE
8
DEFAULT_255_2_778
10
1.0187741
20
96.7870698
11
1.0187741
21
97.1870698
0
LINE
8
DEFAULT_255_2_778
10
1.0187741
20
97.1870698
11
4.5186741
21
97.1870698
0
LINE
8
DEFAULT_255_2_778
10
4.5186741
20
97.1870698
11
4.5186741
21
96.7870698
0
LINE
8
DEFAULT_255_2_778
10
1.0187741
20
96.3869698
11
1.0187741
21
96.7870698
0
LINE
8
DEFAULT_255_2_778
10
1.0187741
20
96.7870698
11
4.5186741
21
96.7870698
0
LINE
8
DEFAULT_255_2_778
10
4.5186741
20
96.7870698
11
4.5186741
21
96.3869698
0
LINE
8
DEFAULT_255_2_778
10
1.0187741
20
95.9871698
11
1.0187741
21
96.3869698
0
LINE
8
DEFAULT_255_2_778
10
1.0187741
20
96.3869698
11
4.5186741
21
96.3869698
0
LINE
8
DEFAULT_255_2_778
10
4.5186741
20
96.3869698
11
4.5186741
21
95.9871698
0
LINE
8
DEFAULT_255_2_778
10
1.0187741
20
95.0870698
11
1.0187741
21
95.9871698
0
LINE
8
DEFAULT_255_2_778
10
1.0187741
20
95.9871698
11
4.5186741
21
95.9871698
0
LINE
8
DEFAULT_255_2_778
10
4.5186741
20
95.9871698
11
4.5186741
21
95.0870698
0
LINE
8
DEFAULT_255_2_778
10
3.5685459
20
97.587208
11
3.5685459
21
97.787208
0
LINE
8
DEFAULT_255_2_778
10
3.5685459
20
97.787208
11
1.9686459
21
97.787208
0
LINE
8
DEFAULT_255_2_778
10
1.9686459
20
97.787208
11
1.9686459
21
97.587208
0
LINE
8
DEFAULT_255_2_778
10
2.5689459
20
2.387208
11
2.5689459
21
2.587208
0
LINE
8
DEFAULT_255_2_778
10
2.9687459
20
2.387208
11
2.9687459
21
2.587208
0
LINE
8
DEFAULT_255_2_778
10
4.5186459
20
5.087308
11
4.5186459
21
2.587208
0
LINE
8
DEFAULT_255_2_778
10
4.5186459
20
2.587208
11
1.0187459
21
2.587208
0
LINE
8
DEFAULT_255_2_778
10
1.0187459
20
2.587208
11
1.0187459
21
5.087308
0
ARC
8
DEFAULT_255_2_778
10
10.0117183
20
3.2846737
40
1.9927989
50
179.9263778
51
204.3121238
0
ARC
8
DEFAULT_255_2_778
10
10.0205925
20
3.2897776
40
2.0029878
50
204.3406647
51
260.1993716
0
ARC
8
DEFAULT_255_2_778
10
10.0183049
20
3.3006903
40
2.013356
50
260.3163836
51
270.017533
0
ARC
8
DEFAULT_255_2_778
10
10.0214871
20
3.2802961
40
1.9929635
50
269.9262296
51
294.3098784
0
ARC
8
DEFAULT_255_2_778
10
10.0164366
20
3.2890557
40
2.0030257
50
294.3383862
51
350.195296
0
ARC
8
DEFAULT_255_2_778
10
10.0053758
20
3.2868023
40
2.0135452
50
350.3120751
51
0.0122917
0
LINE
8
DEFAULT_255_2_778
10
4.518721
20
2.9872343
11
1.018821
21
2.9872343
0
LINE
8
DEFAULT_255_2_778
10
4.518721
20
3.3873343
11
1.018821
21
3.3873343
0
LINE
8
DEFAULT_255_2_778
10
4.518721
20
3.7873343
11
1.018821
21
3.7873343
0
LINE
8
DEFAULT_255_2_778
10
4.518721
20
4.1874343
11
1.018821
21
4.1874343
0
LINE
8
DEFAULT_255_2_778
10
1.968921
20
2.5872343
11
1.968921
21
2.3871343
0
LINE
8
DEFAULT_255_2_778
10
1.968921
20
2.3871343
11
3.568921
21
2.3871343
0
LINE
8
DEFAULT_255_2_778
10
3.568921
20
2.3871343
11
3.568921
21
2.5872343
0
LINE
8
DEFAULT_255_2_778
10
12.018921
20
3.2872343
11
14.518921
21
3.2872343
0
LINE
8
DEFAULT_255_2_778
10
14.518921
20
3.2872343
11
14.518921
21
4.2874343
0
LINE
8
DEFAULT_255_2_778
10
14.518921
20
4.2874343
11
5.518821
21
4.2874343
0
LINE
8
DEFAULT_255_2_778
10
5.518821
20
4.2874343
11
5.518821
21
3.2872343
0
LINE
8
DEFAULT_255_2_778
10
5.518821
20
3.2872343
11
8.018921
21
3.2872343
0
LINE
8
DEFAULT_255_2_778
10
16.018621
20
5.0872343
11
16.018621
21
1.7873343
0
LINE
8
DEFAULT_255_2_778
10
16.018621
20
1.7873343
11
13.518521
21
-0.2126657
0
LINE
8
DEFAULT_255_2_778
10
13.518521
20
-0.2126657
11
6.518721
21
-0.2126657
0
LINE
8
DEFAULT_255_2_778
10
6.518721
20
-0.2126657
11
4.018621
21
1.7873343
0
LINE
8
DEFAULT_255_2_778
10
6.5686386
20
60.6973427
11
8.0685386
21
60.6973427
0
LINE
8
DEFAULT_255_2_778
10
8.0685386
20
60.6973427
11
8.0685386
21
61.8972427
0
LINE
8
DEFAULT_255_2_778
10
8.0685386
20
61.8972427
11
6.5686386
21
61.8972427
0
LINE
8
DEFAULT_255_2_778
10
6.5686386
20
53.0773427
11
8.0685386
21
53.0773427
0
LINE
8
DEFAULT_255_2_778
10
8.0685386
20
53.0773427
11
8.0685386
21
54.2772427
0
LINE
8
DEFAULT_255_2_778
10
8.0685386
20
54.2772427
11
6.5686386
21
54.2772427
0
LINE
8
DEFAULT_255_2_778
10
6.5686386
20
55.6173427
11
8.0685386
21
55.6173427
0
LINE
8
DEFAULT_255_2_778
10
8.0685386
20
55.6173427
11
8.0685386
21
56.8172427
0
LINE
8
DEFAULT_255_2_778
10
8.0685386
20
56.8172427
11
6.5686386
21
56.8172427
0
LINE
8
DEFAULT_255_2_778
10
6.5686386
20
58.1573427
11
8.0685386
21
58.1573427
0
LINE
8
DEFAULT_255_2_778
10
8.0685386
20
58.1573427
11
8.0685386
21
59.3572427
0
LINE
8
DEFAULT_255_2_778
10
8.0685386
20
59.3572427
11
6.5686386
21
59.3572427
0
LINE
8
DEFAULT_255_2_778
10
6.7187439
20
39.5121353
11
6.7187439
21
39.6873353
0
LINE
8
DEFAULT_255_2_778
10
6.7187439
20
39.6873353
11
7.7188439
21
39.6873353
0
LINE
8
DEFAULT_255_2_778
10
7.7188439
20
39.6873353
11
7.7188439
21
44.3122353
0
LINE
8
DEFAULT_255_2_778
10
7.7188439
20
44.3122353
11
13.9688439
21
44.3122353
0
LINE
8
DEFAULT_255_2_778
10
13.5188439
20
44.3122353
11
13.5188439
21
39.5121353
0
LINE
8
DEFAULT_255_2_778
10
8.1689439
20
39.5121287
11
8.1689439
21
44.3122287
0
LINE
8
DEFAULT_255_2_778
10
8.1689439
20
44.3122287
11
13.5188439
21
44.3122287
0
LINE
8
DEFAULT_255_2_778
10
6.7187439
20
15.8623287
11
6.7187439
21
15.6875287
0
LINE
8
DEFAULT_255_2_778
10
6.7187439
20
15.6875287
11
7.7188439
21
15.6875287
0
LINE
8
DEFAULT_255_2_778
10
7.7188439
20
15.6875287
11
7.7188439
21
11.0625287
0
LINE
8
DEFAULT_255_2_778
10
7.7188439
20
11.0625287
11
13.9688439
21
11.0625287
0
LINE
8
DEFAULT_255_2_778
10
13.5187626
20
11.0623353
11
8.1688626
21
11.0623353
0
LINE
8
DEFAULT_255_2_778
10
8.1688626
20
11.0623353
11
8.1688626
21
15.8624353
0
LINE
8
DEFAULT_255_2_778
10
13.5187553
20
11.0624375
11
13.5187553
21
15.8624375
0
LINE
8
DEFAULT_255_2_778
10
8.6186553
20
78.7872375
11
9.9185553
21
77.7175375
0
LINE
8
DEFAULT_255_2_778
10
9.9185553
20
77.7175375
11
9.9185553
21
78.4991375
0
LINE
8
DEFAULT_255_2_778
10
8.6186553
20
78.7875375
11
9.9188553
21
79.8572375
0
LINE
8
DEFAULT_255_2_778
10
8.6186553
20
69.7874375
11
9.9185553
21
68.7177375
0
LINE
8
DEFAULT_255_2_778
10
9.9185553
20
68.7177375
11
9.9185553
21
69.4990375
0
LINE
8
DEFAULT_255_2_778
10
8.6186553
20
69.7877375
11
9.9188553
21
70.8574375
0
LINE
8
DEFAULT_255_2_778
10
9.9188553
20
70.8574375
11
9.9188553
21
70.0758375
0
LINE
8
DEFAULT_255_2_778
10
5.7688553
20
10.3625375
11
13.4687553
21
10.3625375
0
LINE
8
DEFAULT_255_2_778
10
13.4687553
20
10.3625375
11
13.4687553
21
7.0875375
0
LINE
8
DEFAULT_255_2_778
10
13.4687553
20
7.0875375
11
15.4687553
21
7.0875375
0
LINE
8
DEFAULT_255_2_778
10
15.4687553
20
7.0875375
11
15.4687553
21
15.8624375
0
ARC
8
DEFAULT_255_2_778
10
19.9805508
20
94.787259
40
0.3001085
50
45.0269503
51
90.0173976
0
ARC
8
DEFAULT_255_2_778
10
19.9803516
20
94.7874587
40
0.3001081
50
359.9825861
51
44.9730961
0
ARC
8
DEFAULT_255_2_778
10
19.9803516
20
5.3871763
40
0.3001081
50
315.0269039
51
0.0174139
0
ARC
8
DEFAULT_255_2_778
10
19.9805499
20
5.3873777
40
0.3001103
50
269.9827635
51
314.9729322
0
ARC
8
DEFAULT_255_2_778
10
2.1689147
20
6.1207226
40
0.333355
50
180.0094723
51
270.0077277
0
LINE
8
DEFAULT_255_2_778
10
13.9688596
20
7.0874675
11
13.9688596
21
15.8623675
0
LINE
8
DEFAULT_255_2_778
10
14.9686596
20
7.0874675
11
14.9686596
21
15.8623675
0
LINE
8
DEFAULT_255_2_778
10
5.7688596
20
45.0125675
11
13.4687596
21
45.0125675
0
LINE
8
DEFAULT_255_2_778
10
13.4687596
20
45.0125675
11
13.4687596
21
48.2873675
0
LINE
8
DEFAULT_255_2_778
10
13.4687596
20
48.2873675
11
15.4687596
21
48.2873675
0
LINE
8
DEFAULT_255_2_778
10
15.4687596
20
48.2873675
11
15.4687596
21
39.5121675
0
LINE
8
DEFAULT_255_2_778
10
13.9688596
20
39.5121675
11
13.9688596
21
48.2873675
0
LINE
8
DEFAULT_255_2_778
10
14.9686596
20
39.5121675
11
14.9686596
21
48.2873675
0
LINE
8
DEFAULT_255_2_778
10
20.4688596
20
5.3872675
11
20.4688596
21
94.7873675
0
LINE
8
DEFAULT_255_2_778
10
20.2804596
20
94.7873675
11
20.2804596
21
5.3872675
0
ARC
8
DEFAULT_255_2_778
10
2.168953
20
9.4538468
40
0.3334407
50
90.0069596
51
179.9930024
0
ARC
8
DEFAULT_255_2_778
10
14.6166903
20
37.2155633
40
1.4980165
50
151.5794485
51
180.1201144
0
ARC
8
DEFAULT_255_2_778
10
14.6149083
20
37.2158486
40
1.4963136
50
98.4345278
51
151.556579
0
ARC
8
DEFAULT_255_2_778
10
14.618028
20
37.188377
40
1.523946
50
89.9793545
51
98.3990533
0
ARC
8
DEFAULT_255_2_778
10
14.6216732
20
37.2144841
40
1.497842
50
61.5777617
51
90.1184315
0
ARC
8
DEFAULT_255_2_778
10
14.6218573
20
37.2159384
40
1.4964755
50
8.4395422
51
61.5574586
0
ARC
8
DEFAULT_255_2_778
10
14.5949386
20
37.2129708
40
1.5235387
50
359.9793954
51
8.4013619
0
ARC
8
DEFAULT_255_2_778
10
14.6206384
20
37.2093268
40
1.497842
50
331.5777617
51
0.1184315
0
ARC
8
DEFAULT_255_2_778
10
14.6220927
20
37.2091427
40
1.4964755
50
278.4395422
51
331.5574586
0
ARC
8
DEFAULT_255_2_778
10
14.619125
20
37.2360614
40
1.5235387
50
269.9793954
51
278.4013619
0
ARC
8
DEFAULT_255_2_778
10
14.6154811
20
37.2103616
40
1.497842
50
241.5777617
51
270.1184315
0
ARC
8
DEFAULT_255_2_778
10
14.615297
20
37.2089073
40
1.4964755
50
188.4395422
51
241.5574586
0
ARC
8
DEFAULT_255_2_778
10
14.6422157
20
37.211875
40
1.5235387
50
179.9793954
51
188.4013619
0
LINE
8
DEFAULT_255_2_778
10
13.1186771
20
37.2124229
11
13.1186771
21
37.2124229
0
ARC
8
DEFAULT_255_2_778
10
14.6166903
20
33.4055633
40
1.4980165
50
151.5794485
51
180.1201144
0
ARC
8
DEFAULT_255_2_778
10
14.6149083
20
33.4058486
40
1.4963136
50
98.4345278
51
151.556579
0
ARC
8
DEFAULT_255_2_778
10
14.618028
20
33.378377
40
1.523946
50
89.9793545
51
98.3990533
0
ARC
8
DEFAULT_255_2_778
10
14.6216732
20
33.4044841
40
1.497842
50
61.5777617
51
90.1184315
0
ARC
8
DEFAULT_255_2_778
10
14.6218573
20
33.4059384
40
1.4964755
50
8.4395422
51
61.5574586
0
ARC
8
DEFAULT_255_2_778
10
14.5949386
20
33.4029708
40
1.5235387
50
359.9793954
51
8.4013619
0
ARC
8
DEFAULT_255_2_778
10
14.6206384
20
33.3993268
40
1.497842
50
331.5777617
51
0.1184315
0
ARC
8
DEFAULT_255_2_778
10
14.6220927
20
33.3991427
40
1.4964755
50
278.4395422
51
331.5574586
0
ARC
8
DEFAULT_255_2_778
10
14.619125
20
33.4260614
40
1.5235387
50
269.9793954
51
278.4013619
0
ARC
8
DEFAULT_255_2_778
10
14.6154811
20
33.4003616
40
1.497842
50
241.5777617
51
270.1184315
0
ARC
8
DEFAULT_255_2_778
10
14.615297
20
33.3989073
40
1.4964755
50
188.4395422
51
241.5574586
0
ARC
8
DEFAULT_255_2_778
10
14.6422157
20
33.401875
40
1.5235387
50
179.9793954
51
188.4013619
0
LINE
8
DEFAULT_255_2_778
10
13.1186771
20
33.4024229
11
13.1186771
21
33.4024229
0
LINE
8
DEFAULT_255_2_778
10
12.01885
20
38.6123427
11
12.01885
21
35.8122427
0
LINE
8
DEFAULT_255_2_778
10
11.21875
20
38.6123427
11
11.21875
21
35.8122427
0
LINE
8
DEFAULT_255_2_778
10
12.6186073
20
35.8122427
11
10.6186073
21
35.8122427
0
LINE
8
DEFAULT_255_2_778
10
10.6186073
20
35.8122427
11
10.6186073
21
38.6123427
0
LINE
8
DEFAULT_255_2_778
10
10.6186073
20
38.6123427
11
12.6186073
21
38.6123427
0
LINE
8
DEFAULT_255_2_778
10
12.6186073
20
38.6123427
11
12.6186073
21
35.8122427
0
ARC
8
DEFAULT_255_2_778
10
14.6166903
20
25.7855633
40
1.4980165
50
151.5794485
51
180.1201144
0
ARC
8
DEFAULT_255_2_778
10
14.6149083
20
25.7858486
40
1.4963136
50
98.4345278
51
151.556579
0
ARC
8
DEFAULT_255_2_778
10
14.618028
20
25.758377
40
1.523946
50
89.9793545
51
98.3990533
0
ARC
8
DEFAULT_255_2_778
10
14.6216732
20
25.7844841
40
1.497842
50
61.5777617
51
90.1184315
0
ARC
8
DEFAULT_255_2_778
10
14.6218573
20
25.7859384
40
1.4964755
50
8.4395422
51
61.5574586
0
ARC
8
DEFAULT_255_2_778
10
14.5949386
20
25.7829708
40
1.5235387
50
359.9793954
51
8.4013619
0
ARC
8
DEFAULT_255_2_778
10
14.6206384
20
25.7793268
40
1.497842
50
331.5777617
51
0.1184315
0
ARC
8
DEFAULT_255_2_778
10
14.6220927
20
25.7791427
40
1.4964755
50
278.4395422
51
331.5574586
0
ARC
8
DEFAULT_255_2_778
10
14.619125
20
25.8060614
40
1.5235387
50
269.9793954
51
278.4013619
0
ARC
8
DEFAULT_255_2_778
10
14.6154811
20
25.7803616
40
1.497842
50
241.5777617
51
270.1184315
0
ARC
8
DEFAULT_255_2_778
10
14.615297
20
25.7789073
40
1.4964755
50
188.4395422
51
241.5574586
0
ARC
8
DEFAULT_255_2_778
10
14.6422157
20
25.781875
40
1.5235387
50
179.9793954
51
188.4013619
0
LINE
8
DEFAULT_255_2_778
10
13.1186771
20
25.7824229
11
13.1186771
21
25.7824229
0
ARC
8
DEFAULT_255_2_778
10
14.6166903
20
29.5955633
40
1.4980165
50
151.5794485
51
180.1201144
0
ARC
8
DEFAULT_255_2_778
10
14.6149083
20
29.5958486
40
1.4963136
50
98.4345278
51
151.556579
0
ARC
8
DEFAULT_255_2_778
10
14.618028
20
29.568377
40
1.523946
50
89.9793545
51
98.3990533
0
ARC
8
DEFAULT_255_2_778
10
14.6216732
20
29.5944841
40
1.497842
50
61.5777617
51
90.1184315
0
ARC
8
DEFAULT_255_2_778
10
14.6218573
20
29.5959384
40
1.4964755
50
8.4395422
51
61.5574586
0
ARC
8
DEFAULT_255_2_778
10
14.5949386
20
29.5929708
40
1.5235387
50
359.9793954
51
8.4013619
0
ARC
8
DEFAULT_255_2_778
10
14.6206384
20
29.5893268
40
1.497842
50
331.5777617
51
0.1184315
0
ARC
8
DEFAULT_255_2_778
10
14.6220927
20
29.5891427
40
1.4964755
50
278.4395422
51
331.5574586
0
ARC
8
DEFAULT_255_2_778
10
14.619125
20
29.6160614
40
1.5235387
50
269.9793954
51
278.4013619
0
ARC
8
DEFAULT_255_2_778
10
14.6154811
20
29.5903616
40
1.497842
50
241.5777617
51
270.1184315
0
ARC
8
DEFAULT_255_2_778
10
14.615297
20
29.5889073
40
1.4964755
50
188.4395422
51
241.5574586
0
ARC
8
DEFAULT_255_2_778
10
14.6422157
20
29.591875
40
1.5235387
50
179.9793954
51
188.4013619
0
LINE
8
DEFAULT_255_2_778
10
13.1186771
20
29.5924229
11
13.1186771
21
29.5924229
0
ARC
8
DEFAULT_255_2_778
10
14.6166903
20
18.1655633
40
1.4980165
50
151.5794485
51
180.1201144
0
ARC
8
DEFAULT_255_2_778
10
14.6149083
20
18.1658486
40
1.4963136
50
98.4345278
51
151.556579
0
ARC
8
DEFAULT_255_2_778
10
14.618028
20
18.138377
40
1.523946
50
89.9793545
51
98.3990533
0
ARC
8
DEFAULT_255_2_778
10
14.6216732
20
18.1644841
40
1.497842
50
61.5777617
51
90.1184315
0
ARC
8
DEFAULT_255_2_778
10
14.6218573
20
18.1659384
40
1.4964755
50
8.4395422
51
61.5574586
0
ARC
8
DEFAULT_255_2_778
10
14.5949386
20
18.1629708
40
1.5235387
50
359.9793954
51
8.4013619
0
ARC
8
DEFAULT_255_2_778
10
14.6206384
20
18.1593268
40
1.497842
50
331.5777617
51
0.1184315
0
ARC
8
DEFAULT_255_2_778
10
14.6220927
20
18.1591427
40
1.4964755
50
278.4395422
51
331.5574586
0
ARC
8
DEFAULT_255_2_778
10
14.619125
20
18.1860614
40
1.5235387
50
269.9793954
51
278.4013619
0
ARC
8
DEFAULT_255_2_778
10
14.6154811
20
18.1603616
40
1.497842
50
241.5777617
51
270.1184315
0
ARC
8
DEFAULT_255_2_778
10
14.615297
20
18.1589073
40
1.4964755
50
188.4395422
51
241.5574586
0
ARC
8
DEFAULT_255_2_778
10
14.6422157
20
18.161875
40
1.5235387
50
179.9793954
51
188.4013619
0
LINE
8
DEFAULT_255_2_778
10
13.1186771
20
18.1624229
11
13.1186771
21
18.1624229
0
ARC
8
DEFAULT_255_2_778
10
14.6166903
20
21.9755633
40
1.4980165
50
151.5794485
51
180.1201144
0
ARC
8
DEFAULT_255_2_778
10
14.6149083
20
21.9758486
40
1.4963136
50
98.4345278
51
151.556579
0
ARC
8
DEFAULT_255_2_778
10
14.618028
20
21.948377
40
1.523946
50
89.9793545
51
98.3990533
0
ARC
8
DEFAULT_255_2_778
10
14.6216732
20
21.9744841
40
1.497842
50
61.5777617
51
90.1184315
0
ARC
8
DEFAULT_255_2_778
10
14.6218573
20
21.9759384
40
1.4964755
50
8.4395422
51
61.5574586
0
ARC
8
DEFAULT_255_2_778
10
14.5949386
20
21.9729708
40
1.5235387
50
359.9793954
51
8.4013619
0
ARC
8
DEFAULT_255_2_778
10
14.6206384
20
21.9693268
40
1.497842
50
331.5777617
51
0.1184315
0
ARC
8
DEFAULT_255_2_778
10
14.6220927
20
21.9691427
40
1.4964755
50
278.4395422
51
331.5574586
0
ARC
8
DEFAULT_255_2_778
10
14.619125
20
21.9960614
40
1.5235387
50
269.9793954
51
278.4013619
0
ARC
8
DEFAULT_255_2_778
10
14.6154811
20
21.9703616
40
1.497842
50
241.5777617
51
270.1184315
0
ARC
8
DEFAULT_255_2_778
10
14.615297
20
21.9689073
40
1.4964755
50
188.4395422
51
241.5574586
0
ARC
8
DEFAULT_255_2_778
10
14.6422157
20
21.971875
40
1.5235387
50
179.9793954
51
188.4013619
0
LINE
8
DEFAULT_255_2_778
10
13.1186771
20
21.9724229
11
13.1186771
21
21.9724229
0
LINE
8
DEFAULT_255_2_778
10
12.01885
20
19.5623427
11
12.01885
21
16.7622427
0
LINE
8
DEFAULT_255_2_778
10
11.21875
20
19.5623427
11
11.21875
21
16.7622427
0
LINE
8
DEFAULT_255_2_778
10
12.6186073
20
16.7622427
11
10.6186073
21
16.7622427
0
LINE
8
DEFAULT_255_2_778
10
10.6186073
20
16.7622427
11
10.6186073
21
19.5623427
0
LINE
8
DEFAULT_255_2_778
10
10.6186073
20
19.5623427
11
12.6186073
21
19.5623427
0
LINE
8
DEFAULT_255_2_778
10
12.6186073
20
19.5623427
11
12.6186073
21
16.7622427
0
ARC
8
DEFAULT_255_2_778
10
9.9158967
20
78.7904955
40
1.297198
50
148.2770855
51
180.1324007
0
ARC
8
DEFAULT_255_2_778
10
9.9150449
20
78.7910122
40
1.2962017
50
97.0226393
51
148.276717
0
ARC
8
DEFAULT_255_2_778
10
9.9182539
20
78.7632442
40
1.3241537
50
89.9849309
51
97.0135513
0
ARC
8
DEFAULT_255_2_778
10
9.9215997
20
78.7902033
40
1.297198
50
58.2770855
51
90.1324007
0
ARC
8
DEFAULT_255_2_778
10
9.9221165
20
78.7910551
40
1.2962017
50
7.0226393
51
58.276717
0
ARC
8
DEFAULT_255_2_778
10
9.8943484
20
78.7878461
40
1.3241537
50
359.9849309
51
7.0135513
0
ARC
8
DEFAULT_255_2_778
10
9.9213076
20
78.7845003
40
1.297198
50
328.2770855
51
0.1324007
0
ARC
8
DEFAULT_255_2_778
10
9.9221594
20
78.7839835
40
1.2962017
50
277.0226393
51
328.276717
0
ARC
8
DEFAULT_255_2_778
10
9.9189504
20
78.8117516
40
1.3241537
50
269.9849309
51
277.0135513
0
ARC
8
DEFAULT_255_2_778
10
9.9156045
20
78.7847924
40
1.297198
50
238.2770855
51
270.1324007
0
ARC
8
DEFAULT_255_2_778
10
9.9150878
20
78.7839406
40
1.2962017
50
187.0226393
51
238.276717
0
ARC
8
DEFAULT_255_2_778
10
9.9428558
20
78.7871496
40
1.3241537
50
179.9849309
51
187.0135513
0
LINE
8
DEFAULT_255_2_778
10
8.6187021
20
78.7874979
11
8.6187021
21
78.7874979
0
ARC
8
DEFAULT_255_2_778
10
9.9373109
20
78.7912344
40
3.3185963
50
162.8527331
51
180.0659325
0
ARC
8
DEFAULT_255_2_778
10
9.91237
20
78.7937084
40
3.2940384
50
108.0986099
51
162.7659512
0
ARC
8
DEFAULT_255_2_778
10
9.9140503
20
78.7735713
40
3.3137045
50
90.5217898
51
108.0180626
0
ARC
8
DEFAULT_255_2_778
10
9.9186149
20
78.6853146
40
3.402001
50
89.9999687
51
90.5851254
0
ARC
8
DEFAULT_255_2_778
10
9.9224158
20
78.7693449
40
3.3179728
50
72.8291516
51
90.0656025
0
ARC
8
DEFAULT_255_2_778
10
9.9245976
20
78.7933377
40
3.294409
50
18.0971057
51
72.7422173
0
ARC
8
DEFAULT_255_2_778
10
9.9052185
20
78.7919674
40
3.3132584
50
0.5219318
51
18.0155319
0
ARC
8
DEFAULT_255_2_778
10
9.8185558
20
78.7874174
40
3.3999611
50
359.9999686
51
0.5853008
0
ARC
8
DEFAULT_255_2_778
10
9.8998834
20
78.7836159
40
3.3186355
50
342.8323672
51
0.065601
0
ARC
8
DEFAULT_255_2_778
10
9.9245975
20
78.7811073
40
3.2942859
50
288.0988223
51
342.7471785
0
ARC
8
DEFAULT_255_2_778
10
9.92321
20
78.8007097
40
3.313353
50
270.5394795
51
288.0163249
0
ARC
8
DEFAULT_255_2_778
10
9.9186583
20
78.8826449
40
3.3953293
50
269.9992984
51
270.6032662
0
ARC
8
DEFAULT_255_2_778
10
9.9147925
20
78.8060282
40
3.3187149
50
252.853463
51
270.0660241
0
ARC
8
DEFAULT_255_2_778
10
9.9122453
20
78.7808466
40
3.2939054
50
198.0959314
51
252.7666652
0
ARC
8
DEFAULT_255_2_778
10
9.9331072
20
78.782812
40
3.314349
50
180.5393244
51
198.0162071
0
ARC
8
DEFAULT_255_2_778
10
10.023308
20
78.7874309
40
3.4045914
50
180.0002586
51
180.6027645
0
LINE
8
DEFAULT_255_2_778
10
6.6187168
20
78.7874155
11
6.6187168
21
78.7874155
0
LINE
8
DEFAULT_255_2_778
10
9.9185261
20
78.4986177
11
11.1864261
21
78.5007177
0
LINE
8
DEFAULT_255_2_778
10
9.9188261
20
79.0764177
11
11.1866261
21
79.0743177
0
LINE
8
DEFAULT_255_2_778
10
9.9185261
20
79.8572177
11
9.9185261
21
79.0756177
0
ARC
8
DEFAULT_255_2_778
10
9.9158967
20
69.7903955
40
1.297198
50
148.2770855
51
180.1324007
0
ARC
8
DEFAULT_255_2_778
10
9.9150449
20
69.7909122
40
1.2962017
50
97.0226393
51
148.276717
0
ARC
8
DEFAULT_255_2_778
10
9.9182539
20
69.7631442
40
1.3241537
50
89.9849309
51
97.0135513
0
ARC
8
DEFAULT_255_2_778
10
9.9215997
20
69.7901033
40
1.297198
50
58.2770855
51
90.1324007
0
ARC
8
DEFAULT_255_2_778
10
9.9221165
20
69.7909551
40
1.2962017
50
7.0226393
51
58.276717
0
ARC
8
DEFAULT_255_2_778
10
9.8943484
20
69.7877461
40
1.3241537
50
359.9849309
51
7.0135513
0
ARC
8
DEFAULT_255_2_778
10
9.9213076
20
69.7844003
40
1.297198
50
328.2770855
51
0.1324007
0
ARC
8
DEFAULT_255_2_778
10
9.9221594
20
69.7838835
40
1.2962017
50
277.0226393
51
328.276717
0
ARC
8
DEFAULT_255_2_778
10
9.9189504
20
69.8116516
40
1.3241537
50
269.9849309
51
277.0135513
0
ARC
8
DEFAULT_255_2_778
10
9.9156045
20
69.7846924
40
1.297198
50
238.2770855
51
270.1324007
0
ARC
8
DEFAULT_255_2_778
10
9.9150878
20
69.7838406
40
1.2962017
50
187.0226393
51
238.276717
0
ARC
8
DEFAULT_255_2_778
10
9.9428558
20
69.7870496
40
1.3241537
50
179.9849309
51
187.0135513
0
LINE
8
DEFAULT_255_2_778
10
8.6187021
20
69.7873979
11
8.6187021
21
69.7873979
0
ARC
8
DEFAULT_255_2_778
10
9.9373109
20
69.7912021
40
3.3185963
50
162.8527331
51
180.0659325
0
ARC
8
DEFAULT_255_2_778
10
9.91237
20
69.7936761
40
3.2940384
50
108.0986099
51
162.7659512
0
ARC
8
DEFAULT_255_2_778
10
9.9140503
20
69.773539
40
3.3137045
50
90.5217898
51
108.0180626
0
ARC
8
DEFAULT_255_2_778
10
9.9186149
20
69.6852823
40
3.402001
50
89.9999687
51
90.5851254
0
ARC
8
DEFAULT_255_2_778
10
9.9224158
20
69.7693126
40
3.3179728
50
72.8291516
51
90.0656025
0
ARC
8
DEFAULT_255_2_778
10
9.9245976
20
69.7933054
40
3.294409
50
18.0971057
51
72.7422173
0
ARC
8
DEFAULT_255_2_778
10
9.9052185
20
69.7919351
40
3.3132584
50
0.5219318
51
18.0155319
0
ARC
8
DEFAULT_255_2_778
10
9.8185558
20
69.7873851
40
3.3999611
50
359.9999686
51
0.5853008
0
ARC
8
DEFAULT_255_2_778
10
9.9005462
20
69.7835842
40
3.3179728
50
342.8291516
51
0.0656025
0
ARC
8
DEFAULT_255_2_778
10
9.9245389
20
69.7814024
40
3.294409
50
288.0971057
51
342.7422173
0
ARC
8
DEFAULT_255_2_778
10
9.9231686
20
69.8007815
40
3.3132584
50
270.5219318
51
288.0155319
0
ARC
8
DEFAULT_255_2_778
10
9.9186186
20
69.8874442
40
3.3999611
50
269.9999686
51
270.5853008
0
ARC
8
DEFAULT_255_2_778
10
9.9148177
20
69.8054538
40
3.3179728
50
252.8291516
51
270.0656025
0
ARC
8
DEFAULT_255_2_778
10
9.9126359
20
69.7814611
40
3.294409
50
198.0971057
51
252.7422173
0
ARC
8
DEFAULT_255_2_778
10
9.932015
20
69.7828314
40
3.3132584
50
180.5219318
51
198.0155319
0
ARC
8
DEFAULT_255_2_778
10
10.0186778
20
69.7873814
40
3.3999611
50
179.9999686
51
180.5853008
0
LINE
8
DEFAULT_255_2_778
10
6.6187168
20
69.7873832
11
6.6187168
21
69.7873832
0
ARC
8
DEFAULT_255_2_778
10
4.8686169
20
63.5374842
40
0.2997853
50
89.976134
51
135.0256554
0
ARC
8
DEFAULT_255_2_778
10
4.8685025
20
63.5374044
40
0.2997609
50
134.9993961
51
180.0448861
0
ARC
8
DEFAULT_255_2_778
10
13.6689667
20
63.5374842
40
0.2997853
50
44.9743446
51
90.023866
0
ARC
8
DEFAULT_255_2_778
10
13.6690811
20
63.5374046
40
0.2997607
50
359.9550754
51
45.0005767
0
ARC
8
DEFAULT_255_2_778
10
4.8688512
20
51.4373789
40
0.3001094
50
180.0208901
51
269.9791099
0
ARC
8
DEFAULT_255_2_778
10
13.6691064
20
51.4369585
40
0.299689
50
269.9494094
51
315.0062795
0
ARC
8
DEFAULT_255_2_778
10
13.6687331
20
51.4371784
40
0.3001086
50
315.0269733
51
0.0173895
0
LINE
8
DEFAULT_255_2_778
10
9.9186418
20
69.4985695
11
11.1865418
21
69.5006695
0
LINE
8
DEFAULT_255_2_778
10
9.9188418
20
70.0763695
11
11.1867418
21
70.0742695
0
LINE
8
DEFAULT_255_2_778
10
4.8687418
20
63.8372695
11
13.6688418
21
63.8372695
0
LINE
8
DEFAULT_255_2_778
10
4.8687418
20
51.1372695
11
13.6688418
21
51.1372695
0
ARC
8
DEFAULT_255_2_778
10
20.1686718
20
5.3874282
40
0.3001094
50
270.0208901
51
359.9791099
0
ARC
8
DEFAULT_255_2_778
10
20.1686718
20
5.3874282
40
0.3001094
50
270.0208901
51
359.9791099
0
ENDSEC
0
EOF