0
SECTION
2
HEADER
9
$MEASUREMENT
70
1
0
ENDSEC
0
SECTION
2
TABLES
0
TABLE
2
LTYPE
0
LTYPE
72
65
70
64
2
CONTINUOUS
3
______
73
0
40
0
0
ENDTAB
0
TABLE
2
LAYER
0
LAYER
2
DEFAULT_255_2_778
70
0
62
255
6
CONTINUOUS
0
ENDTAB
0
ENDSEC
0
SECTION
2
ENTITIES
0
ARC
8
DEFAULT_255_2_778
10
20.401941
20
91.787446
40
0.5000409
50
210.0026942
51
270.0072759
0
ARC
8
DEFAULT_255_2_778
10
20.4017933
20
91.7873474
40
0.4998638
50
179.9876469
51
210.0013674
0
ARC
8
DEFAULT_255_2_778
10
20.4017933
20
91.7875629
40
0.4998638
50
149.9986326
51
180.0123531
0
ARC
8
DEFAULT_255_2_778
10
20.4019409
20
91.7874639
40
0.5000412
50
89.9927184
51
149.9972709
0
LINE
8
DEFAULT_255_2_778
10
20.4020045
20
92.2875052
11
27.9019045
21
92.2875052
0
LINE
8
DEFAULT_255_2_778
10
27.9019045
20
92.2875052
11
27.9019045
21
95.0876052
0
ARC
8
DEFAULT_255_2_778
10
76.5517825
20
92.5871842
40
0.5003739
50
53.1443716
51
89.9857274
0
LINE
8
DEFAULT_255_2_778
10
20.4017072
20
91.2876581
11
21.9016072
21
91.2876581
0
LINE
8
DEFAULT_255_2_778
10
20.4017072
20
8.8876581
11
21.9016072
21
8.8876581
0
LINE
8
DEFAULT_255_2_778
10
20.4017072
20
7.8875581
11
27.9016072
21
7.8875581
0
LINE
8
DEFAULT_255_2_778
10
27.9016072
20
7.8875581
11
27.9016072
21
5.0874581
0
LINE
8
DEFAULT_255_2_778
10
14.7018072
20
94.9375581
11
14.7018072
21
5.2374581
0
LINE
8
DEFAULT_255_2_778
10
79.5517072
20
70.5876581
11
79.7017072
21
70.5876581
0
LINE
8
DEFAULT_255_2_778
10
79.7017072
20
70.5876581
11
79.7017072
21
68.0876581
0
LINE
8
DEFAULT_255_2_778
10
79.5520072
20
93.0875581
11
79.7020072
21
93.0875581
0
LINE
8
DEFAULT_255_2_778
10
79.7020072
20
93.0875581
11
76.5519072
21
93.0875581
0
ARC
8
DEFAULT_255_2_778
10
75.15169
20
70.7876871
40
0.200009
50
180.0025484
51
269.997423
0
LINE
8
DEFAULT_255_2_778
10
75.151681
20
70.5876782
11
79.701681
21
70.5876782
0
LINE
8
DEFAULT_255_2_778
10
79.701681
20
1.7874782
11
75.801781
21
1.7874782
0
LINE
8
DEFAULT_255_2_778
10
79.7018073
20
4.8377156
11
77.7018073
21
4.8377156
0
LINE
8
DEFAULT_255_2_778
10
77.7018073
20
4.8377156
11
77.7018073
21
5.0877156
0
LINE
8
DEFAULT_255_2_778
10
75.8018146
20
5.0876514
11
75.8018146
21
-0.2124486
0
LINE
8
DEFAULT_255_2_778
10
75.8018146
20
-0.2124486
11
79.7018146
21
-0.2124486
0
LINE
8
DEFAULT_255_2_778
10
79.7018146
20
-0.2124486
11
79.7018146
21
32.1876514
0
LINE
8
DEFAULT_255_2_778
10
1.6018146
20
39.5128514
11
1.6018146
21
15.8631514
0
LINE
8
DEFAULT_255_2_778
10
61.5022146
20
17.8874514
11
60.2520146
21
17.8874514
0
LINE
8
DEFAULT_255_2_778
10
60.2520146
20
17.8874514
11
60.2520146
21
15.1873514
0
LINE
8
DEFAULT_255_2_778
10
60.2520146
20
15.1873514
11
62.7018146
21
15.1873514
0
LINE
8
DEFAULT_255_2_778
10
61.5019146
20
42.8873514
11
60.2520146
21
42.8873514
0
LINE
8
DEFAULT_255_2_778
10
60.2520146
20
42.8873514
11
60.2520146
21
45.5874514
0
LINE
8
DEFAULT_255_2_778
10
60.2520146
20
45.5874514
11
62.7018146
21
45.5874514
0
LINE
8
DEFAULT_255_2_778
10
66.0019146
20
45.5874514
11
68.4517146
21
45.5874514
0
LINE
8
DEFAULT_255_2_778
10
68.4517146
20
45.5874514
11
68.4517146
21
42.8873514
0
LINE
8
DEFAULT_255_2_778
10
68.4517146
20
42.8873514
11
67.2018146
21
42.8873514
0
LINE
8
DEFAULT_255_2_778
10
67.2018146
20
17.8874514
11
68.4517146
21
17.8874514
0
LINE
8
DEFAULT_255_2_778
10
68.4517146
20
17.8874514
11
68.4517146
21
15.1873514
0
LINE
8
DEFAULT_255_2_778
10
68.4517146
20
15.1873514
11
66.0019146
21
15.1873514
0
ARC
8
DEFAULT_255_2_778
10
48.9512118
20
44.0876556
40
1.0005161
50
0.0073003
51
44.9883127
0
ARC
8
DEFAULT_255_2_778
10
48.9515005
20
44.0873674
40
1.0005159
50
45.0116733
51
89.9927046
0
ARC
8
DEFAULT_255_2_778
10
29.9516109
20
44.0877159
40
1.0001672
50
89.9990294
51
134.9965927
0
ARC
8
DEFAULT_255_2_778
10
29.9516229
20
44.0878301
40
1.000095
50
135.0017048
51
180.0026977
0
ARC
8
DEFAULT_255_2_778
10
29.9480385
20
15.086413
40
0.9965117
50
179.91548
51
221.6387597
0
ARC
8
DEFAULT_255_2_778
10
29.9504485
20
15.0852552
40
0.9975466
50
221.4970855
51
268.270217
0
ARC
8
DEFAULT_255_2_778
10
29.951618
20
15.1067838
40
1.0191008
50
268.2410303
51
270.000554
0
ARC
8
DEFAULT_255_2_778
10
48.9530514
20
15.0839638
40
0.9962817
50
269.9181321
51
311.647603
0
ARC
8
DEFAULT_255_2_778
10
48.9539472
20
15.0867287
40
0.9977557
50
311.5036522
51
358.2691355
0
ARC
8
DEFAULT_255_2_778
10
48.9326041
20
15.0878734
40
1.0191238
50
358.2410549
51
0.0005447
0
LINE
8
DEFAULT_255_2_778
10
66.0019279
20
45.7874831
11
66.0019279
21
44.1374831
0
LINE
8
DEFAULT_255_2_778
10
66.0019279
20
44.1374831
11
62.7017279
21
44.1374831
0
LINE
8
DEFAULT_255_2_778
10
62.7017279
20
44.1374831
11
62.7017279
21
45.7874831
0
LINE
8
DEFAULT_255_2_778
10
62.7017279
20
45.7874831
11
66.0019279
21
45.7874831
0
LINE
8
DEFAULT_255_2_778
10
42.6145279
20
5.0876831
11
42.6145279
21
4.1875831
0
LINE
8
DEFAULT_255_2_778
10
42.6145279
20
4.1875831
11
43.4144279
21
4.1875831
0
LINE
8
DEFAULT_255_2_778
10
43.4144279
20
4.1875831
11
43.4144279
21
3.7877831
0
LINE
8
DEFAULT_255_2_778
10
43.4144279
20
3.7877831
11
44.4142279
21
3.7877831
0
LINE
8
DEFAULT_255_2_778
10
44.4142279
20
3.7877831
11
44.4142279
21
3.3876831
0
LINE
8
DEFAULT_255_2_778
10
44.4142279
20
3.3876831
11
45.6144279
21
3.3876831
0
LINE
8
DEFAULT_255_2_778
10
45.6144279
20
3.3876831
11
45.6144279
21
2.9876831
0
LINE
8
DEFAULT_255_2_778
10
45.6144279
20
2.9876831
11
47.1143279
21
2.9876831
0
LINE
8
DEFAULT_255_2_778
10
47.1143279
20
2.9876831
11
47.1143279
21
2.5875831
0
LINE
8
DEFAULT_255_2_778
10
47.1143279
20
2.5875831
11
52.1144279
21
2.5875831
0
LINE
8
DEFAULT_255_2_778
10
52.1144279
20
2.5875831
11
52.1144279
21
2.9876831
0
LINE
8
DEFAULT_255_2_778
10
52.1144279
20
2.9876831
11
53.6143279
21
2.9876831
0
LINE
8
DEFAULT_255_2_778
10
53.6143279
20
2.9876831
11
53.6143279
21
3.3876831
0
LINE
8
DEFAULT_255_2_778
10
53.6143279
20
3.3876831
11
54.8142279
21
3.3876831
0
LINE
8
DEFAULT_255_2_778
10
54.8142279
20
3.3876831
11
54.8142279
21
3.7877831
0
LINE
8
DEFAULT_255_2_778
10
54.8142279
20
3.7877831
11
55.8143279
21
3.7877831
0
LINE
8
DEFAULT_255_2_778
10
55.8143279
20
3.7877831
11
55.8143279
21
4.1875831
0
LINE
8
DEFAULT_255_2_778
10
55.8143279
20
4.1875831
11
56.6144279
21
4.1875831
0
LINE
8
DEFAULT_255_2_778
10
56.6144279
20
4.1875831
11
56.6144279
21
5.0876831
0
LINE
8
DEFAULT_255_2_778
10
42.6143279
20
95.0875831
11
42.6143279
21
95.9873831
0
LINE
8
DEFAULT_255_2_778
10
42.6143279
20
95.9873831
11
43.4141279
21
95.9873831
0
LINE
8
DEFAULT_255_2_778
10
43.4141279
20
95.9873831
11
43.4141279
21
96.3874831
0
LINE
8
DEFAULT_255_2_778
10
43.4141279
20
96.3874831
11
44.4142279
21
96.3874831
0
LINE
8
DEFAULT_255_2_778
10
44.4142279
20
96.3874831
11
44.4142279
21
96.7874831
0
LINE
8
DEFAULT_255_2_778
10
44.4142279
20
96.7874831
11
45.6144279
21
96.7874831
0
LINE
8
DEFAULT_255_2_778
10
45.6144279
20
96.7874831
11
45.6144279
21
97.1875831
0
LINE
8
DEFAULT_255_2_778
10
45.6144279
20
97.1875831
11
47.1143279
21
97.1875831
0
LINE
8
DEFAULT_255_2_778
10
47.1143279
20
97.1875831
11
47.1143279
21
97.5875831
0
LINE
8
DEFAULT_255_2_778
10
47.1143279
20
97.5875831
11
52.1144279
21
97.5875831
0
LINE
8
DEFAULT_255_2_778
10
52.1144279
20
97.5875831
11
52.1144279
21
97.1875831
0
LINE
8
DEFAULT_255_2_778
10
52.1144279
20
97.1875831
11
53.6143279
21
97.1875831
0
LINE
8
DEFAULT_255_2_778
10
53.6143279
20
97.1875831
11
53.6143279
21
96.7874831
0
LINE
8
DEFAULT_255_2_778
10
53.6143279
20
96.7874831
11
54.8142279
21
96.7874831
0
LINE
8
DEFAULT_255_2_778
10
54.8142279
20
96.7874831
11
54.8142279
21
96.3871831
0
LINE
8
DEFAULT_255_2_778
10
54.8142279
20
96.3871831
11
55.8143279
21
96.3871831
0
LINE
8
DEFAULT_255_2_778
10
55.8143279
20
96.3871831
11
55.8143279
21
95.9873831
0
LINE
8
DEFAULT_255_2_778
10
55.8143279
20
95.9873831
11
56.6144279
21
95.9873831
0
LINE
8
DEFAULT_255_2_778
10
56.6144279
20
95.9873831
11
56.6144279
21
95.0875831
0
LINE
8
DEFAULT_255_2_778
10
48.9516279
20
45.0878831
11
29.9516279
21
45.0878831
0
LINE
8
DEFAULT_255_2_778
10
28.9515279
20
44.0877831
11
28.9515279
21
15.0878831
0
LINE
8
DEFAULT_255_2_778
10
29.9516279
20
14.0876831
11
48.9516279
21
14.0876831
0
LINE
8
DEFAULT_255_2_778
10
49.9517279
20
15.0878831
11
49.9517279
21
44.0877831
0
LINE
8
DEFAULT_255_2_778
10
76.6982279
20
68.0880831
11
77.2982279
21
66.5881831
0
LINE
8
DEFAULT_255_2_778
10
77.2982279
20
66.5881831
11
77.9983279
21
65.5880831
0
LINE
8
DEFAULT_255_2_778
10
77.9983279
20
65.5880831
11
79.7022279
21
65.5880831
0
LINE
8
DEFAULT_255_2_778
10
77.0019279
20
35.1874831
11
77.5020279
21
35.1874831
0
LINE
8
DEFAULT_255_2_778
10
77.5020279
20
35.1874831
11
79.0728279
21
32.3312831
0
LINE
8
DEFAULT_255_2_778
10
76.8503279
20
32.6876831
11
77.0019279
21
35.1874831
0
LINE
8
DEFAULT_255_2_778
10
75.9018279
20
93.0875831
11
75.9018279
21
92.6872831
0
LINE
8
DEFAULT_255_2_778
10
75.9018279
20
70.9876831
11
75.9018279
21
70.5876831
0
LINE
8
DEFAULT_255_2_778
10
74.9519279
20
92.8877831
11
74.9519279
21
70.7876831
0
LINE
8
DEFAULT_255_2_778
10
77.0220279
20
93.0875831
11
75.1017279
21
93.0875831
0
LINE
8
DEFAULT_255_2_778
10
71.1517279
20
28.7876831
11
69.6518279
21
28.8876831
0
LINE
8
DEFAULT_255_2_778
10
29.4012279
20
95.0875831
11
29.4012279
21
92.1876831
0
LINE
8
DEFAULT_255_2_778
10
29.4012279
20
92.1876831
11
22.6020279
21
92.1876831
0
LINE
8
DEFAULT_255_2_778
10
22.6020279
20
92.1876831
11
21.9019279
21
91.4878831
0
LINE
8
DEFAULT_255_2_778
10
29.4010279
20
5.0876831
11
29.4010279
21
7.9877831
0
LINE
8
DEFAULT_255_2_778
10
29.4010279
20
7.9877831
11
22.6017279
21
7.9877831
0
LINE
8
DEFAULT_255_2_778
10
22.6017279
20
7.9877831
11
22.6017279
21
7.8877831
0
LINE
8
DEFAULT_255_2_778
10
22.6020279
20
7.9874831
11
21.9019279
21
8.6875831
0
LINE
8
DEFAULT_255_2_778
10
45.4019279
20
95.0875831
11
44.4018279
21
93.0875831
0
LINE
8
DEFAULT_255_2_778
10
44.4018279
20
93.0875831
11
31.4018279
21
93.0875831
0
LINE
8
DEFAULT_255_2_778
10
31.4018279
20
93.0875831
11
30.4016279
21
95.0875831
0
LINE
8
DEFAULT_255_2_778
10
44.4018279
20
95.0875831
11
44.4018279
21
93.0875831
0
LINE
8
DEFAULT_255_2_778
10
31.4018925
20
95.0875616
11
31.4018925
21
93.0875616
0
LINE
8
DEFAULT_255_2_778
10
75.7017925
20
32.6876616
11
77.2017925
21
32.6876616
0
LINE
8
DEFAULT_255_2_778
10
77.2017925
20
32.6876616
11
79.7017925
21
32.1876616
0
LINE
8
DEFAULT_255_2_778
10
21.9019925
20
82.8876616
11
23.1020925
21
82.8876616
0
LINE
8
DEFAULT_255_2_778
10
23.1020925
20
82.8876616
11
23.1020925
21
74.8876616
0
LINE
8
DEFAULT_255_2_778
10
23.1020925
20
74.8876616
11
21.9019925
21
74.8876616
0
LINE
8
DEFAULT_255_2_778
10
21.9019925
20
63.6875616
11
23.1020925
21
63.6875616
0
LINE
8
DEFAULT_255_2_778
10
23.1020925
20
63.6875616
11
23.1020925
21
55.6876616
0
LINE
8
DEFAULT_255_2_778
10
23.1020925
20
55.6876616
11
21.9019925
21
55.6876616
0
ARC
8
DEFAULT_255_2_778
10
14.8526699
20
94.9367179
40
0.1508516
50
90.2845517
51
179.6773103
0
LINE
8
DEFAULT_255_2_778
10
75.7018207
20
64.0077675
11
75.7018207
21
68.0876675
0
LINE
8
DEFAULT_255_2_778
10
75.7018207
20
32.6876675
11
75.7018207
21
61.9678675
0
LINE
8
DEFAULT_255_2_778
10
79.7018207
20
93.0875675
11
79.7018207
21
94.7877675
0
LINE
8
DEFAULT_255_2_778
10
66.6517207
20
8.0875675
11
62.0517207
21
8.0875675
0
LINE
8
DEFAULT_255_2_778
10
14.7018207
20
11.0627675
11
14.4018207
21
11.0627675
0
LINE
8
DEFAULT_255_2_778
10
14.4018207
20
11.0627675
11
14.4018207
21
44.3126675
0
LINE
8
DEFAULT_255_2_778
10
14.4018207
20
44.3126675
11
14.7018207
21
44.3126675
0
LINE
8
DEFAULT_255_2_778
10
14.8519207
20
5.0874675
11
79.4017207
21
5.0874675
0
LINE
8
DEFAULT_255_2_778
10
14.8519207
20
95.0875675
11
79.4020207
21
95.0875675
0
ARC
8
DEFAULT_255_2_778
10
20.4019438
20
8.3875584
40
0.5000414
50
89.9927398
51
149.9972631
0
ARC
8
DEFAULT_255_2_778
10
20.4017959
20
8.3876576
40
0.4998638
50
149.9986326
51
180.0123531
0
ARC
8
DEFAULT_255_2_778
10
20.4017959
20
8.387442
40
0.4998638
50
179.9876469
51
210.0013674
0
ARC
8
DEFAULT_255_2_778
10
20.4019431
20
8.3875402
40
0.5000404
50
210.0026728
51
270.0073343
0
ARC
8
DEFAULT_255_2_778
10
48.7041886
20
50.0911695
40
2.0023845
50
156.5733489
51
180.0992821
0
ARC
8
DEFAULT_255_2_778
10
48.6970106
20
50.0921165
40
1.9954226
50
100.1929838
51
156.5163563
0
ARC
8
DEFAULT_255_2_778
10
48.7007866
20
50.0598962
40
2.0278038
50
89.9711642
51
100.1368845
0
ARC
8
DEFAULT_255_2_778
10
48.7052769
20
50.0853183
40
2.0023845
50
66.5733489
51
90.0992821
0
ARC
8
DEFAULT_255_2_778
10
48.7062239
20
50.0924963
40
1.9954226
50
10.1929838
51
66.5163563
0
ARC
8
DEFAULT_255_2_778
10
48.6740035
20
50.0887203
40
2.0278038
50
359.9711642
51
10.1368845
0
ARC
8
DEFAULT_255_2_778
10
48.6996006
20
50.084239
40
2.0022096
50
336.5287151
51
0.0990339
0
ARC
8
DEFAULT_255_2_778
10
48.7065188
20
50.0833674
40
1.9955175
50
280.1882983
51
336.4725563
0
ARC
8
DEFAULT_255_2_778
10
48.7028262
20
50.1153121
40
2.0276126
50
269.9712038
51
280.131326
0
ARC
8
DEFAULT_255_2_778
10
48.6983455
20
50.089958
40
2.0022612
50
246.5715666
51
270.0990563
0
ARC
8
DEFAULT_255_2_778
10
48.6974983
20
50.0830006
40
1.9955414
50
190.1944457
51
246.5144618
0
ARC
8
DEFAULT_255_2_778
10
48.7293525
20
50.0866825
40
2.0275455
50
179.9712527
51
190.1375314
0
ARC
8
DEFAULT_255_2_778
10
74.6048884
20
62.9867006
40
1.4972736
50
317.1169558
51
336.8407537
0
ARC
8
DEFAULT_255_2_778
10
74.6007476
20
62.9870904
40
1.5012346
50
336.8892271
51
0.0213487
0
ARC
8
DEFAULT_255_2_778
10
74.604052
20
62.9887373
40
1.4979306
50
359.9584016
51
31.1301642
0
ARC
8
DEFAULT_255_2_778
10
74.5989907
20
62.984076
40
1.5046733
50
31.1824649
51
42.8564203
0
ARC
8
DEFAULT_255_2_778
10
75.1518761
20
92.8867687
40
0.2010312
50
90.048137
51
134.8463867
0
ARC
8
DEFAULT_255_2_778
10
75.1511187
20
92.8882999
40
0.1994122
50
135.0023726
51
180.1436866
0
ARC
8
DEFAULT_255_2_778
10
76.5518361
20
71.0874132
40
0.4998134
50
270.0081497
51
306.8961299
0
ARC
8
DEFAULT_255_2_778
10
79.4017974
20
5.38781
40
0.3001102
50
269.9827635
51
314.9729322
0
ARC
8
DEFAULT_255_2_778
10
79.4015986
20
5.3876087
40
0.3001084
50
315.0269503
51
0.0173976
0
ARC
8
DEFAULT_255_2_778
10
79.4015977
20
94.7876904
40
0.3001094
50
0.0208901
51
89.9791099
0
ARC
8
DEFAULT_255_2_778
10
14.8518619
20
5.2374545
40
0.1500547
50
180.0208901
51
269.9791099
0
LINE
8
DEFAULT_255_2_778
10
21.9019072
20
8.6875998
11
21.9019072
21
91.2875998
0
LINE
8
DEFAULT_255_2_778
10
46.7018072
20
50.0876998
11
46.7018072
21
50.0876998
0
LINE
8
DEFAULT_255_2_778
10
79.7020072
20
65.5882998
11
79.7020072
21
70.5870998
0
LINE
8
DEFAULT_255_2_778
10
79.7019271
20
68.0876252
11
75.7020271
21
68.0876252
0
LINE
8
DEFAULT_255_2_778
10
14.4020271
20
39.5126252
11
0.2018271
21
39.5129252
0
LINE
8
DEFAULT_255_2_778
10
0.2018271
20
39.5129252
11
0.2018271
21
15.8631252
0
LINE
8
DEFAULT_255_2_778
10
0.2018271
20
15.8631252
11
14.4015271
21
15.8628252
0
LINE
8
DEFAULT_255_2_778
10
7.4019271
20
39.5126252
11
7.4019271
21
44.3127252
0
LINE
8
DEFAULT_255_2_778
10
7.4019271
20
44.3127252
11
14.4020271
21
44.3127252
0
LINE
8
DEFAULT_255_2_778
10
14.4020271
20
44.3127252
11
14.4015271
21
11.0627252
0
LINE
8
DEFAULT_255_2_778
10
14.4015271
20
11.0627252
11
7.4016271
21
11.0627252
0
LINE
8
DEFAULT_255_2_778
10
7.4016271
20
11.0627252
11
7.4016271
21
15.8628252
0
LINE
8
DEFAULT_255_2_778
10
67.2017271
20
42.2876252
11
68.5519271
21
42.2876252
0
LINE
8
DEFAULT_255_2_778
10
68.5519271
20
42.2876252
11
68.5519271
21
18.4875252
0
LINE
8
DEFAULT_255_2_778
10
68.5519271
20
18.4875252
11
67.2017271
21
18.4875252
0
LINE
8
DEFAULT_255_2_778
10
61.5018271
20
18.4875252
11
60.1516271
21
18.4875252
0
LINE
8
DEFAULT_255_2_778
10
60.1516271
20
18.4875252
11
60.1516271
21
42.2876252
0
LINE
8
DEFAULT_255_2_778
10
60.1516271
20
42.2876252
11
61.5018271
21
42.2876252
0
LINE
8
DEFAULT_255_2_778
10
61.5018346
20
17.3876161
11
61.5018346
21
43.3874161
0
LINE
8
DEFAULT_255_2_778
10
61.5018346
20
43.3874161
11
67.2017346
21
43.3874161
0
LINE
8
DEFAULT_255_2_778
10
67.2017346
20
43.3874161
11
67.2017346
21
17.3873161
0
LINE
8
DEFAULT_255_2_778
10
67.2017346
20
17.3873161
11
61.5018346
21
17.3873161
0
LINE
8
DEFAULT_255_2_778
10
61.5018346
20
17.3873161
11
61.5018346
21
18.4872161
0
LINE
8
DEFAULT_255_2_778
10
51.7143346
20
2.3876161
11
47.5588346
21
2.3876161
0
LINE
8
DEFAULT_255_2_778
10
47.5588346
20
2.3876161
11
47.5588346
21
2.5876161
0
ARC
8
DEFAULT_255_2_778
10
68.9520566
20
65.3374343
40
0.4999262
50
269.9915458
51
0.0084542
0
ARC
8
DEFAULT_255_2_778
10
29.4519173
20
65.3373333
40
0.4998253
50
224.9992549
51
270.0189774
0
ARC
8
DEFAULT_255_2_778
10
29.4520785
20
65.3375544
40
0.5000956
50
180.0053149
51
225.0041129
0
ARC
8
DEFAULT_255_2_778
10
29.4520785
20
84.8375617
40
0.5000956
50
134.9958871
51
179.9946851
0
ARC
8
DEFAULT_255_2_778
10
29.4519174
20
84.8377823
40
0.4998257
50
89.9810357
51
135.0007161
0
ARC
8
DEFAULT_255_2_778
10
68.9519927
20
84.8376178
40
0.4999902
50
359.9988811
51
90.0011246
0
LINE
8
DEFAULT_255_2_778
10
50.3286829
20
2.387608
11
50.3286829
21
2.587608
0
LINE
8
DEFAULT_255_2_778
10
51.7145829
20
2.387608
11
51.7145829
21
2.587608
0
LINE
8
DEFAULT_255_2_778
10
50.3286829
20
97.787608
11
50.3286829
21
97.587608
0
LINE
8
DEFAULT_255_2_778
10
47.5587829
20
97.587608
11
47.5587829
21
97.787608
0
LINE
8
DEFAULT_255_2_778
10
47.5587829
20
97.787608
11
51.7143829
21
97.787608
0
LINE
8
DEFAULT_255_2_778
10
51.7143829
20
97.787608
11
51.7143829
21
97.587608
0
LINE
8
DEFAULT_255_2_778
10
68.9519829
20
64.837508
11
29.4520829
21
64.837508
0
LINE
8
DEFAULT_255_2_778
10
28.9519829
20
65.337508
11
28.9519829
21
84.837608
0
LINE
8
DEFAULT_255_2_778
10
29.4520829
20
85.337608
11
68.9519829
21
85.337608
0
LINE
8
DEFAULT_255_2_778
10
69.4519829
20
84.837608
11
69.4519829
21
65.337508
0
ARC
8
DEFAULT_255_2_778
10
29.4514607
20
65.337545
40
0.4999214
50
179.9970476
51
225.0123843
0
ARC
8
DEFAULT_255_2_778
10
29.4515414
20
65.3372182
40
0.4997474
50
224.9793514
51
270.0112208
0
ARC
8
DEFAULT_255_2_778
10
68.9514638
20
65.3375462
40
0.5000754
50
270.0086483
51
0.0028154
0
ARC
8
DEFAULT_255_2_778
10
68.9514638
20
84.8375953
40
0.5000755
50
359.9971846
51
89.9913517
0
ARC
8
DEFAULT_255_2_778
10
29.4515414
20
84.8379233
40
0.4997474
50
89.9887792
51
135.0206486
0
ARC
8
DEFAULT_255_2_778
10
29.4512867
20
84.8376686
40
0.4997474
50
134.9793514
51
180.0112208
0
LINE
8
DEFAULT_255_2_778
10
29.4516392
20
64.8374708
11
68.9515392
21
64.8374708
0
LINE
8
DEFAULT_255_2_778
10
69.4515392
20
65.3375708
11
69.4515392
21
84.8375708
0
LINE
8
DEFAULT_255_2_778
10
68.9515392
20
85.3376708
11
29.4516392
21
85.3376708
0
LINE
8
DEFAULT_255_2_778
10
28.9515392
20
84.8375708
11
28.9515392
21
65.3375708
0
LINE
8
DEFAULT_255_2_778
10
77.0517392
20
82.0875708
11
77.0517392
21
81.5874708
0
LINE
8
DEFAULT_255_2_778
10
75.9018392
20
82.0875708
11
75.9018392
21
81.5874708
0
LINE
8
DEFAULT_255_2_778
10
76.2018392
20
70.6876708
11
75.2020392
21
71.6877708
0
LINE
8
DEFAULT_255_2_778
10
75.2020392
20
71.6877708
11
75.2020392
21
81.5877708
0
LINE
8
DEFAULT_255_2_778
10
75.2020392
20
81.5877708
11
78.0510392
21
81.5877708
0
LINE
8
DEFAULT_255_2_778
10
78.0510392
20
81.5877708
11
78.0510392
21
82.0877708
0
LINE
8
DEFAULT_255_2_778
10
78.0510392
20
82.0877708
11
75.2020392
21
82.0877708
0
LINE
8
DEFAULT_255_2_778
10
75.2020392
20
82.0877708
11
75.2020392
21
91.9874708
0
LINE
8
DEFAULT_255_2_778
10
75.2020392
20
91.9874708
11
76.2021392
21
92.9875708
0
LINE
8
DEFAULT_255_2_778
10
76.2021392
20
92.9875708
11
79.7020392
21
92.9875708
0
LINE
8
DEFAULT_255_2_778
10
79.7020392
20
92.9875708
11
79.7020392
21
70.6876708
0
LINE
8
DEFAULT_255_2_778
10
79.7020392
20
70.6876708
11
76.2021392
21
70.6876708
0
LINE
8
DEFAULT_255_2_778
10
71.1520392
20
28.7877708
11
71.1520392
21
12.4878708
0
LINE
8
DEFAULT_255_2_778
10
71.1520392
20
12.4878708
11
57.5522392
21
12.4878708
0
LINE
8
DEFAULT_255_2_778
10
57.5522392
20
12.4878708
11
57.5522392
21
48.2877708
0
LINE
8
DEFAULT_255_2_778
10
57.5522392
20
48.2877708
11
71.1523392
21
48.2877708
0
LINE
8
DEFAULT_255_2_778
10
71.1523392
20
48.2877708
11
71.1523392
21
31.9875708
0
LINE
8
DEFAULT_255_2_778
10
71.1523392
20
31.9875708
11
69.6524392
21
31.8875708
0
ARC
8
DEFAULT_255_2_778
10
46.0017636
20
8.2876639
40
0.2000943
50
269.9983871
51
359.9730068
0
ARC
8
DEFAULT_255_2_778
10
46.0004017
20
10.8873253
40
0.2014565
50
0.0979357
51
44.7965103
0
ARC
8
DEFAULT_255_2_778
10
46.0022627
20
10.8880272
40
0.1996429
50
45.0298851
51
90.1448645
0
LINE
8
DEFAULT_255_2_778
10
69.6518579
20
46.7879697
11
69.6518579
21
13.9880697
0
LINE
8
DEFAULT_255_2_778
10
69.6518579
20
13.9880697
11
59.0518579
21
13.9880697
0
LINE
8
DEFAULT_255_2_778
10
59.0518579
20
13.9880697
11
59.0518579
21
46.7879697
0
LINE
8
DEFAULT_255_2_778
10
59.0518579
20
46.7879697
11
69.6518579
21
46.7879697
0
LINE
8
DEFAULT_255_2_778
10
26.4017579
20
7.9878697
11
26.4017579
21
7.8878697
0
LINE
8
DEFAULT_255_2_778
10
25.9019579
20
7.9878697
11
25.9019579
21
7.8878697
0
LINE
8
DEFAULT_255_2_778
10
24.9017579
20
7.9878697
11
24.9017579
21
7.8878697
0
LINE
8
DEFAULT_255_2_778
10
24.0019579
20
7.9878697
11
24.0019579
21
7.8878697
0
LINE
8
DEFAULT_255_2_778
10
66.6517579
20
89.0876697
11
62.0516579
21
89.0876697
0
LINE
8
DEFAULT_255_2_778
10
66.6517579
20
92.0877697
11
62.0516579
21
92.0877697
0
LINE
8
DEFAULT_255_2_778
10
46.0020579
20
11.0876697
11
41.4020579
21
11.0876697
0
LINE
8
DEFAULT_255_2_778
10
46.0020579
20
8.0875697
11
41.4020579
21
8.0875697
0
LINE
8
DEFAULT_255_2_778
10
46.0020579
20
89.0876697
11
41.4020579
21
89.0876697
0
LINE
8
DEFAULT_255_2_778
10
46.0020579
20
92.0877697
11
41.4020579
21
92.0877697
0
LINE
8
DEFAULT_255_2_778
10
66.6517579
20
11.0876697
11
62.0516579
21
11.0876697
0
LINE
8
DEFAULT_255_2_778
10
66.0019579
20
16.6375697
11
66.0019579
21
14.9876697
0
LINE
8
DEFAULT_255_2_778
10
66.0019579
20
14.9876697
11
62.7017579
21
14.9876697
0
LINE
8
DEFAULT_255_2_778
10
62.7017579
20
14.9876697
11
62.7017579
21
16.6375697
0
LINE
8
DEFAULT_255_2_778
10
62.7017579
20
16.6375697
11
66.0019579
21
16.6375697
0
LINE
8
DEFAULT_255_2_778
10
46.2018579
20
8.2875697
11
46.2018579
21
10.8876697
0
ARC
8
DEFAULT_255_2_778
10
41.4023356
20
10.886433
40
0.2012224
50
90.0991214
51
134.8240219
0
ARC
8
DEFAULT_255_2_778
10
41.4010756
20
10.8881894
40
0.1990888
50
134.9231527
51
180.153753
0
ARC
8
DEFAULT_255_2_778
10
41.4019965
20
8.287564
40
0.200009
50
180.0025382
51
269.9974272
0
LINE
8
DEFAULT_255_2_778
10
41.2019875
20
10.8876552
11
41.2019875
21
8.2875552
0
ARC
8
DEFAULT_255_2_778
10
46.0013701
20
91.8861229
40
0.2016327
50
45.2240203
51
89.8813922
0
ARC
8
DEFAULT_255_2_778
10
46.002377
20
91.8882558
40
0.1994111
50
359.8561499
51
44.9977255
0
ARC
8
DEFAULT_255_2_778
10
46.0017785
20
89.287664
40
0.200009
50
270.0025728
51
359.9974618
0
LINE
8
DEFAULT_255_2_778
10
46.2017875
20
91.8877552
11
46.2017875
21
89.2876552
0
ARC
8
DEFAULT_255_2_778
10
41.4019964
20
89.2876641
40
0.2000089
50
180.0025627
51
269.9974373
0
ARC
8
DEFAULT_255_2_778
10
41.4032103
20
91.8874068
40
0.2012231
50
135.1760622
51
179.9008135
0
ARC
8
DEFAULT_255_2_778
10
41.4014532
20
91.8886671
40
0.1990888
50
89.846247
51
135.0768473
0
LINE
8
DEFAULT_255_2_778
10
41.2019875
20
89.2876552
11
41.2019875
21
91.8877552
0
ARC
8
DEFAULT_255_2_778
10
66.6516786
20
89.2876215
40
0.200009
50
270.0025627
51
359.9974171
0
ARC
8
DEFAULT_255_2_778
10
66.6505611
20
91.8875049
40
0.2011265
50
0.0591294
51
44.7947668
0
ARC
8
DEFAULT_255_2_778
10
66.6521543
20
91.88822
40
0.199493
50
44.9714167
51
90.1340596
0
LINE
8
DEFAULT_255_2_778
10
66.8517
20
91.8877302
11
66.8517
21
89.2876302
0
ARC
8
DEFAULT_255_2_778
10
62.0518964
20
89.2876641
40
0.2000089
50
180.0025627
51
269.9974373
0
ARC
8
DEFAULT_255_2_778
10
62.0531103
20
91.8874068
40
0.2012231
50
135.1760622
51
179.9008135
0
ARC
8
DEFAULT_255_2_778
10
62.0513532
20
91.8886671
40
0.1990888
50
89.846247
51
135.0768473
0
LINE
8
DEFAULT_255_2_778
10
61.8518875
20
89.2876552
11
61.8518875
21
91.8877552
0
ARC
8
DEFAULT_255_2_778
10
66.6516786
20
8.2878215
40
0.200009
50
270.0025627
51
359.9974171
0
ARC
8
DEFAULT_255_2_778
10
66.6505611
20
10.8874049
40
0.2011265
50
0.0591294
51
44.7947668
0
ARC
8
DEFAULT_255_2_778
10
66.6521543
20
10.88812
40
0.199493
50
44.9714167
51
90.1340596
0
LINE
8
DEFAULT_255_2_778
10
66.8517
20
8.2875302
11
66.8517
21
10.8876302
0
ARC
8
DEFAULT_255_2_778
10
62.0522356
20
10.886433
40
0.2012224
50
90.0991214
51
134.8240219
0
ARC
8
DEFAULT_255_2_778
10
62.0509756
20
10.8881894
40
0.1990888
50
134.9231527
51
180.153753
0
ARC
8
DEFAULT_255_2_778
10
62.0518965
20
8.287564
40
0.200009
50
180.0025382
51
269.9974272
0
LINE
8
DEFAULT_255_2_778
10
61.8518875
20
10.8876552
11
61.8518875
21
8.2875552
0
ENDSEC
0
EOF