0
SECTION
2
HEADER
9
$MEASUREMENT
70
1
0
ENDSEC
0
SECTION
2
TABLES
0
TABLE
2
LTYPE
0
LTYPE
72
65
70
64
2
CONTINUOUS
3
______
73
0
40
0
0
ENDTAB
0
TABLE
2
LAYER
0
LAYER
2
DEFAULT_255_2_778
70
0
62
255
6
CONTINUOUS
0
ENDTAB
0
ENDSEC
0
SECTION
2
ENTITIES
0
LINE
8
DEFAULT_255_2_778
10
27.0750116
20
5.0876666
11
27.0750116
21
1.7875666
0
LINE
8
DEFAULT_255_2_778
10
27.0750116
20
1.7875666
11
24.5749116
21
-0.2124334
0
LINE
8
DEFAULT_255_2_778
10
24.5749116
20
-0.2124334
11
17.5748116
21
-0.2124334
0
LINE
8
DEFAULT_255_2_778
10
17.5748116
20
-0.2124334
11
15.0748116
21
1.7875666
0
LINE
8
DEFAULT_255_2_778
10
15.0748116
20
1.7875666
11
15.0748116
21
3.4776666
0
ARC
8
DEFAULT_255_2_778
10
21.0679439
20
3.2850581
40
1.993198
50
179.9315196
51
204.3126274
0
ARC
8
DEFAULT_255_2_778
10
21.0766097
20
3.2900408
40
2.0031469
50
204.3404582
51
260.1947019
0
ARC
8
DEFAULT_255_2_778
10
21.0743155
20
3.3009898
40
2.0135495
50
260.3120873
51
270.0122867
0
ARC
8
DEFAULT_255_2_778
10
21.0771296
20
3.280637
40
1.993198
50
269.9315196
51
294.3126274
0
ARC
8
DEFAULT_255_2_778
10
21.0721469
20
3.2893027
40
2.0031469
50
294.3404582
51
350.1947019
0
ARC
8
DEFAULT_255_2_778
10
21.0611979
20
3.2870086
40
2.0135495
50
350.3120873
51
0.0122867
0
ARC
8
DEFAULT_255_2_778
10
31.2246392
20
94.7876316
40
0.3001081
50
359.9825861
51
44.9730961
0
ARC
8
DEFAULT_255_2_778
10
31.2248384
20
94.7874316
40
0.3001086
50
45.0269733
51
90.0173895
0
ARC
8
DEFAULT_255_2_778
10
0.8247566
20
94.7874308
40
0.3001096
50
89.9826815
51
134.972961
0
ARC
8
DEFAULT_255_2_778
10
0.8249558
20
94.7876313
40
0.3001086
50
135.0269231
51
180.0173591
0
ARC
8
DEFAULT_255_2_778
10
0.8249567
20
5.3875498
40
0.3001094
50
180.0208901
51
269.9791099
0
LINE
8
DEFAULT_255_2_778
10
16.5747473
20
3.4776404
11
16.5747473
21
3.2874404
0
LINE
8
DEFAULT_255_2_778
10
16.5747473
20
3.2874404
11
19.0747473
21
3.2874404
0
LINE
8
DEFAULT_255_2_778
10
23.0747473
20
3.2874404
11
25.5748473
21
3.2874404
0
LINE
8
DEFAULT_255_2_778
10
25.5748473
20
3.2874404
11
25.5748473
21
4.2875404
0
LINE
8
DEFAULT_255_2_778
10
25.5748473
20
4.2875404
11
21.9248473
21
4.2875404
0
LINE
8
DEFAULT_255_2_778
10
31.2247473
20
95.0875404
11
0.8248473
21
95.0875404
0
LINE
8
DEFAULT_255_2_778
10
0.5248473
20
94.7875404
11
0.5248473
21
5.3874404
0
LINE
8
DEFAULT_255_2_778
10
31.5247473
20
94.7875404
11
31.5247473
21
5.3874404
0
LINE
8
DEFAULT_255_2_778
10
0.8248314
20
5.0877686
11
14.0248314
21
5.0877686
0
LINE
8
DEFAULT_255_2_778
10
0.5279314
20
92.9878686
11
0.2247314
21
92.9878686
0
LINE
8
DEFAULT_255_2_778
10
0.2247314
20
92.9878686
11
0.2247314
21
82.0878686
0
LINE
8
DEFAULT_255_2_778
10
0.2247314
20
82.0878686
11
0.5247314
21
82.0878686
0
LINE
8
DEFAULT_255_2_778
10
0.5247314
20
81.5877686
11
0.2247314
21
81.5877686
0
LINE
8
DEFAULT_255_2_778
10
0.2247314
20
81.5877686
11
0.2247314
21
70.6877686
0
LINE
8
DEFAULT_255_2_778
10
0.2247314
20
70.6877686
11
0.5279314
21
70.6877686
0
LINE
8
DEFAULT_255_2_778
10
0.3734292
20
92.9878705
11
0.5247292
21
92.5571705
0
LINE
8
DEFAULT_255_2_778
10
0.3734292
20
70.6877705
11
0.5247292
21
71.1184705
0
LINE
8
DEFAULT_255_2_778
10
0.4010025
20
82.0877625
11
0.4010025
21
81.5876625
0
LINE
8
DEFAULT_255_2_778
10
11.3436025
20
67.5486625
11
10.4253025
21
67.2144625
0
LINE
8
DEFAULT_255_2_778
10
10.4253025
20
67.2144625
11
10.4253025
21
67.5785625
0
LINE
8
DEFAULT_255_2_778
10
10.4253025
20
67.5785625
11
9.0002025
21
67.5785625
0
LINE
8
DEFAULT_255_2_778
10
11.3436025
20
58.5485625
11
10.4253025
21
58.2144625
0
LINE
8
DEFAULT_255_2_778
10
10.4253025
20
58.2144625
11
10.4253025
21
58.5784625
0
LINE
8
DEFAULT_255_2_778
10
10.4253025
20
58.5784625
11
9.0002025
21
58.5784625
0
LINE
8
DEFAULT_255_2_778
10
14.0249025
20
67.5875625
11
14.0249025
21
75.5874625
0
LINE
8
DEFAULT_255_2_778
10
14.0249025
20
21.8876625
11
14.0249025
21
29.8875625
0
LINE
8
DEFAULT_255_2_778
10
31.5247025
20
82.5478625
11
28.1248025
21
82.5478625
0
LINE
8
DEFAULT_255_2_778
10
28.1248025
20
82.5478625
11
28.1248025
21
81.1476625
0
LINE
8
DEFAULT_255_2_778
10
28.1248025
20
81.1476625
11
30.5249025
21
81.1476625
0
LINE
8
DEFAULT_255_2_778
10
30.5249025
20
81.1476625
11
30.5249025
21
11.3778625
0
LINE
8
DEFAULT_255_2_778
10
30.5249025
20
11.3778625
11
28.1248025
21
11.3778625
0
LINE
8
DEFAULT_255_2_778
10
28.1248025
20
11.3778625
11
28.1248025
21
9.3778625
0
LINE
8
DEFAULT_255_2_778
10
28.1248025
20
9.3778625
11
31.5247025
21
9.3778625
0
LINE
8
DEFAULT_255_2_778
10
22.1749025
20
14.0874625
11
14.0249025
21
14.0874625
0
LINE
8
DEFAULT_255_2_778
10
14.0249025
20
14.0874625
11
14.0249025
21
84.2475625
0
LINE
8
DEFAULT_255_2_778
10
14.0249025
20
84.2475625
11
31.5250025
21
84.2475625
0
LINE
8
DEFAULT_255_2_778
10
31.5250025
20
84.2475625
11
14.0249025
21
84.2475625
0
LINE
8
DEFAULT_255_2_778
10
14.0249025
20
84.2475625
11
14.0249025
21
7.8774625
0
LINE
8
DEFAULT_255_2_778
10
14.0249025
20
7.8774625
11
31.5250025
21
7.8774625
0
LINE
8
DEFAULT_255_2_778
10
29.5247273
20
26.6475302
11
28.4248273
21
26.6475302
0
LINE
8
DEFAULT_255_2_778
10
28.4248273
20
26.6475302
11
28.4248273
21
29.2476302
0
LINE
8
DEFAULT_255_2_778
10
28.4248273
20
29.2476302
11
29.5247273
21
29.2476302
0
LINE
8
DEFAULT_255_2_778
10
29.5247273
20
29.2476302
11
29.5247273
21
26.6475302
0
LINE
8
DEFAULT_255_2_778
10
29.5247273
20
62.2478302
11
28.4248273
21
62.2478302
0
LINE
8
DEFAULT_255_2_778
10
28.4248273
20
62.2478302
11
28.4248273
21
64.8478302
0
LINE
8
DEFAULT_255_2_778
10
28.4248273
20
64.8478302
11
29.5247273
21
64.8478302
0
LINE
8
DEFAULT_255_2_778
10
29.5247273
20
64.8478302
11
29.5247273
21
62.2478302
0
LINE
8
DEFAULT_255_2_778
10
16.1249273
20
64.8476302
11
16.1249273
21
67.4476302
0
LINE
8
DEFAULT_255_2_778
10
16.1249273
20
67.4476302
11
15.0250273
21
67.4476302
0
LINE
8
DEFAULT_255_2_778
10
15.0250273
20
67.4476302
11
15.0250273
21
64.8476302
0
LINE
8
DEFAULT_255_2_778
10
15.0250273
20
64.8476302
11
16.1249273
21
64.8476302
0
LINE
8
DEFAULT_255_2_778
10
16.1249273
20
29.2476302
11
16.1249273
21
31.8477302
0
LINE
8
DEFAULT_255_2_778
10
16.1249273
20
31.8477302
11
15.0250273
21
31.8477302
0
LINE
8
DEFAULT_255_2_778
10
15.0250273
20
31.8477302
11
15.0250273
21
29.2476302
0
LINE
8
DEFAULT_255_2_778
10
15.0250273
20
29.2476302
11
16.1249273
21
29.2476302
0
LINE
8
DEFAULT_255_2_778
10
30.7248273
20
7.8777302
11
30.7248273
21
9.3777302
0
LINE
8
DEFAULT_255_2_778
10
21.4250273
20
14.0878302
11
21.4250273
21
9.4777302
0
LINE
8
DEFAULT_255_2_778
10
21.4250273
20
9.4777302
11
31.5249273
21
9.4777302
0
LINE
8
DEFAULT_255_2_778
10
31.5249273
20
82.4476302
11
26.1248273
21
82.4476302
0
LINE
8
DEFAULT_255_2_778
10
26.1248273
20
82.4476302
11
26.1248273
21
84.2476302
0
LINE
8
DEFAULT_255_2_778
10
22.1748449
20
11.2776
11
31.5249449
21
11.2776
0
ARC
8
DEFAULT_255_2_778
10
30.2251634
20
8.3779423
40
0.3001308
50
180.0249788
51
269.9941166
0
ARC
8
DEFAULT_255_2_778
10
31.2251231
20
8.3779209
40
0.3001094
50
270.0208901
51
359.9791099
0
LINE
8
DEFAULT_255_2_778
10
23.1750325
20
9.4777114
11
23.1750325
21
17.6777114
0
LINE
8
DEFAULT_255_2_778
10
31.2252325
20
84.1476114
11
30.2251325
21
84.1476114
0
LINE
8
DEFAULT_255_2_778
10
29.9250325
20
82.4479114
11
29.9250325
21
83.8478114
0
LINE
8
DEFAULT_255_2_778
10
31.5250325
20
81.2478114
11
23.1750325
21
81.2478114
0
LINE
8
DEFAULT_255_2_778
10
23.1750325
20
81.2478114
11
23.1750325
21
79.8576114
0
LINE
8
DEFAULT_255_2_778
10
23.1750325
20
79.8576114
11
30.7251325
21
79.8576114
0
LINE
8
DEFAULT_255_2_778
10
30.7251325
20
79.8576114
11
30.7251325
21
82.4477114
0
LINE
8
DEFAULT_255_2_778
10
14.0249325
20
15.0876114
11
22.1749325
21
15.0876114
0
LINE
8
DEFAULT_255_2_778
10
26.9249325
20
81.2478114
11
26.9249325
21
82.4477114
0
LINE
8
DEFAULT_255_2_778
10
30.2251325
20
8.0778114
11
31.2252325
21
8.0778114
0
ARC
8
DEFAULT_255_2_778
10
31.2248409
20
94.7878825
40
0.3001085
50
359.9826024
51
44.9730497
0
ARC
8
DEFAULT_255_2_778
10
31.22504
20
94.7876816
40
0.3001097
50
45.0270485
51
90.0172913
0
ARC
8
DEFAULT_255_2_778
10
21.6249836
20
3.7774538
40
0.2997625
50
269.9552365
51
315.0004592
0
ARC
8
DEFAULT_255_2_778
10
21.6250641
20
3.7775665
40
0.2997853
50
314.9743446
51
0.023866
0
ARC
8
DEFAULT_255_2_778
10
14.3249802
20
3.7778224
40
0.3001309
50
180.0249951
51
269.9941098
0
ARC
8
DEFAULT_255_2_778
10
16.0238393
20
50.3886013
40
0.4989912
50
89.8840201
51
180.1274379
0
ARC
8
DEFAULT_255_2_778
10
16.0258742
20
50.3885162
40
0.4990763
50
359.88235
51
90.11765
0
ARC
8
DEFAULT_255_2_778
10
16.0258742
20
50.3864666
40
0.4990763
50
269.88235
51
0.11765
0
ARC
8
DEFAULT_255_2_778
10
16.0238393
20
50.3863816
40
0.4989912
50
179.8725621
51
270.1159799
0
LINE
8
DEFAULT_255_2_778
10
29.9250494
20
8.3774914
11
29.9250494
21
9.4775914
0
LINE
8
DEFAULT_255_2_778
10
28.4248494
20
81.2473914
11
28.4248494
21
84.2475914
0
LINE
8
DEFAULT_255_2_778
10
15.5248494
20
50.3874914
11
15.5248494
21
50.3874914
0
LINE
8
DEFAULT_255_2_778
10
1.0748494
20
2.9876914
11
1.0748494
21
2.5875914
0
LINE
8
DEFAULT_255_2_778
10
1.0748494
20
2.5875914
11
4.5747494
21
2.5875914
0
LINE
8
DEFAULT_255_2_778
10
4.5747494
20
2.5875914
11
4.5747494
21
2.9876914
0
LINE
8
DEFAULT_255_2_778
10
1.0748459
20
3.387725
11
1.0748459
21
2.987725
0
LINE
8
DEFAULT_255_2_778
10
1.0748459
20
2.987725
11
4.5747459
21
2.987725
0
LINE
8
DEFAULT_255_2_778
10
4.5747459
20
2.987725
11
4.5747459
21
3.387725
0
LINE
8
DEFAULT_255_2_778
10
1.0748459
20
3.787825
11
1.0748459
21
3.387825
0
LINE
8
DEFAULT_255_2_778
10
1.0748459
20
3.387825
11
4.5747459
21
3.387825
0
LINE
8
DEFAULT_255_2_778
10
4.5747459
20
3.387825
11
4.5747459
21
3.787825
0
LINE
8
DEFAULT_255_2_778
10
1.0748459
20
4.1876364
11
1.0748459
21
3.7878364
0
LINE
8
DEFAULT_255_2_778
10
1.0748459
20
3.7878364
11
4.5747459
21
3.7878364
0
LINE
8
DEFAULT_255_2_778
10
4.5747459
20
3.7878364
11
4.5747459
21
4.1876364
0
LINE
8
DEFAULT_255_2_778
10
1.0748459
20
5.0877364
11
1.0748459
21
4.1879364
0
LINE
8
DEFAULT_255_2_778
10
1.0748459
20
4.1879364
11
4.5747459
21
4.1879364
0
LINE
8
DEFAULT_255_2_778
10
4.5747459
20
4.1879364
11
4.5747459
21
5.0877364
0
LINE
8
DEFAULT_255_2_778
10
2.6250459
20
2.3876364
11
2.6250459
21
2.5877364
0
LINE
8
DEFAULT_255_2_778
10
3.0248459
20
2.3876364
11
3.0248459
21
2.5877364
0
LINE
8
DEFAULT_255_2_778
10
2.0250323
20
2.587608
11
2.0250323
21
2.387608
0
LINE
8
DEFAULT_255_2_778
10
2.0250323
20
2.387608
11
3.6249323
21
2.387608
0
LINE
8
DEFAULT_255_2_778
10
3.6249323
20
2.387608
11
3.6249323
21
2.587608
0
LINE
8
DEFAULT_255_2_778
10
3.0249323
20
97.787608
11
3.0249323
21
97.587608
0
LINE
8
DEFAULT_255_2_778
10
2.6247459
20
97.7876041
11
2.6247459
21
97.5876041
0
LINE
8
DEFAULT_255_2_778
10
1.0748459
20
97.1875041
11
1.0748459
21
97.5876041
0
LINE
8
DEFAULT_255_2_778
10
1.0748459
20
97.5876041
11
4.5747459
21
97.5876041
0
LINE
8
DEFAULT_255_2_778
10
4.5747459
20
97.5876041
11
4.5747459
21
97.1875041
0
LINE
8
DEFAULT_255_2_778
10
1.0748459
20
96.7875041
11
1.0748459
21
97.1875041
0
LINE
8
DEFAULT_255_2_778
10
1.0748459
20
97.1875041
11
4.5747459
21
97.1875041
0
LINE
8
DEFAULT_255_2_778
10
4.5747459
20
97.1875041
11
4.5747459
21
96.7875041
0
LINE
8
DEFAULT_255_2_778
10
1.0748459
20
96.3874041
11
1.0748459
21
96.7875041
0
LINE
8
DEFAULT_255_2_778
10
1.0748459
20
96.7875041
11
4.5747459
21
96.7875041
0
LINE
8
DEFAULT_255_2_778
10
4.5747459
20
96.7875041
11
4.5747459
21
96.3874041
0
LINE
8
DEFAULT_255_2_778
10
1.0748459
20
95.9876041
11
1.0748459
21
96.3874041
0
LINE
8
DEFAULT_255_2_778
10
1.0748459
20
96.3874041
11
4.5747459
21
96.3874041
0
LINE
8
DEFAULT_255_2_778
10
4.5747459
20
96.3874041
11
4.5747459
21
95.9876041
0
LINE
8
DEFAULT_255_2_778
10
1.0748459
20
95.0878041
11
1.0748459
21
95.9876041
0
LINE
8
DEFAULT_255_2_778
10
1.0748459
20
95.9876041
11
4.5747459
21
95.9876041
0
LINE
8
DEFAULT_255_2_778
10
4.5747459
20
95.9876041
11
4.5747459
21
95.0878041
0
LINE
8
DEFAULT_255_2_778
10
3.6246149
20
97.5876664
11
3.6246149
21
97.7876664
0
LINE
8
DEFAULT_255_2_778
10
3.6246149
20
97.7876664
11
2.0247149
21
97.7876664
0
LINE
8
DEFAULT_255_2_778
10
2.0247149
20
97.7876664
11
2.0247149
21
97.5876664
0
LINE
8
DEFAULT_255_2_778
10
14.0249149
20
6.4775664
11
14.5249149
21
9.4776664
0
LINE
8
DEFAULT_255_2_778
10
14.5249149
20
9.4776664
11
21.4250149
21
9.4776664
0
LINE
8
DEFAULT_255_2_778
10
21.4250149
20
9.4776664
11
21.9251149
21
6.4775664
0
LINE
8
DEFAULT_255_2_778
10
14.0249149
20
5.4777664
11
21.9248149
21
5.4777664
0
LINE
8
DEFAULT_255_2_778
10
14.3249149
20
3.4777664
11
21.6250149
21
3.4777664
0
LINE
8
DEFAULT_255_2_778
10
14.5250355
20
10.477528
11
16.0249355
21
10.477528
0
LINE
8
DEFAULT_255_2_778
10
14.0249355
20
6.477828
11
14.0249355
21
3.777728
0
LINE
8
DEFAULT_255_2_778
10
15.5248355
20
5.477628
11
15.5248355
21
3.477628
0
LINE
8
DEFAULT_255_2_778
10
19.9248355
20
10.477528
11
21.4248355
21
10.477528
0
LINE
8
DEFAULT_255_2_778
10
21.9248355
20
6.477828
11
21.9248355
21
3.777728
0
LINE
8
DEFAULT_255_2_778
10
20.4249355
20
5.477628
11
20.4249355
21
3.477628
0
LINE
8
DEFAULT_255_2_778
10
14.5250355
20
14.087728
11
14.5250355
21
9.477628
0
ARC
8
DEFAULT_255_2_778
10
31.2250708
20
5.3878215
40
0.3001102
50
269.9827635
51
314.9729322
0
ARC
8
DEFAULT_255_2_778
10
31.2252916
20
5.3874467
40
0.299689
50
314.9937205
51
0.0505906
0
LINE
8
DEFAULT_255_2_778
10
19.9248806
20
14.0877113
11
19.9248806
21
9.4776113
0
LINE
8
DEFAULT_255_2_778
10
16.0249806
20
14.0877113
11
16.0249806
21
9.4776113
0
LINE
8
DEFAULT_255_2_778
10
14.0249806
20
22.7076113
11
22.1748806
21
22.7076113
0
LINE
8
DEFAULT_255_2_778
10
14.0249806
20
21.4876113
11
22.1748806
21
21.4876113
0
LINE
8
DEFAULT_255_2_778
10
14.0249806
20
30.3276113
11
22.1748806
21
30.3276113
0
LINE
8
DEFAULT_255_2_778
10
14.0249806
20
29.1076113
11
22.1748806
21
29.1076113
0
LINE
8
DEFAULT_255_2_778
10
14.0249806
20
37.9476113
11
22.1748806
21
37.9476113
0
LINE
8
DEFAULT_255_2_778
10
14.0249806
20
36.7276113
11
22.1748806
21
36.7276113
0
LINE
8
DEFAULT_255_2_778
10
14.0249806
20
45.5676113
11
22.1748806
21
45.5676113
0
LINE
8
DEFAULT_255_2_778
10
14.0249806
20
44.3476113
11
22.1748806
21
44.3476113
0
LINE
8
DEFAULT_255_2_778
10
22.1748806
20
9.4776113
11
22.1748806
21
82.4476113
0
LINE
8
DEFAULT_255_2_778
10
22.1748806
20
82.4476113
11
14.0249806
21
82.4476113
0
LINE
8
DEFAULT_255_2_778
10
14.0249806
20
82.4476113
11
22.1748806
21
82.4476113
0
LINE
8
DEFAULT_255_2_778
10
14.0249806
20
53.1876113
11
22.1748806
21
53.1876113
0
LINE
8
DEFAULT_255_2_778
10
14.0249806
20
51.9676113
11
22.1748806
21
51.9676113
0
LINE
8
DEFAULT_255_2_778
10
14.0249806
20
60.8076113
11
22.1748806
21
60.8076113
0
LINE
8
DEFAULT_255_2_778
10
14.0249806
20
59.5876113
11
22.1748806
21
59.5876113
0
LINE
8
DEFAULT_255_2_778
10
14.0249806
20
68.4276113
11
22.1748806
21
68.4276113
0
LINE
8
DEFAULT_255_2_778
10
14.0249806
20
67.2076113
11
22.1748806
21
67.2076113
0
LINE
8
DEFAULT_255_2_778
10
14.0249806
20
76.0476113
11
22.1748806
21
76.0476113
0
LINE
8
DEFAULT_255_2_778
10
14.0249806
20
74.8276113
11
22.1748806
21
74.8276113
0
LINE
8
DEFAULT_255_2_778
10
6.3247806
20
90.9873113
11
6.3247806
21
90.1875113
0
LINE
8
DEFAULT_255_2_778
10
6.3247806
20
90.1875113
11
6.8248806
21
90.1875113
0
LINE
8
DEFAULT_255_2_778
10
6.8248806
20
90.1875113
11
6.8248806
21
90.9873113
0
LINE
8
DEFAULT_255_2_778
10
6.8248806
20
90.9873113
11
6.3247806
21
90.9873113
0
LINE
8
DEFAULT_255_2_778
10
6.3247806
20
86.1875113
11
6.3247806
21
85.3874113
0
LINE
8
DEFAULT_255_2_778
10
6.3247806
20
85.3874113
11
6.8248806
21
85.3874113
0
LINE
8
DEFAULT_255_2_778
10
6.8248806
20
85.3874113
11
6.8248806
21
86.1875113
0
LINE
8
DEFAULT_255_2_778
10
6.8248806
20
86.1875113
11
6.3247806
21
86.1875113
0
LINE
8
DEFAULT_255_2_778
10
6.3247806
20
89.3874113
11
6.3247806
21
88.5875113
0
LINE
8
DEFAULT_255_2_778
10
6.3247806
20
88.5875113
11
6.8248806
21
88.5875113
0
LINE
8
DEFAULT_255_2_778
10
6.8248806
20
88.5875113
11
6.8248806
21
89.3874113
0
LINE
8
DEFAULT_255_2_778
10
6.8248806
20
89.3874113
11
6.3247806
21
89.3874113
0
LINE
8
DEFAULT_255_2_778
10
6.3247806
20
87.7874113
11
6.3247806
21
86.9873113
0
LINE
8
DEFAULT_255_2_778
10
6.3247806
20
86.9873113
11
6.8248806
21
86.9873113
0
LINE
8
DEFAULT_255_2_778
10
6.8248806
20
86.9873113
11
6.8248806
21
87.7874113
0
LINE
8
DEFAULT_255_2_778
10
6.8248806
20
87.7874113
11
6.3247806
21
87.7874113
0
ARC
8
DEFAULT_255_2_778
10
31.2245718
20
5.3878282
40
0.3001094
50
270.0208901
51
359.9791099
0
ARC
8
DEFAULT_255_2_778
10
31.2245763
20
5.3878278
40
0.3001094
50
270.0208901
51
359.9791099
0
ARC
8
DEFAULT_255_2_778
10
10.169309
20
67.7895026
40
1.1876248
50
144.5523862
51
180.0909025
0
ARC
8
DEFAULT_255_2_778
10
10.1742343
20
67.7885703
40
1.1921799
50
95.3461268
51
144.6531661
0
ARC
8
DEFAULT_255_2_778
10
10.1746179
20
67.7728976
40
1.2078207
50
89.992039
51
95.2949725
0
ARC
8
DEFAULT_255_2_778
10
10.1766889
20
67.7929126
40
1.1878073
50
54.5551973
51
90.0918026
0
ARC
8
DEFAULT_255_2_778
10
10.175878
20
67.7881748
40
1.1921393
50
5.3460689
51
54.6554969
0
ARC
8
DEFAULT_255_2_778
10
10.1601649
20
67.7877862
40
1.2078207
50
359.9920391
51
5.2949725
0
ARC
8
DEFAULT_255_2_778
10
10.1802187
20
67.7857109
40
1.1877685
50
324.5541132
51
0.0920124
0
ARC
8
DEFAULT_255_2_778
10
10.1753979
20
67.7866097
40
1.1922189
50
275.3437996
51
324.653286
0
ARC
8
DEFAULT_255_2_778
10
10.1749539
20
67.8025795
40
1.2081611
50
269.9920236
51
275.2942295
0
ARC
8
DEFAULT_255_2_778
10
10.1728972
20
67.7820028
40
1.187586
50
234.5513021
51
270.0911123
0
ARC
8
DEFAULT_255_2_778
10
10.1739174
20
67.7870112
40
1.1922594
50
185.3438576
51
234.6509552
0
ARC
8
DEFAULT_255_2_778
10
10.1898468
20
67.7874502
40
1.2081611
50
179.9920236
51
185.2942295
0
LINE
8
DEFAULT_255_2_778
10
21.9248857
20
5.0877184
11
31.2246857
21
5.0877184
0
LINE
8
DEFAULT_255_2_778
10
8.9816857
20
67.7876184
11
8.9816857
21
67.7876184
0
ARC
8
DEFAULT_255_2_778
10
10.1934109
20
67.7917021
40
3.3185963
50
162.8527331
51
180.0659325
0
ARC
8
DEFAULT_255_2_778
10
10.16847
20
67.7941761
40
3.2940384
50
108.0986099
51
162.7659512
0
ARC
8
DEFAULT_255_2_778
10
10.1701503
20
67.774039
40
3.3137045
50
90.5217898
51
108.0180626
0
ARC
8
DEFAULT_255_2_778
10
10.1747149
20
67.6857823
40
3.402001
50
89.9999687
51
90.5851254
0
ARC
8
DEFAULT_255_2_778
10
10.1785158
20
67.7698126
40
3.3179728
50
72.8291516
51
90.0656025
0
ARC
8
DEFAULT_255_2_778
10
10.1806976
20
67.7938054
40
3.294409
50
18.0971057
51
72.7422173
0
ARC
8
DEFAULT_255_2_778
10
10.1613185
20
67.7924351
40
3.3132584
50
0.5219318
51
18.0155319
0
ARC
8
DEFAULT_255_2_778
10
10.0746558
20
67.7878851
40
3.3999611
50
359.9999686
51
0.5853008
0
ARC
8
DEFAULT_255_2_778
10
10.1566462
20
67.7840842
40
3.3179728
50
342.8291516
51
0.0656025
0
ARC
8
DEFAULT_255_2_778
10
10.1806389
20
67.7819024
40
3.294409
50
288.0971057
51
342.7422173
0
ARC
8
DEFAULT_255_2_778
10
10.1792686
20
67.8012815
40
3.3132584
50
270.5219318
51
288.0155319
0
ARC
8
DEFAULT_255_2_778
10
10.1747186
20
67.8879442
40
3.3999611
50
269.9999686
51
270.5853008
0
ARC
8
DEFAULT_255_2_778
10
10.1709177
20
67.8059538
40
3.3179728
50
252.8291516
51
270.0656025
0
ARC
8
DEFAULT_255_2_778
10
10.1687359
20
67.7819611
40
3.294409
50
198.0971057
51
252.7422173
0
ARC
8
DEFAULT_255_2_778
10
10.188115
20
67.7833314
40
3.3132584
50
180.5219318
51
198.0155319
0
ARC
8
DEFAULT_255_2_778
10
10.2747778
20
67.7878814
40
3.3999611
50
179.9999686
51
180.5853008
0
LINE
8
DEFAULT_255_2_778
10
6.8748168
20
67.7878832
11
6.8748168
21
67.7878832
0
ARC
8
DEFAULT_255_2_778
10
10.1694673
20
58.7896494
40
1.1878073
50
144.5551973
51
180.0918026
0
ARC
8
DEFAULT_255_2_778
10
10.1742051
20
58.7888385
40
1.1921393
50
95.3460689
51
144.6554969
0
ARC
8
DEFAULT_255_2_778
10
10.1745937
20
58.7731254
40
1.2078207
50
89.9920391
51
95.2949725
0
ARC
8
DEFAULT_255_2_778
10
10.176669
20
58.7931792
40
1.1877685
50
54.5541132
51
90.0920124
0
ARC
8
DEFAULT_255_2_778
10
10.1757702
20
58.7883584
40
1.1922189
50
5.3437996
51
54.653286
0
ARC
8
DEFAULT_255_2_778
10
10.1598004
20
58.7879144
40
1.2081611
50
359.9920236
51
5.2942295
0
ARC
8
DEFAULT_255_2_778
10
10.180377
20
58.7858577
40
1.187586
50
324.5513021
51
0.0911123
0
ARC
8
DEFAULT_255_2_778
10
10.1753687
20
58.7868779
40
1.1922594
50
275.3438576
51
324.6509552
0
ARC
8
DEFAULT_255_2_778
10
10.1749297
20
58.8028073
40
1.2081611
50
269.9920236
51
275.2942295
0
ARC
8
DEFAULT_255_2_778
10
10.1728773
20
58.7822695
40
1.1876248
50
234.5523862
51
270.0909025
0
ARC
8
DEFAULT_255_2_778
10
10.1738096
20
58.7871948
40
1.1921799
50
185.3461268
51
234.6531661
0
ARC
8
DEFAULT_255_2_778
10
10.1894823
20
58.7875784
40
1.2078207
50
179.992039
51
185.2949725
0
LINE
8
DEFAULT_255_2_778
10
11.3435615
20
68.0265462
11
10.4252615
21
68.3609462
0
LINE
8
DEFAULT_255_2_778
10
10.4252615
20
68.3609462
11
10.4252615
21
67.9968462
0
LINE
8
DEFAULT_255_2_778
10
10.4252615
20
67.9968462
11
9.0001615
21
67.9968462
0
LINE
8
DEFAULT_255_2_778
10
8.9816615
20
58.7877462
11
8.9816615
21
58.7877462
0
ARC
8
DEFAULT_255_2_778
10
10.1934109
20
58.7916021
40
3.3185963
50
162.8527331
51
180.0659325
0
ARC
8
DEFAULT_255_2_778
10
10.16847
20
58.7940761
40
3.2940384
50
108.0986099
51
162.7659512
0
ARC
8
DEFAULT_255_2_778
10
10.1701503
20
58.773939
40
3.3137045
50
90.5217898
51
108.0180626
0
ARC
8
DEFAULT_255_2_778
10
10.1747149
20
58.6856823
40
3.402001
50
89.9999687
51
90.5851254
0
ARC
8
DEFAULT_255_2_778
10
10.1785158
20
58.7697126
40
3.3179728
50
72.8291516
51
90.0656025
0
ARC
8
DEFAULT_255_2_778
10
10.1806976
20
58.7937054
40
3.294409
50
18.0971057
51
72.7422173
0
ARC
8
DEFAULT_255_2_778
10
10.1613185
20
58.7923351
40
3.3132584
50
0.5219318
51
18.0155319
0
ARC
8
DEFAULT_255_2_778
10
10.0746558
20
58.7877851
40
3.3999611
50
359.9999686
51
0.5853008
0
ARC
8
DEFAULT_255_2_778
10
10.1566462
20
58.7839842
40
3.3179728
50
342.8291516
51
0.0656025
0
ARC
8
DEFAULT_255_2_778
10
10.1806389
20
58.7818024
40
3.294409
50
288.0971057
51
342.7422173
0
ARC
8
DEFAULT_255_2_778
10
10.1792686
20
58.8011815
40
3.3132584
50
270.5219318
51
288.0155319
0
ARC
8
DEFAULT_255_2_778
10
10.1747186
20
58.8878442
40
3.3999611
50
269.9999686
51
270.5853008
0
ARC
8
DEFAULT_255_2_778
10
10.1709177
20
58.8058538
40
3.3179728
50
252.8291516
51
270.0656025
0
ARC
8
DEFAULT_255_2_778
10
10.1687359
20
58.7818611
40
3.294409
50
198.0971057
51
252.7422173
0
ARC
8
DEFAULT_255_2_778
10
10.188115
20
58.7832314
40
3.3132584
50
180.5219318
51
198.0155319
0
ARC
8
DEFAULT_255_2_778
10
10.2747778
20
58.7877814
40
3.3999611
50
179.9999686
51
180.5853008
0
LINE
8
DEFAULT_255_2_778
10
6.8748168
20
58.7877832
11
6.8748168
21
58.7877832
0
ARC
8
DEFAULT_255_2_778
10
30.2248787
20
83.8478206
40
0.2997604
50
89.9550591
51
135.0006231
0
ARC
8
DEFAULT_255_2_778
10
30.2247991
20
83.8477058
40
0.2997853
50
134.9743446
51
180.023866
0
ARC
8
DEFAULT_255_2_778
10
31.2252286
20
83.8477058
40
0.2997853
50
359.976134
51
45.0256554
0
ARC
8
DEFAULT_255_2_778
10
31.2251489
20
83.8478202
40
0.2997607
50
44.9994233
51
90.0449246
0
LINE
8
DEFAULT_255_2_778
10
11.3436139
20
59.0266809
11
10.4252139
21
59.3608809
0
LINE
8
DEFAULT_255_2_778
10
10.4252139
20
59.3608809
11
10.4252139
21
58.9967809
0
LINE
8
DEFAULT_255_2_778
10
10.4252139
20
58.9967809
11
9.0002139
21
58.9967809
0
ARC
8
DEFAULT_255_2_778
10
27.1734989
20
14.477903
40
2.7486457
50
146.2822792
51
180.0074936
0
ARC
8
DEFAULT_255_2_778
10
27.1733952
20
14.4789955
40
2.7479531
50
119.9895387
51
146.3000267
0
ARC
8
DEFAULT_255_2_778
10
27.1739758
20
14.4800496
40
2.7473305
50
101.195869
51
120.0110136
0
ARC
8
DEFAULT_255_2_778
10
27.17474
20
14.4755732
40
2.7518702
50
89.9986832
51
101.1933806
0
ARC
8
DEFAULT_255_2_778
10
27.1752229
20
14.4789971
40
2.7484465
50
65.2409452
51
90.0087502
0
ARC
8
DEFAULT_255_2_778
10
27.1724173
20
14.4735955
40
2.7545265
50
59.9982549
51
65.2350054
0
ARC
8
DEFAULT_255_2_778
10
27.1755314
20
14.4781664
40
2.749011
50
26.2837748
51
60.0068263
0
ARC
8
DEFAULT_255_2_778
10
27.1772723
20
14.4780964
40
2.7474811
50
359.9884695
51
26.3011602
0
ARC
8
DEFAULT_255_2_778
10
27.175921
20
14.477149
40
2.7488323
50
326.2834548
51
0.0082217
0
ARC
8
DEFAULT_255_2_778
10
27.176246
20
14.4759394
40
2.7478906
50
299.9894531
51
326.3006729
0
ARC
8
DEFAULT_255_2_778
10
27.1756306
20
14.4749374
40
2.7473305
50
281.195869
51
300.0110136
0
ARC
8
DEFAULT_255_2_778
10
27.1748664
20
14.4794138
40
2.7518702
50
269.9986832
51
281.1933806
0
ARC
8
DEFAULT_255_2_778
10
27.1743835
20
14.4759899
40
2.7484465
50
245.2409452
51
270.0087502
0
ARC
8
DEFAULT_255_2_778
10
27.1771891
20
14.4813914
40
2.7545265
50
239.9982549
51
245.2350054
0
ARC
8
DEFAULT_255_2_778
10
27.1740423
20
14.4767713
40
2.748952
50
206.2828236
51
240.0069032
0
ARC
8
DEFAULT_255_2_778
10
27.1725883
20
14.4769679
40
2.7477353
50
179.9879971
51
206.2999237
0
LINE
8
DEFAULT_255_2_778
10
24.4248532
20
14.4775435
11
24.4248532
21
14.4775435
0
LINE
8
DEFAULT_255_2_778
10
25.9020219
20
15.7503781
11
28.4476219
21
13.2047781
0
LINE
8
DEFAULT_255_2_778
10
25.9020949
20
13.204803
11
28.4475949
21
15.750403
0
LINE
8
DEFAULT_255_2_778
10
22.1748949
20
17.677603
11
30.7248949
21
17.677603
0
LINE
8
DEFAULT_255_2_778
10
30.7248949
20
17.677603
11
30.7248949
21
11.277603
0
ARC
8
DEFAULT_255_2_778
10
27.1734989
20
22.097903
40
2.7486457
50
146.2822792
51
180.0074936
0
ARC
8
DEFAULT_255_2_778
10
27.1733952
20
22.0989955
40
2.7479531
50
119.9895387
51
146.3000267
0
ARC
8
DEFAULT_255_2_778
10
27.1739758
20
22.1000496
40
2.7473305
50
101.195869
51
120.0110136
0
ARC
8
DEFAULT_255_2_778
10
27.17474
20
22.0955732
40
2.7518702
50
89.9986832
51
101.1933806
0
ARC
8
DEFAULT_255_2_778
10
27.1752229
20
22.0989971
40
2.7484465
50
65.2409452
51
90.0087502
0
ARC
8
DEFAULT_255_2_778
10
27.1724173
20
22.0935955
40
2.7545265
50
59.9982549
51
65.2350054
0
ARC
8
DEFAULT_255_2_778
10
27.1755314
20
22.0981664
40
2.749011
50
26.2837748
51
60.0068263
0
ARC
8
DEFAULT_255_2_778
10
27.1772723
20
22.0980964
40
2.7474811
50
359.9884695
51
26.3011602
0
ARC
8
DEFAULT_255_2_778
10
27.175921
20
22.097149
40
2.7488323
50
326.2834548
51
0.0082217
0
ARC
8
DEFAULT_255_2_778
10
27.176246
20
22.0959394
40
2.7478906
50
299.9894531
51
326.3006729
0
ARC
8
DEFAULT_255_2_778
10
27.1756306
20
22.0949374
40
2.7473305
50
281.195869
51
300.0110136
0
ARC
8
DEFAULT_255_2_778
10
27.1748664
20
22.0994138
40
2.7518702
50
269.9986832
51
281.1933806
0
ARC
8
DEFAULT_255_2_778
10
27.1743835
20
22.0959899
40
2.7484465
50
245.2409452
51
270.0087502
0
ARC
8
DEFAULT_255_2_778
10
27.1771891
20
22.1013914
40
2.7545265
50
239.9982549
51
245.2350054
0
ARC
8
DEFAULT_255_2_778
10
27.1740423
20
22.0967713
40
2.748952
50
206.2828236
51
240.0069032
0
ARC
8
DEFAULT_255_2_778
10
27.1725883
20
22.0969679
40
2.7477353
50
179.9879971
51
206.2999237
0
LINE
8
DEFAULT_255_2_778
10
24.4248532
20
22.0975435
11
24.4248532
21
22.0975435
0
LINE
8
DEFAULT_255_2_778
10
25.9020219
20
23.3703781
11
28.4476219
21
20.8247781
0
LINE
8
DEFAULT_255_2_778
10
25.9020219
20
20.8247781
11
28.4476219
21
23.3703781
0
LINE
8
DEFAULT_255_2_778
10
22.1748949
20
25.297603
11
30.7248949
21
25.297603
0
LINE
8
DEFAULT_255_2_778
10
30.7248949
20
25.297603
11
30.7248949
21
18.897603
0
LINE
8
DEFAULT_255_2_778
10
30.7248949
20
18.897603
11
22.1748949
21
18.897603
0
LINE
8
DEFAULT_255_2_778
10
23.175
20
18.897603
11
23.175
21
25.297603
0
ARC
8
DEFAULT_255_2_778
10
27.1734989
20
29.717903
40
2.7486457
50
146.2822792
51
180.0074936
0
ARC
8
DEFAULT_255_2_778
10
27.1733952
20
29.7189955
40
2.7479531
50
119.9895387
51
146.3000267
0
ARC
8
DEFAULT_255_2_778
10
27.1739758
20
29.7200496
40
2.7473305
50
101.195869
51
120.0110136
0
ARC
8
DEFAULT_255_2_778
10
27.17474
20
29.7155732
40
2.7518702
50
89.9986832
51
101.1933806
0
ARC
8
DEFAULT_255_2_778
10
27.1752229
20
29.7189971
40
2.7484465
50
65.2409452
51
90.0087502
0
ARC
8
DEFAULT_255_2_778
10
27.1724173
20
29.7135955
40
2.7545265
50
59.9982549
51
65.2350054
0
ARC
8
DEFAULT_255_2_778
10
27.1755314
20
29.7181664
40
2.749011
50
26.2837748
51
60.0068263
0
ARC
8
DEFAULT_255_2_778
10
27.1772723
20
29.7180964
40
2.7474811
50
359.9884695
51
26.3011602
0
ARC
8
DEFAULT_255_2_778
10
27.175921
20
29.717149
40
2.7488323
50
326.2834548
51
0.0082217
0
ARC
8
DEFAULT_255_2_778
10
27.176246
20
29.7159394
40
2.7478906
50
299.9894531
51
326.3006729
0
ARC
8
DEFAULT_255_2_778
10
27.1756306
20
29.7149374
40
2.7473305
50
281.195869
51
300.0110136
0
ARC
8
DEFAULT_255_2_778
10
27.1748664
20
29.7194138
40
2.7518702
50
269.9986832
51
281.1933806
0
ARC
8
DEFAULT_255_2_778
10
27.1743835
20
29.7159899
40
2.7484465
50
245.2409452
51
270.0087502
0
ARC
8
DEFAULT_255_2_778
10
27.1771891
20
29.7213914
40
2.7545265
50
239.9982549
51
245.2350054
0
ARC
8
DEFAULT_255_2_778
10
27.1740423
20
29.7167713
40
2.748952
50
206.2828236
51
240.0069032
0
ARC
8
DEFAULT_255_2_778
10
27.1725883
20
29.7169679
40
2.7477353
50
179.9879971
51
206.2999237
0
LINE
8
DEFAULT_255_2_778
10
24.4248532
20
29.7175435
11
24.4248532
21
29.7175435
0
LINE
8
DEFAULT_255_2_778
10
25.9020219
20
30.9903781
11
28.4476219
21
28.4447781
0
LINE
8
DEFAULT_255_2_778
10
25.9020219
20
28.4447781
11
28.4476219
21
30.9903781
0
LINE
8
DEFAULT_255_2_778
10
22.1748949
20
32.917603
11
30.7248949
21
32.917603
0
LINE
8
DEFAULT_255_2_778
10
30.7248949
20
32.917603
11
30.7248949
21
26.517603
0
LINE
8
DEFAULT_255_2_778
10
30.7248949
20
26.517603
11
22.1748949
21
26.517603
0
LINE
8
DEFAULT_255_2_778
10
23.175
20
26.517603
11
23.175
21
32.917603
0
ARC
8
DEFAULT_255_2_778
10
27.1734989
20
37.337903
40
2.7486457
50
146.2822792
51
180.0074936
0
ARC
8
DEFAULT_255_2_778
10
27.1733952
20
37.3389955
40
2.7479531
50
119.9895387
51
146.3000267
0
ARC
8
DEFAULT_255_2_778
10
27.1739758
20
37.3400496
40
2.7473305
50
101.195869
51
120.0110136
0
ARC
8
DEFAULT_255_2_778
10
27.17474
20
37.3355732
40
2.7518702
50
89.9986832
51
101.1933806
0
ARC
8
DEFAULT_255_2_778
10
27.1752229
20
37.3389971
40
2.7484465
50
65.2409452
51
90.0087502
0
ARC
8
DEFAULT_255_2_778
10
27.1724173
20
37.3335955
40
2.7545265
50
59.9982549
51
65.2350054
0
ARC
8
DEFAULT_255_2_778
10
27.1755314
20
37.3381664
40
2.749011
50
26.2837748
51
60.0068263
0
ARC
8
DEFAULT_255_2_778
10
27.1772723
20
37.3380964
40
2.7474811
50
359.9884695
51
26.3011602
0
ARC
8
DEFAULT_255_2_778
10
27.175921
20
37.337149
40
2.7488323
50
326.2834548
51
0.0082217
0
ARC
8
DEFAULT_255_2_778
10
27.176246
20
37.3359394
40
2.7478906
50
299.9894531
51
326.3006729
0
ARC
8
DEFAULT_255_2_778
10
27.1756306
20
37.3349374
40
2.7473305
50
281.195869
51
300.0110136
0
ARC
8
DEFAULT_255_2_778
10
27.1748664
20
37.3394138
40
2.7518702
50
269.9986832
51
281.1933806
0
ARC
8
DEFAULT_255_2_778
10
27.1743835
20
37.3359899
40
2.7484465
50
245.2409452
51
270.0087502
0
ARC
8
DEFAULT_255_2_778
10
27.1771891
20
37.3413914
40
2.7545265
50
239.9982549
51
245.2350054
0
ARC
8
DEFAULT_255_2_778
10
27.1740423
20
37.3367713
40
2.748952
50
206.2828236
51
240.0069032
0
ARC
8
DEFAULT_255_2_778
10
27.1725883
20
37.3369679
40
2.7477353
50
179.9879971
51
206.2999237
0
LINE
8
DEFAULT_255_2_778
10
24.4248532
20
37.3375435
11
24.4248532
21
37.3375435
0
LINE
8
DEFAULT_255_2_778
10
25.9020219
20
38.6103781
11
28.4476219
21
36.0647781
0
LINE
8
DEFAULT_255_2_778
10
25.9020219
20
36.0647781
11
28.4476219
21
38.6103781
0
LINE
8
DEFAULT_255_2_778
10
22.1748949
20
40.537603
11
30.7248949
21
40.537603
0
LINE
8
DEFAULT_255_2_778
10
30.7248949
20
40.537603
11
30.7248949
21
34.137603
0
LINE
8
DEFAULT_255_2_778
10
30.7248949
20
34.137603
11
22.1748949
21
34.137603
0
LINE
8
DEFAULT_255_2_778
10
23.175
20
34.137603
11
23.175
21
40.537603
0
ARC
8
DEFAULT_255_2_778
10
27.1736579
20
44.9578963
40
2.7488047
50
146.2832822
51
180.0073532
0
ARC
8
DEFAULT_255_2_778
10
27.1728986
20
44.9594511
40
2.7473102
50
119.9853183
51
146.301465
0
ARC
8
DEFAULT_255_2_778
10
27.1739758
20
44.9600496
40
2.7473305
50
101.195869
51
120.0110136
0
ARC
8
DEFAULT_255_2_778
10
27.17474
20
44.9555732
40
2.7518702
50
89.9986832
51
101.1933806
0
ARC
8
DEFAULT_255_2_778
10
27.1752229
20
44.9589971
40
2.7484465
50
65.2409452
51
90.0087502
0
ARC
8
DEFAULT_255_2_778
10
27.1724173
20
44.9535955
40
2.7545265
50
59.9982549
51
65.2350054
0
ARC
8
DEFAULT_255_2_778
10
27.175931
20
44.9585073
40
2.748516
50
26.281696
51
60.0104886
0
ARC
8
DEFAULT_255_2_778
10
27.1770933
20
44.9580868
40
2.74766
50
359.9886699
51
26.3002895
0
ARC
8
DEFAULT_255_2_778
10
27.175921
20
44.957149
40
2.7488323
50
326.2834548
51
0.0082217
0
ARC
8
DEFAULT_255_2_778
10
27.176246
20
44.9559394
40
2.7478906
50
299.9894531
51
326.3006729
0
ARC
8
DEFAULT_255_2_778
10
27.1756306
20
44.9549374
40
2.7473305
50
281.195869
51
300.0110136
0
ARC
8
DEFAULT_255_2_778
10
27.1748664
20
44.9594138
40
2.7518702
50
269.9986832
51
281.1933806
0
ARC
8
DEFAULT_255_2_778
10
27.1743835
20
44.9559899
40
2.7484465
50
245.2409452
51
270.0087502
0
ARC
8
DEFAULT_255_2_778
10
27.1771891
20
44.9613914
40
2.7545265
50
239.9982549
51
245.2350054
0
ARC
8
DEFAULT_255_2_778
10
27.1740423
20
44.9567713
40
2.748952
50
206.2828236
51
240.0069032
0
ARC
8
DEFAULT_255_2_778
10
27.1725883
20
44.9569679
40
2.7477353
50
179.9879971
51
206.2999237
0
LINE
8
DEFAULT_255_2_778
10
24.4248532
20
44.9575435
11
24.4248532
21
44.9575435
0
LINE
8
DEFAULT_255_2_778
10
25.9020219
20
46.2303781
11
28.4476219
21
43.6847781
0
LINE
8
DEFAULT_255_2_778
10
25.9020219
20
43.6847781
11
28.4476219
21
46.2303781
0
LINE
8
DEFAULT_255_2_778
10
22.1748949
20
48.157603
11
30.7248949
21
48.157603
0
LINE
8
DEFAULT_255_2_778
10
30.7248949
20
48.157603
11
30.7248949
21
41.757603
0
LINE
8
DEFAULT_255_2_778
10
30.7248949
20
41.757603
11
22.1748949
21
41.757603
0
LINE
8
DEFAULT_255_2_778
10
23.175
20
41.757603
11
23.175
21
48.157603
0
ARC
8
DEFAULT_255_2_778
10
27.1734989
20
52.577903
40
2.7486457
50
146.2822792
51
180.0074936
0
ARC
8
DEFAULT_255_2_778
10
27.1733952
20
52.5789955
40
2.7479531
50
119.9895387
51
146.3000267
0
ARC
8
DEFAULT_255_2_778
10
27.1739758
20
52.5800496
40
2.7473305
50
101.195869
51
120.0110136
0
ARC
8
DEFAULT_255_2_778
10
27.17474
20
52.5755732
40
2.7518702
50
89.9986832
51
101.1933806
0
ARC
8
DEFAULT_255_2_778
10
27.1752229
20
52.5789971
40
2.7484465
50
65.2409452
51
90.0087502
0
ARC
8
DEFAULT_255_2_778
10
27.1724173
20
52.5735955
40
2.7545265
50
59.9982549
51
65.2350054
0
ARC
8
DEFAULT_255_2_778
10
27.1755314
20
52.5781664
40
2.749011
50
26.2837748
51
60.0068263
0
ARC
8
DEFAULT_255_2_778
10
27.1772723
20
52.5780964
40
2.7474811
50
359.9884695
51
26.3011602
0
ARC
8
DEFAULT_255_2_778
10
27.175921
20
52.577149
40
2.7488323
50
326.2834548
51
0.0082217
0
ARC
8
DEFAULT_255_2_778
10
27.176246
20
52.5759394
40
2.7478906
50
299.9894531
51
326.3006729
0
ARC
8
DEFAULT_255_2_778
10
27.1756306
20
52.5749374
40
2.7473305
50
281.195869
51
300.0110136
0
ARC
8
DEFAULT_255_2_778
10
27.1748664
20
52.5794138
40
2.7518702
50
269.9986832
51
281.1933806
0
ARC
8
DEFAULT_255_2_778
10
27.1743835
20
52.5759899
40
2.7484465
50
245.2409452
51
270.0087502
0
ARC
8
DEFAULT_255_2_778
10
27.1771891
20
52.5813914
40
2.7545265
50
239.9982549
51
245.2350054
0
ARC
8
DEFAULT_255_2_778
10
27.1740423
20
52.5767713
40
2.748952
50
206.2828236
51
240.0069032
0
ARC
8
DEFAULT_255_2_778
10
27.1725883
20
52.5769679
40
2.7477353
50
179.9879971
51
206.2999237
0
LINE
8
DEFAULT_255_2_778
10
24.4248532
20
52.5775435
11
24.4248532
21
52.5775435
0
LINE
8
DEFAULT_255_2_778
10
25.9020219
20
53.8503781
11
28.4476219
21
51.3047781
0
LINE
8
DEFAULT_255_2_778
10
25.9020219
20
51.3047781
11
28.4476219
21
53.8503781
0
LINE
8
DEFAULT_255_2_778
10
22.1748949
20
55.777603
11
30.7248949
21
55.777603
0
LINE
8
DEFAULT_255_2_778
10
30.7248949
20
55.777603
11
30.7248949
21
49.377603
0
LINE
8
DEFAULT_255_2_778
10
30.7248949
20
49.377603
11
22.1748949
21
49.377603
0
LINE
8
DEFAULT_255_2_778
10
23.175
20
49.377603
11
23.175
21
55.777603
0
ARC
8
DEFAULT_255_2_778
10
27.1734989
20
60.1979129
40
2.7486457
50
146.2822792
51
180.0074936
0
ARC
8
DEFAULT_255_2_778
10
27.1733952
20
60.1990055
40
2.7479531
50
119.9895387
51
146.3000267
0
ARC
8
DEFAULT_255_2_778
10
27.1739758
20
60.2000595
40
2.7473305
50
101.195869
51
120.0110136
0
ARC
8
DEFAULT_255_2_778
10
27.17474
20
60.1955831
40
2.7518702
50
89.9986832
51
101.1933806
0
ARC
8
DEFAULT_255_2_778
10
27.1752229
20
60.199007
40
2.7484465
50
65.2409452
51
90.0087502
0
ARC
8
DEFAULT_255_2_778
10
27.1724173
20
60.1936055
40
2.7545265
50
59.9982549
51
65.2350054
0
ARC
8
DEFAULT_255_2_778
10
27.1755314
20
60.1981763
40
2.749011
50
26.2837748
51
60.0068263
0
ARC
8
DEFAULT_255_2_778
10
27.1772723
20
60.1981063
40
2.7474811
50
359.9884695
51
26.3011602
0
ARC
8
DEFAULT_255_2_778
10
27.175921
20
60.197159
40
2.7488323
50
326.2834548
51
0.0082217
0
ARC
8
DEFAULT_255_2_778
10
27.176246
20
60.1959493
40
2.7478906
50
299.9894531
51
326.3006729
0
ARC
8
DEFAULT_255_2_778
10
27.1756306
20
60.1949473
40
2.7473305
50
281.195869
51
300.0110136
0
ARC
8
DEFAULT_255_2_778
10
27.1748664
20
60.1994238
40
2.7518702
50
269.9986832
51
281.1933806
0
ARC
8
DEFAULT_255_2_778
10
27.1743835
20
60.1959998
40
2.7484465
50
245.2409452
51
270.0087502
0
ARC
8
DEFAULT_255_2_778
10
27.1771891
20
60.2014014
40
2.7545265
50
239.9982549
51
245.2350054
0
ARC
8
DEFAULT_255_2_778
10
27.1740423
20
60.1967812
40
2.748952
50
206.2828236
51
240.0069032
0
ARC
8
DEFAULT_255_2_778
10
27.1725883
20
60.1969778
40
2.7477353
50
179.9879971
51
206.2999237
0
LINE
8
DEFAULT_255_2_778
10
24.4248532
20
60.1975534
11
24.4248532
21
60.1975534
0
LINE
8
DEFAULT_255_2_778
10
25.9020219
20
61.4703781
11
28.4476219
21
58.9247781
0
LINE
8
DEFAULT_255_2_778
10
25.9020219
20
58.9247781
11
28.4476219
21
61.4703781
0
LINE
8
DEFAULT_255_2_778
10
22.1748949
20
63.397603
11
30.7248949
21
63.397603
0
LINE
8
DEFAULT_255_2_778
10
30.7248949
20
63.397603
11
30.7248949
21
56.997603
0
LINE
8
DEFAULT_255_2_778
10
30.7248949
20
56.997603
11
22.1748949
21
56.997603
0
LINE
8
DEFAULT_255_2_778
10
23.175
20
56.997603
11
23.175
21
63.397603
0
ARC
8
DEFAULT_255_2_778
10
27.1734989
20
67.817903
40
2.7486457
50
146.2822792
51
180.0074936
0
ARC
8
DEFAULT_255_2_778
10
27.1733952
20
67.8189955
40
2.7479531
50
119.9895387
51
146.3000267
0
ARC
8
DEFAULT_255_2_778
10
27.1739758
20
67.8200496
40
2.7473305
50
101.195869
51
120.0110136
0
ARC
8
DEFAULT_255_2_778
10
27.17474
20
67.8155732
40
2.7518702
50
89.9986832
51
101.1933806
0
ARC
8
DEFAULT_255_2_778
10
27.1752229
20
67.8189971
40
2.7484465
50
65.2409452
51
90.0087502
0
ARC
8
DEFAULT_255_2_778
10
27.1724173
20
67.8135955
40
2.7545265
50
59.9982549
51
65.2350054
0
ARC
8
DEFAULT_255_2_778
10
27.1755314
20
67.8181664
40
2.749011
50
26.2837748
51
60.0068263
0
ARC
8
DEFAULT_255_2_778
10
27.1772723
20
67.8180964
40
2.7474811
50
359.9884695
51
26.3011602
0
ARC
8
DEFAULT_255_2_778
10
27.175921
20
67.817149
40
2.7488323
50
326.2834548
51
0.0082217
0
ARC
8
DEFAULT_255_2_778
10
27.176246
20
67.8159394
40
2.7478906
50
299.9894531
51
326.3006729
0
ARC
8
DEFAULT_255_2_778
10
27.1756306
20
67.8149374
40
2.7473305
50
281.195869
51
300.0110136
0
ARC
8
DEFAULT_255_2_778
10
27.1748664
20
67.8194138
40
2.7518702
50
269.9986832
51
281.1933806
0
ARC
8
DEFAULT_255_2_778
10
27.1743835
20
67.8159899
40
2.7484465
50
245.2409452
51
270.0087502
0
ARC
8
DEFAULT_255_2_778
10
27.1771891
20
67.8213914
40
2.7545265
50
239.9982549
51
245.2350054
0
ARC
8
DEFAULT_255_2_778
10
27.1740423
20
67.8167713
40
2.748952
50
206.2828236
51
240.0069032
0
ARC
8
DEFAULT_255_2_778
10
27.1725883
20
67.8169679
40
2.7477353
50
179.9879971
51
206.2999237
0
LINE
8
DEFAULT_255_2_778
10
24.4248532
20
67.8175435
11
24.4248532
21
67.8175435
0
LINE
8
DEFAULT_255_2_778
10
25.9020219
20
69.0903781
11
28.4476219
21
66.5447781
0
LINE
8
DEFAULT_255_2_778
10
25.9020219
20
66.5447781
11
28.4476219
21
69.0903781
0
LINE
8
DEFAULT_255_2_778
10
22.1748949
20
71.017603
11
30.7248949
21
71.017603
0
LINE
8
DEFAULT_255_2_778
10
30.7248949
20
71.017603
11
30.7248949
21
64.617603
0
LINE
8
DEFAULT_255_2_778
10
30.7248949
20
64.617603
11
22.1748949
21
64.617603
0
LINE
8
DEFAULT_255_2_778
10
23.175
20
64.617603
11
23.175
21
71.017603
0
ARC
8
DEFAULT_255_2_778
10
27.1734989
20
75.437903
40
2.7486457
50
146.2822792
51
180.0074936
0
ARC
8
DEFAULT_255_2_778
10
27.1733952
20
75.4389955
40
2.7479531
50
119.9895387
51
146.3000267
0
ARC
8
DEFAULT_255_2_778
10
27.1739758
20
75.4400496
40
2.7473305
50
101.195869
51
120.0110136
0
ARC
8
DEFAULT_255_2_778
10
27.17474
20
75.4355732
40
2.7518702
50
89.9986832
51
101.1933806
0
ARC
8
DEFAULT_255_2_778
10
27.1752229
20
75.4389971
40
2.7484465
50
65.2409452
51
90.0087502
0
ARC
8
DEFAULT_255_2_778
10
27.1724173
20
75.4335955
40
2.7545265
50
59.9982549
51
65.2350054
0
ARC
8
DEFAULT_255_2_778
10
27.1755314
20
75.4381664
40
2.749011
50
26.2837748
51
60.0068263
0
ARC
8
DEFAULT_255_2_778
10
27.1772723
20
75.4380964
40
2.7474811
50
359.9884695
51
26.3011602
0
ARC
8
DEFAULT_255_2_778
10
27.175921
20
75.437149
40
2.7488323
50
326.2834548
51
0.0082217
0
ARC
8
DEFAULT_255_2_778
10
27.176246
20
75.4359394
40
2.7478906
50
299.9894531
51
326.3006729
0
ARC
8
DEFAULT_255_2_778
10
27.1756306
20
75.4349374
40
2.7473305
50
281.195869
51
300.0110136
0
ARC
8
DEFAULT_255_2_778
10
27.1748664
20
75.4394138
40
2.7518702
50
269.9986832
51
281.1933806
0
ARC
8
DEFAULT_255_2_778
10
27.1743835
20
75.4359899
40
2.7484465
50
245.2409452
51
270.0087502
0
ARC
8
DEFAULT_255_2_778
10
27.1771891
20
75.4413914
40
2.7545265
50
239.9982549
51
245.2350054
0
ARC
8
DEFAULT_255_2_778
10
27.1740423
20
75.4367713
40
2.748952
50
206.2828236
51
240.0069032
0
ARC
8
DEFAULT_255_2_778
10
27.1725883
20
75.4369679
40
2.7477353
50
179.9879971
51
206.2999237
0
LINE
8
DEFAULT_255_2_778
10
24.4248532
20
75.4375435
11
24.4248532
21
75.4375435
0
LINE
8
DEFAULT_255_2_778
10
25.9020219
20
76.7103781
11
28.4476219
21
74.1647781
0
LINE
8
DEFAULT_255_2_778
10
25.9020219
20
74.1647781
11
28.4476219
21
76.7103781
0
LINE
8
DEFAULT_255_2_778
10
22.1748949
20
78.637603
11
30.7248949
21
78.637603
0
LINE
8
DEFAULT_255_2_778
10
30.7248949
20
78.637603
11
30.7248949
21
72.237603
0
LINE
8
DEFAULT_255_2_778
10
30.7248949
20
72.237603
11
22.1748949
21
72.237603
0
LINE
8
DEFAULT_255_2_778
10
23.175
20
72.237603
11
23.175
21
78.637603
0
ARC
8
DEFAULT_255_2_778
10
19.0235989
20
18.287903
40
2.7486457
50
146.2822792
51
180.0074936
0
ARC
8
DEFAULT_255_2_778
10
19.0234952
20
18.2889955
40
2.7479531
50
119.9895387
51
146.3000267
0
ARC
8
DEFAULT_255_2_778
10
19.0240758
20
18.2900496
40
2.7473305
50
101.195869
51
120.0110136
0
ARC
8
DEFAULT_255_2_778
10
19.02484
20
18.2855732
40
2.7518702
50
89.9986832
51
101.1933806
0
ARC
8
DEFAULT_255_2_778
10
19.0253229
20
18.2889971
40
2.7484465
50
65.2409452
51
90.0087502
0
ARC
8
DEFAULT_255_2_778
10
19.0225173
20
18.2835955
40
2.7545265
50
59.9982549
51
65.2350054
0
ARC
8
DEFAULT_255_2_778
10
19.0256314
20
18.2881664
40
2.749011
50
26.2837748
51
60.0068263
0
ARC
8
DEFAULT_255_2_778
10
19.0273723
20
18.2880964
40
2.7474811
50
359.9884695
51
26.3011602
0
ARC
8
DEFAULT_255_2_778
10
19.026021
20
18.287149
40
2.7488323
50
326.2834548
51
0.0082217
0
ARC
8
DEFAULT_255_2_778
10
19.026346
20
18.2859394
40
2.7478906
50
299.9894531
51
326.3006729
0
ARC
8
DEFAULT_255_2_778
10
19.0257306
20
18.2849374
40
2.7473305
50
281.195869
51
300.0110136
0
ARC
8
DEFAULT_255_2_778
10
19.0249664
20
18.2894138
40
2.7518702
50
269.9986832
51
281.1933806
0
ARC
8
DEFAULT_255_2_778
10
19.0244835
20
18.2859899
40
2.7484465
50
245.2409452
51
270.0087502
0
ARC
8
DEFAULT_255_2_778
10
19.0272891
20
18.2913914
40
2.7545265
50
239.9982549
51
245.2350054
0
ARC
8
DEFAULT_255_2_778
10
19.0241423
20
18.2867713
40
2.748952
50
206.2828236
51
240.0069032
0
ARC
8
DEFAULT_255_2_778
10
19.0226883
20
18.2869679
40
2.7477353
50
179.9879971
51
206.2999237
0
LINE
8
DEFAULT_255_2_778
10
16.2749532
20
18.2875435
11
16.2749532
21
18.2875435
0
LINE
8
DEFAULT_255_2_778
10
17.7521219
20
19.5603781
11
20.2977219
21
17.0147781
0
LINE
8
DEFAULT_255_2_778
10
17.7520917
20
17.014803
11
20.2975917
21
19.560403
0
LINE
8
DEFAULT_255_2_778
10
15.0249917
20
15.087603
11
15.0249917
21
21.487603
0
ARC
8
DEFAULT_255_2_778
10
19.0235989
20
25.907903
40
2.7486457
50
146.2822792
51
180.0074936
0
ARC
8
DEFAULT_255_2_778
10
19.0234952
20
25.9089955
40
2.7479531
50
119.9895387
51
146.3000267
0
ARC
8
DEFAULT_255_2_778
10
19.0240758
20
25.9100496
40
2.7473305
50
101.195869
51
120.0110136
0
ARC
8
DEFAULT_255_2_778
10
19.02484
20
25.9055732
40
2.7518702
50
89.9986832
51
101.1933806
0
ARC
8
DEFAULT_255_2_778
10
19.0253229
20
25.9089971
40
2.7484465
50
65.2409452
51
90.0087502
0
ARC
8
DEFAULT_255_2_778
10
19.0225173
20
25.9035955
40
2.7545265
50
59.9982549
51
65.2350054
0
ARC
8
DEFAULT_255_2_778
10
19.0256314
20
25.9081664
40
2.749011
50
26.2837748
51
60.0068263
0
ARC
8
DEFAULT_255_2_778
10
19.0273723
20
25.9080964
40
2.7474811
50
359.9884695
51
26.3011602
0
ARC
8
DEFAULT_255_2_778
10
19.026021
20
25.907149
40
2.7488323
50
326.2834548
51
0.0082217
0
ARC
8
DEFAULT_255_2_778
10
19.026346
20
25.9059394
40
2.7478906
50
299.9894531
51
326.3006729
0
ARC
8
DEFAULT_255_2_778
10
19.0257306
20
25.9049374
40
2.7473305
50
281.195869
51
300.0110136
0
ARC
8
DEFAULT_255_2_778
10
19.0249664
20
25.9094138
40
2.7518702
50
269.9986832
51
281.1933806
0
ARC
8
DEFAULT_255_2_778
10
19.0244835
20
25.9059899
40
2.7484465
50
245.2409452
51
270.0087502
0
ARC
8
DEFAULT_255_2_778
10
19.0272891
20
25.9113914
40
2.7545265
50
239.9982549
51
245.2350054
0
ARC
8
DEFAULT_255_2_778
10
19.0241423
20
25.9067713
40
2.748952
50
206.2828236
51
240.0069032
0
ARC
8
DEFAULT_255_2_778
10
19.0226883
20
25.9069679
40
2.7477353
50
179.9879971
51
206.2999237
0
LINE
8
DEFAULT_255_2_778
10
16.2749532
20
25.9075435
11
16.2749532
21
25.9075435
0
LINE
8
DEFAULT_255_2_778
10
17.7521219
20
27.1803781
11
20.2977219
21
24.6347781
0
LINE
8
DEFAULT_255_2_778
10
17.7520917
20
24.634803
11
20.2975917
21
27.180403
0
LINE
8
DEFAULT_255_2_778
10
15.0249917
20
22.707603
11
15.0249917
21
29.107603
0
ARC
8
DEFAULT_255_2_778
10
19.0235989
20
33.527903
40
2.7486457
50
146.2822792
51
180.0074936
0
ARC
8
DEFAULT_255_2_778
10
19.0234952
20
33.5289955
40
2.7479531
50
119.9895387
51
146.3000267
0
ARC
8
DEFAULT_255_2_778
10
19.0240758
20
33.5300496
40
2.7473305
50
101.195869
51
120.0110136
0
ARC
8
DEFAULT_255_2_778
10
19.02484
20
33.5255732
40
2.7518702
50
89.9986832
51
101.1933806
0
ARC
8
DEFAULT_255_2_778
10
19.0253229
20
33.5289971
40
2.7484465
50
65.2409452
51
90.0087502
0
ARC
8
DEFAULT_255_2_778
10
19.0225173
20
33.5235955
40
2.7545265
50
59.9982549
51
65.2350054
0
ARC
8
DEFAULT_255_2_778
10
19.0256314
20
33.5281664
40
2.749011
50
26.2837748
51
60.0068263
0
ARC
8
DEFAULT_255_2_778
10
19.0273723
20
33.5280964
40
2.7474811
50
359.9884695
51
26.3011602
0
ARC
8
DEFAULT_255_2_778
10
19.026021
20
33.527149
40
2.7488323
50
326.2834548
51
0.0082217
0
ARC
8
DEFAULT_255_2_778
10
19.026346
20
33.5259394
40
2.7478906
50
299.9894531
51
326.3006729
0
ARC
8
DEFAULT_255_2_778
10
19.0257306
20
33.5249374
40
2.7473305
50
281.195869
51
300.0110136
0
ARC
8
DEFAULT_255_2_778
10
19.0249664
20
33.5294138
40
2.7518702
50
269.9986832
51
281.1933806
0
ARC
8
DEFAULT_255_2_778
10
19.0244835
20
33.5259899
40
2.7484465
50
245.2409452
51
270.0087502
0
ARC
8
DEFAULT_255_2_778
10
19.0272891
20
33.5313914
40
2.7545265
50
239.9982549
51
245.2350054
0
ARC
8
DEFAULT_255_2_778
10
19.0241423
20
33.5267713
40
2.748952
50
206.2828236
51
240.0069032
0
ARC
8
DEFAULT_255_2_778
10
19.0226883
20
33.5269679
40
2.7477353
50
179.9879971
51
206.2999237
0
LINE
8
DEFAULT_255_2_778
10
16.2749532
20
33.5275435
11
16.2749532
21
33.5275435
0
LINE
8
DEFAULT_255_2_778
10
17.7521219
20
34.8003781
11
20.2977219
21
32.2547781
0
LINE
8
DEFAULT_255_2_778
10
17.7520917
20
32.254803
11
20.2975917
21
34.800403
0
LINE
8
DEFAULT_255_2_778
10
15.0249917
20
30.327603
11
15.0249917
21
36.727603
0
ARC
8
DEFAULT_255_2_778
10
19.0235989
20
41.1479129
40
2.7486457
50
146.2822792
51
180.0074936
0
ARC
8
DEFAULT_255_2_778
10
19.0234952
20
41.1490055
40
2.7479531
50
119.9895387
51
146.3000267
0
ARC
8
DEFAULT_255_2_778
10
19.0240758
20
41.1500595
40
2.7473305
50
101.195869
51
120.0110136
0
ARC
8
DEFAULT_255_2_778
10
19.02484
20
41.1455831
40
2.7518702
50
89.9986832
51
101.1933806
0
ARC
8
DEFAULT_255_2_778
10
19.0253229
20
41.149007
40
2.7484465
50
65.2409452
51
90.0087502
0
ARC
8
DEFAULT_255_2_778
10
19.0225173
20
41.1436055
40
2.7545265
50
59.9982549
51
65.2350054
0
ARC
8
DEFAULT_255_2_778
10
19.0256314
20
41.1481763
40
2.749011
50
26.2837748
51
60.0068263
0
ARC
8
DEFAULT_255_2_778
10
19.0273723
20
41.1481063
40
2.7474811
50
359.9884695
51
26.3011602
0
ARC
8
DEFAULT_255_2_778
10
19.026021
20
41.147159
40
2.7488323
50
326.2834548
51
0.0082217
0
ARC
8
DEFAULT_255_2_778
10
19.026346
20
41.1459493
40
2.7478906
50
299.9894531
51
326.3006729
0
ARC
8
DEFAULT_255_2_778
10
19.0257306
20
41.1449473
40
2.7473305
50
281.195869
51
300.0110136
0
ARC
8
DEFAULT_255_2_778
10
19.0249664
20
41.1494238
40
2.7518702
50
269.9986832
51
281.1933806
0
ARC
8
DEFAULT_255_2_778
10
19.0244835
20
41.1459998
40
2.7484465
50
245.2409452
51
270.0087502
0
ARC
8
DEFAULT_255_2_778
10
19.0272891
20
41.1514014
40
2.7545265
50
239.9982549
51
245.2350054
0
ARC
8
DEFAULT_255_2_778
10
19.0241423
20
41.1467812
40
2.748952
50
206.2828236
51
240.0069032
0
ARC
8
DEFAULT_255_2_778
10
19.0226883
20
41.1469778
40
2.7477353
50
179.9879971
51
206.2999237
0
LINE
8
DEFAULT_255_2_778
10
16.2749532
20
41.1475534
11
16.2749532
21
41.1475534
0
LINE
8
DEFAULT_255_2_778
10
17.7521219
20
42.4203781
11
20.2977219
21
39.8747781
0
LINE
8
DEFAULT_255_2_778
10
17.7520917
20
39.874803
11
20.2975917
21
42.420403
0
LINE
8
DEFAULT_255_2_778
10
15.0249917
20
37.947603
11
15.0249917
21
44.347603
0
ARC
8
DEFAULT_255_2_778
10
19.0237579
20
48.7681963
40
2.7488047
50
146.2832822
51
180.0073532
0
ARC
8
DEFAULT_255_2_778
10
19.0229986
20
48.7697511
40
2.7473102
50
119.9853183
51
146.301465
0
ARC
8
DEFAULT_255_2_778
10
19.0240758
20
48.7703496
40
2.7473305
50
101.195869
51
120.0110136
0
ARC
8
DEFAULT_255_2_778
10
19.02484
20
48.7658732
40
2.7518702
50
89.9986832
51
101.1933806
0
ARC
8
DEFAULT_255_2_778
10
19.0253229
20
48.7692971
40
2.7484465
50
65.2409452
51
90.0087502
0
ARC
8
DEFAULT_255_2_778
10
19.0225173
20
48.7638955
40
2.7545265
50
59.9982549
51
65.2350054
0
ARC
8
DEFAULT_255_2_778
10
19.026031
20
48.7688073
40
2.748516
50
26.281696
51
60.0104886
0
ARC
8
DEFAULT_255_2_778
10
19.0271933
20
48.7683868
40
2.74766
50
359.9886699
51
26.3002895
0
ARC
8
DEFAULT_255_2_778
10
19.026021
20
48.767449
40
2.7488323
50
326.2834548
51
0.0082217
0
ARC
8
DEFAULT_255_2_778
10
19.026346
20
48.7662394
40
2.7478906
50
299.9894531
51
326.3006729
0
ARC
8
DEFAULT_255_2_778
10
19.0257306
20
48.7652374
40
2.7473305
50
281.195869
51
300.0110136
0
ARC
8
DEFAULT_255_2_778
10
19.0249664
20
48.7697138
40
2.7518702
50
269.9986832
51
281.1933806
0
ARC
8
DEFAULT_255_2_778
10
19.0244835
20
48.7662899
40
2.7484465
50
245.2409452
51
270.0087502
0
ARC
8
DEFAULT_255_2_778
10
19.0272891
20
48.7716914
40
2.7545265
50
239.9982549
51
245.2350054
0
ARC
8
DEFAULT_255_2_778
10
19.0241423
20
48.7670713
40
2.748952
50
206.2828236
51
240.0069032
0
ARC
8
DEFAULT_255_2_778
10
19.0226883
20
48.7672679
40
2.7477353
50
179.9879971
51
206.2999237
0
LINE
8
DEFAULT_255_2_778
10
16.2749532
20
48.7678435
11
16.2749532
21
48.7678435
0
LINE
8
DEFAULT_255_2_778
10
17.7521219
20
50.0403781
11
20.2977219
21
47.4947781
0
LINE
8
DEFAULT_255_2_778
10
17.7520917
20
47.494803
11
20.2975917
21
50.040403
0
LINE
8
DEFAULT_255_2_778
10
15.0249917
20
45.567603
11
15.0249917
21
51.967603
0
ARC
8
DEFAULT_255_2_778
10
19.0235989
20
56.387903
40
2.7486457
50
146.2822792
51
180.0074936
0
ARC
8
DEFAULT_255_2_778
10
19.0234952
20
56.3889955
40
2.7479531
50
119.9895387
51
146.3000267
0
ARC
8
DEFAULT_255_2_778
10
19.0240758
20
56.3900496
40
2.7473305
50
101.195869
51
120.0110136
0
ARC
8
DEFAULT_255_2_778
10
19.02484
20
56.3855732
40
2.7518702
50
89.9986832
51
101.1933806
0
ARC
8
DEFAULT_255_2_778
10
19.0253229
20
56.3889971
40
2.7484465
50
65.2409452
51
90.0087502
0
ARC
8
DEFAULT_255_2_778
10
19.0225173
20
56.3835955
40
2.7545265
50
59.9982549
51
65.2350054
0
ARC
8
DEFAULT_255_2_778
10
19.0256314
20
56.3881664
40
2.749011
50
26.2837748
51
60.0068263
0
ARC
8
DEFAULT_255_2_778
10
19.0273723
20
56.3880964
40
2.7474811
50
359.9884695
51
26.3011602
0
ARC
8
DEFAULT_255_2_778
10
19.026021
20
56.387149
40
2.7488323
50
326.2834548
51
0.0082217
0
ARC
8
DEFAULT_255_2_778
10
19.026346
20
56.3859394
40
2.7478906
50
299.9894531
51
326.3006729
0
ARC
8
DEFAULT_255_2_778
10
19.0257306
20
56.3849374
40
2.7473305
50
281.195869
51
300.0110136
0
ARC
8
DEFAULT_255_2_778
10
19.0249664
20
56.3894138
40
2.7518702
50
269.9986832
51
281.1933806
0
ARC
8
DEFAULT_255_2_778
10
19.0244835
20
56.3859899
40
2.7484465
50
245.2409452
51
270.0087502
0
ARC
8
DEFAULT_255_2_778
10
19.0272891
20
56.3913914
40
2.7545265
50
239.9982549
51
245.2350054
0
ARC
8
DEFAULT_255_2_778
10
19.0241423
20
56.3867713
40
2.748952
50
206.2828236
51
240.0069032
0
ARC
8
DEFAULT_255_2_778
10
19.0226883
20
56.3869679
40
2.7477353
50
179.9879971
51
206.2999237
0
LINE
8
DEFAULT_255_2_778
10
16.2749532
20
56.3875435
11
16.2749532
21
56.3875435
0
LINE
8
DEFAULT_255_2_778
10
17.7521219
20
57.6603781
11
20.2977219
21
55.1147781
0
LINE
8
DEFAULT_255_2_778
10
17.7520917
20
55.114803
11
20.2975917
21
57.660403
0
LINE
8
DEFAULT_255_2_778
10
15.0249917
20
53.187603
11
15.0249917
21
59.587603
0
ARC
8
DEFAULT_255_2_778
10
19.0237579
20
64.0078963
40
2.7488047
50
146.2832822
51
180.0073532
0
ARC
8
DEFAULT_255_2_778
10
19.0229986
20
64.0094511
40
2.7473102
50
119.9853183
51
146.301465
0
ARC
8
DEFAULT_255_2_778
10
19.0240758
20
64.0100496
40
2.7473305
50
101.195869
51
120.0110136
0
ARC
8
DEFAULT_255_2_778
10
19.02484
20
64.0055732
40
2.7518702
50
89.9986832
51
101.1933806
0
ARC
8
DEFAULT_255_2_778
10
19.0253229
20
64.0089971
40
2.7484465
50
65.2409452
51
90.0087502
0
ARC
8
DEFAULT_255_2_778
10
19.0225173
20
64.0035955
40
2.7545265
50
59.9982549
51
65.2350054
0
ARC
8
DEFAULT_255_2_778
10
19.026031
20
64.0085073
40
2.748516
50
26.281696
51
60.0104886
0
ARC
8
DEFAULT_255_2_778
10
19.0271933
20
64.0080868
40
2.74766
50
359.9886699
51
26.3002895
0
ARC
8
DEFAULT_255_2_778
10
19.026021
20
64.007149
40
2.7488323
50
326.2834548
51
0.0082217
0
ARC
8
DEFAULT_255_2_778
10
19.026346
20
64.0059394
40
2.7478906
50
299.9894531
51
326.3006729
0
ARC
8
DEFAULT_255_2_778
10
19.0257306
20
64.0049374
40
2.7473305
50
281.195869
51
300.0110136
0
ARC
8
DEFAULT_255_2_778
10
19.0249664
20
64.0094138
40
2.7518702
50
269.9986832
51
281.1933806
0
ARC
8
DEFAULT_255_2_778
10
19.0244835
20
64.0059899
40
2.7484465
50
245.2409452
51
270.0087502
0
ARC
8
DEFAULT_255_2_778
10
19.0272891
20
64.0113914
40
2.7545265
50
239.9982549
51
245.2350054
0
ARC
8
DEFAULT_255_2_778
10
19.0241423
20
64.0067713
40
2.748952
50
206.2828236
51
240.0069032
0
ARC
8
DEFAULT_255_2_778
10
19.0226883
20
64.0069679
40
2.7477353
50
179.9879971
51
206.2999237
0
LINE
8
DEFAULT_255_2_778
10
16.2749532
20
64.0075435
11
16.2749532
21
64.0075435
0
LINE
8
DEFAULT_255_2_778
10
17.7521219
20
65.2803781
11
20.2977219
21
62.7347781
0
LINE
8
DEFAULT_255_2_778
10
17.7520917
20
62.734803
11
20.2975917
21
65.280403
0
LINE
8
DEFAULT_255_2_778
10
15.0249917
20
60.807603
11
15.0249917
21
67.207603
0
ARC
8
DEFAULT_255_2_778
10
19.0235989
20
71.627903
40
2.7486457
50
146.2822792
51
180.0074936
0
ARC
8
DEFAULT_255_2_778
10
19.0234952
20
71.6289955
40
2.7479531
50
119.9895387
51
146.3000267
0
ARC
8
DEFAULT_255_2_778
10
19.0240758
20
71.6300496
40
2.7473305
50
101.195869
51
120.0110136
0
ARC
8
DEFAULT_255_2_778
10
19.02484
20
71.6255732
40
2.7518702
50
89.9986832
51
101.1933806
0
ARC
8
DEFAULT_255_2_778
10
19.0253229
20
71.6289971
40
2.7484465
50
65.2409452
51
90.0087502
0
ARC
8
DEFAULT_255_2_778
10
19.0225173
20
71.6235955
40
2.7545265
50
59.9982549
51
65.2350054
0
ARC
8
DEFAULT_255_2_778
10
19.0256314
20
71.6281664
40
2.749011
50
26.2837748
51
60.0068263
0
ARC
8
DEFAULT_255_2_778
10
19.0273723
20
71.6280964
40
2.7474811
50
359.9884695
51
26.3011602
0
ARC
8
DEFAULT_255_2_778
10
19.026021
20
71.627149
40
2.7488323
50
326.2834548
51
0.0082217
0
ARC
8
DEFAULT_255_2_778
10
19.026346
20
71.6259394
40
2.7478906
50
299.9894531
51
326.3006729
0
ARC
8
DEFAULT_255_2_778
10
19.0257306
20
71.6249374
40
2.7473305
50
281.195869
51
300.0110136
0
ARC
8
DEFAULT_255_2_778
10
19.0249664
20
71.6294138
40
2.7518702
50
269.9986832
51
281.1933806
0
ARC
8
DEFAULT_255_2_778
10
19.0244835
20
71.6259899
40
2.7484465
50
245.2409452
51
270.0087502
0
ARC
8
DEFAULT_255_2_778
10
19.0272891
20
71.6313914
40
2.7545265
50
239.9982549
51
245.2350054
0
ARC
8
DEFAULT_255_2_778
10
19.0241423
20
71.6267713
40
2.748952
50
206.2828236
51
240.0069032
0
ARC
8
DEFAULT_255_2_778
10
19.0226883
20
71.6269679
40
2.7477353
50
179.9879971
51
206.2999237
0
LINE
8
DEFAULT_255_2_778
10
16.2749532
20
71.6275435
11
16.2749532
21
71.6275435
0
LINE
8
DEFAULT_255_2_778
10
17.7521219
20
72.9003781
11
20.2977219
21
70.3547781
0
LINE
8
DEFAULT_255_2_778
10
17.7520917
20
70.354803
11
20.2975917
21
72.900403
0
LINE
8
DEFAULT_255_2_778
10
15.0249917
20
68.427603
11
15.0249917
21
74.827603
0
ARC
8
DEFAULT_255_2_778
10
19.0235989
20
79.247903
40
2.7486457
50
146.2822792
51
180.0074936
0
ARC
8
DEFAULT_255_2_778
10
19.0234952
20
79.2489955
40
2.7479531
50
119.9895387
51
146.3000267
0
ARC
8
DEFAULT_255_2_778
10
19.0240758
20
79.2500496
40
2.7473305
50
101.195869
51
120.0110136
0
ARC
8
DEFAULT_255_2_778
10
19.02484
20
79.2455732
40
2.7518702
50
89.9986832
51
101.1933806
0
ARC
8
DEFAULT_255_2_778
10
19.0253229
20
79.2489971
40
2.7484465
50
65.2409452
51
90.0087502
0
ARC
8
DEFAULT_255_2_778
10
19.0225173
20
79.2435955
40
2.7545265
50
59.9982549
51
65.2350054
0
ARC
8
DEFAULT_255_2_778
10
19.0256314
20
79.2481664
40
2.749011
50
26.2837748
51
60.0068263
0
ARC
8
DEFAULT_255_2_778
10
19.0273723
20
79.2480964
40
2.7474811
50
359.9884695
51
26.3011602
0
ARC
8
DEFAULT_255_2_778
10
19.026021
20
79.247149
40
2.7488323
50
326.2834548
51
0.0082217
0
ARC
8
DEFAULT_255_2_778
10
19.026346
20
79.2459394
40
2.7478906
50
299.9894531
51
326.3006729
0
ARC
8
DEFAULT_255_2_778
10
19.0257306
20
79.2449374
40
2.7473305
50
281.195869
51
300.0110136
0
ARC
8
DEFAULT_255_2_778
10
19.0249664
20
79.2494138
40
2.7518702
50
269.9986832
51
281.1933806
0
ARC
8
DEFAULT_255_2_778
10
19.0244835
20
79.2459899
40
2.7484465
50
245.2409452
51
270.0087502
0
ARC
8
DEFAULT_255_2_778
10
19.0272891
20
79.2513914
40
2.7545265
50
239.9982549
51
245.2350054
0
ARC
8
DEFAULT_255_2_778
10
19.0241423
20
79.2467713
40
2.748952
50
206.2828236
51
240.0069032
0
ARC
8
DEFAULT_255_2_778
10
19.0226883
20
79.2469679
40
2.7477353
50
179.9879971
51
206.2999237
0
LINE
8
DEFAULT_255_2_778
10
16.2749532
20
79.2475435
11
16.2749532
21
79.2475435
0
LINE
8
DEFAULT_255_2_778
10
17.7521219
20
80.5203781
11
20.2977219
21
77.9747781
0
LINE
8
DEFAULT_255_2_778
10
17.7520917
20
77.974803
11
20.2975917
21
80.520403
0
LINE
8
DEFAULT_255_2_778
10
15.0249917
20
76.047603
11
15.0249917
21
82.447603
0
ENDSEC
0
EOF