0
SECTION
2
HEADER
9
$MEASUREMENT
70
1
0
ENDSEC
0
SECTION
2
TABLES
0
TABLE
2
LTYPE
0
LTYPE
72
65
70
64
2
CONTINUOUS
3
______
73
0
40
0
0
ENDTAB
0
TABLE
2
LAYER
0
LAYER
2
DEFAULT_255_2_778
70
0
62
255
6
CONTINUOUS
0
LAYER
2
DEFAULT_255_1_234
70
0
62
255
6
CONTINUOUS
0
LAYER
2
DEFAULT_255_2_778_1
70
0
62
255
6
CONTINUOUS
0
ENDTAB
0
ENDSEC
0
SECTION
2
ENTITIES
0
ARC
8
DEFAULT_255_2_778
10
3.5700693
20
75.805203
40
0.7914215
50
129.1312896
51
180.1450914
0
ARC
8
DEFAULT_255_2_778
10
3.5703345
20
75.8056901
40
0.7912112
50
89.854026
51
129.1684493
0
ARC
8
DEFAULT_255_2_778
10
25.7993937
20
75.8053767
40
0.7915249
50
39.4792447
51
90.147911
0
ARC
8
DEFAULT_255_2_778
10
25.7999935
20
75.8052233
40
0.7911595
50
359.8533901
51
39.5154338
0
ARC
8
DEFAULT_255_2_778
10
25.7996693
20
-1.9863492
40
0.7914836
50
309.4761667
51
0.1482649
0
ARC
8
DEFAULT_255_2_778
10
25.799398
20
-1.9867803
40
0.7913235
50
269.8517415
51
309.511178
0
ARC
8
DEFAULT_255_2_778
10
3.570342
20
-1.9867221
40
0.7913815
50
219.1282118
51
270.1454017
0
ARC
8
DEFAULT_255_2_778
10
3.5700247
20
-1.9863397
40
0.7913769
50
179.8524075
51
219.1641908
0
LINE
8
DEFAULT_255_2_778
10
3.5723503
20
76.5968989
11
25.7973503
21
76.5968989
0
LINE
8
DEFAULT_255_2_778
10
26.5911503
20
75.8031989
11
26.5911503
21
-1.9843011
0
LINE
8
DEFAULT_255_2_778
10
25.7973503
20
-2.7781011
11
3.5723503
21
-2.7781011
0
LINE
8
DEFAULT_255_2_778
10
2.7786503
20
-1.9843011
11
2.7786503
21
75.8031989
0
LINE
8
DEFAULT_255_1_234
10
10.053623
20
-0.2802337
11
10.2086355
21
-0.2802337
0
LINE
8
DEFAULT_255_1_234
10
9.3082777
20
-0.1212053
11
9.3082777
21
-0.0087609
0
LINE
8
DEFAULT_255_1_234
10
10.2086355
20
0.1422357
11
10.053623
21
0.1422357
0
LINE
8
DEFAULT_255_1_234
10
9.4632902
20
-0.0127768
11
9.4632902
21
-0.1260243
0
ARC
8
DEFAULT_255_1_234
10
9.6605742
20
-0.2205154
40
0.5513052
50
340.1774281
51
353.7814284
0
ARC
8
DEFAULT_255_1_234
10
9.8177095
20
-0.2790418
40
0.3836379
50
311.4558989
51
340.4421614
0
ARC
8
DEFAULT_255_1_234
10
9.8143763
20
-0.2679472
40
0.3941894
50
282.4333181
51
310.7513653
0
ARC
8
DEFAULT_255_1_234
10
9.7704502
20
-0.0864321
40
0.5809175
50
269.9358511
51
282.809604
0
ARC
8
DEFAULT_255_1_234
10
9.7652568
20
0.0593212
40
0.7266847
50
270.0021091
51
270.3581957
0
ARC
8
DEFAULT_255_1_234
10
9.7599985
20
-0.2007415
40
0.4666519
50
250.7884749
51
270.6489167
0
ARC
8
DEFAULT_255_1_234
10
9.743182
20
-0.2644681
40
0.4009729
50
219.3627325
51
250.0611886
0
ARC
8
DEFAULT_255_1_234
10
9.8261031
20
-0.1939958
40
0.5097822
50
193.5479632
51
219.5756669
0
ARC
8
DEFAULT_255_1_234
10
10.0632652
20
-0.1324081
40
0.7547848
50
181.1218675
51
193.87563
0
ARC
8
DEFAULT_255_1_234
10
10.2702833
20
-0.121342
40
0.9620055
50
179.9918545
51
181.5394234
0
ARC
8
DEFAULT_255_1_234
10
10.0851935
20
-0.0050212
40
0.7769248
50
169.5837241
51
180.2757934
0
ARC
8
DEFAULT_255_1_234
10
9.9014873
20
0.0289229
40
0.590109
50
155.0365899
51
169.6003176
0
ARC
8
DEFAULT_255_1_234
10
9.7879337
20
0.0836677
40
0.4640625
50
136.783148
51
155.2472683
0
ARC
8
DEFAULT_255_1_234
10
9.7489814
20
0.1167562
40
0.4130255
50
121.7633186
51
136.428115
0
ARC
8
DEFAULT_255_1_234
10
9.7624776
20
0.0918227
40
0.4413323
50
95.6459699
51
121.5490577
0
ARC
8
DEFAULT_255_1_234
10
9.7782058
20
-0.0190051
40
0.55319
50
89.924208
51
96.1377933
0
ARC
8
DEFAULT_255_1_234
10
9.7832491
20
-0.0071458
40
0.5413475
50
76.6779277
51
90.4563316
0
ARC
8
DEFAULT_255_1_234
10
9.8226114
20
0.1519114
40
0.3775041
50
47.485847
51
76.9287264
0
ARC
8
DEFAULT_255_1_234
10
9.8079087
20
0.1419159
40
0.3948286
50
16.5424086
51
46.8933463
0
ARC
8
DEFAULT_255_1_234
10
9.6471244
20
0.0890861
40
0.564021
50
5.4072051
51
17.0365086
0
ARC
8
DEFAULT_255_1_234
10
9.5032261
20
0.0659679
40
0.5556559
50
7.8891745
51
15.9239216
0
ARC
8
DEFAULT_255_1_234
10
9.7019274
20
0.1236631
40
0.3487515
50
15.7653144
51
27.9410532
0
ARC
8
DEFAULT_255_1_234
10
9.8123492
20
0.182779
40
0.2235026
50
27.8166557
51
46.4008329
0
ARC
8
DEFAULT_255_1_234
10
9.8173135
20
0.1822082
40
0.2205286
50
47.4371857
51
75.0698205
0
ARC
8
DEFAULT_255_1_234
10
9.7864529
20
0.0747765
40
0.3322915
50
74.7008593
51
87.8124495
0
ARC
8
DEFAULT_255_1_234
10
9.7791217
20
-0.0308156
40
0.4380987
50
87.3814673
51
90.0240855
0
ARC
8
DEFAULT_255_1_234
10
9.775276
20
0.0869291
40
0.3203749
50
89.3451631
51
108.5745436
0
ARC
8
DEFAULT_255_1_234
10
9.7615865
20
0.1382908
40
0.2673494
50
109.2998449
51
143.3037509
0
ARC
8
DEFAULT_255_1_234
10
9.8377938
20
0.0796881
40
0.3634757
50
143.0753173
51
163.1916937
0
ARC
8
DEFAULT_255_1_234
10
10.0329666
20
0.0180967
40
0.5681262
50
162.9373603
51
174.6208611
0
ARC
8
DEFAULT_255_1_234
10
10.2955708
20
-0.010699
40
0.8322832
50
174.3419979
51
180.1430411
0
ARC
8
DEFAULT_255_1_234
10
10.2024864
20
-0.1301302
40
0.7392076
50
179.6817502
51
189.150529
0
ARC
8
DEFAULT_255_1_234
10
9.9524112
20
-0.171781
40
0.4856932
50
188.9910863
51
203.5773039
0
ARC
8
DEFAULT_255_1_234
10
9.8444445
20
-0.2165789
40
0.3688271
50
203.9077269
51
215.1312379
0
ARC
8
DEFAULT_255_1_234
10
9.7521539
20
-0.2881059
40
0.2522457
50
213.9071664
51
263.8849284
0
ARC
8
DEFAULT_255_1_234
10
9.7646868
20
-0.2096482
40
0.3316174
50
263.1758525
51
270.1031083
0
ARC
8
DEFAULT_255_1_234
10
9.767896
20
-0.0849635
40
0.4563091
50
269.6719807
51
279.0609165
0
ARC
8
DEFAULT_255_1_234
10
9.7945728
20
-0.2462093
40
0.2928759
50
278.8750225
51
293.6346586
0
ARC
8
DEFAULT_255_1_234
10
9.8265936
20
-0.32141
40
0.2111472
50
293.8553404
51
310.0518804
0
ARC
8
DEFAULT_255_1_234
10
9.827079
20
-0.3276484
40
0.2060917
50
311.0646779
51
332.0108348
0
ARC
8
DEFAULT_255_1_234
10
9.7078517
20
-0.2619022
40
0.3422352
50
331.6588543
51
343.2878891
0
ARC
8
DEFAULT_255_1_234
10
9.5016032
20
-0.1985202
40
0.5580003
50
343.1446044
51
351.010618
0
ARC
8
DEFAULT_255_1_234
10
9.3474678
20
-0.1704129
40
0.7146438
50
350.7157277
51
351.1602153
0
LINE
8
DEFAULT_255_1_234
10
10.9090031
20
-0.3123606
11
10.9090031
21
0.5181211
0
LINE
8
DEFAULT_255_1_234
10
10.9090031
20
0.5181211
11
11.0640157
21
0.5181211
0
LINE
8
DEFAULT_255_1_234
10
11.0640157
20
0.5181211
11
11.0640157
21
-0.3099511
0
LINE
8
DEFAULT_255_1_234
10
10.3258989
20
-0.3284241
11
10.4801083
21
-0.3284241
0
ARC
8
DEFAULT_255_1_234
10
10.6149342
20
-0.3137911
40
0.4490979
50
346.3129415
51
0.4899112
0
ARC
8
DEFAULT_255_1_234
10
10.7517691
20
-0.3488271
40
0.3078632
50
313.3793358
51
346.6225026
0
ARC
8
DEFAULT_255_1_234
10
10.7316878
20
-0.3235478
40
0.3400404
50
281.1587967
51
312.9131091
0
ARC
8
DEFAULT_255_1_234
10
10.6976342
20
-0.1740815
40
0.4932916
50
269.6424364
51
281.6795951
0
ARC
8
DEFAULT_255_1_234
10
10.6907706
20
-0.1191618
40
0.5482147
50
258.9990078
51
270.3955952
0
ARC
8
DEFAULT_255_1_234
10
10.653301
20
-0.3040254
40
0.359601
50
239.6256123
51
259.238693
0
ARC
8
DEFAULT_255_1_234
10
10.6244093
20
-0.3585331
40
0.2979777
50
227.4959765
51
239.1188186
0
ARC
8
DEFAULT_255_1_234
10
10.6206659
20
-0.3646311
40
0.2909561
50
191.339631
51
227.2280909
0
ARC
8
DEFAULT_255_1_234
10
10.76113
20
-0.3313969
40
0.4352412
50
179.6086538
51
191.9934722
0
ARC
8
DEFAULT_255_1_234
10
10.7745322
20
-0.3306573
40
0.2944324
50
179.5654258
51
192.070398
0
ARC
8
DEFAULT_255_1_234
10
10.6773812
20
-0.3524921
40
0.194866
50
191.7656467
51
215.6461951
0
ARC
8
DEFAULT_255_1_234
10
10.6595313
20
-0.3632454
40
0.1741017
50
216.1938368
51
224.3931108
0
ARC
8
DEFAULT_255_1_234
10
10.6602199
20
-0.3605527
40
0.1764834
50
224.8613677
51
254.362656
0
ARC
8
DEFAULT_255_1_234
10
10.6872913
20
-0.271099
40
0.2699302
50
253.9471729
51
267.3949949
0
ARC
8
DEFAULT_255_1_234
10
10.694342
20
-0.1786933
40
0.362572
50
266.9456419
51
270.0337791
0
ARC
8
DEFAULT_255_1_234
10
10.69688
20
-0.294877
40
0.2463991
50
269.4595111
51
286.1822844
0
ARC
8
DEFAULT_255_1_234
10
10.711009
20
-0.3466953
40
0.1926982
50
286.4416479
51
315.8044008
0
ARC
8
DEFAULT_255_1_234
10
10.7055897
20
-0.3424793
40
0.1995241
50
316.0212565
51
345.4794351
0
ARC
8
DEFAULT_255_1_234
10
10.6085404
20
-0.3151425
40
0.3003349
50
345.0729543
51
358.325089
0
ARC
8
DEFAULT_255_1_234
10
10.5209375
20
-0.3095432
40
0.3880759
50
357.8767804
51
359.5840246
0
LINE
8
DEFAULT_255_1_234
10
11.7764309
20
0.5237433
11
11.7764309
21
-0.6513
0
LINE
8
DEFAULT_255_1_234
10
11.7764309
20
-0.6513
11
11.6270405
21
-0.6513
0
LINE
8
DEFAULT_255_1_234
10
11.6270405
20
-0.6513
11
11.6270405
21
0.3390133
0
LINE
8
DEFAULT_255_1_234
10
11.6270405
20
0.3390133
11
11.3274567
21
0.2289785
0
LINE
8
DEFAULT_255_1_234
10
11.3274567
20
0.2289785
11
11.3274567
21
0.3639117
0
LINE
8
DEFAULT_255_1_234
10
11.3274567
20
0.3639117
11
11.7531388
21
0.5237433
0
LINE
8
DEFAULT_255_1_234
10
11.7531388
20
0.5237433
11
11.7764309
21
0.5237433
0
LINE
8
DEFAULT_255_1_234
10
12.31777
20
0.5181211
11
12.5025
21
-0.2826432
0
LINE
8
DEFAULT_255_1_234
10
12.5025
20
-0.2826432
11
12.5249889
21
-0.4368526
0
LINE
8
DEFAULT_255_1_234
10
12.5249889
20
-0.4368526
11
12.557919
21
-0.2979035
0
LINE
8
DEFAULT_255_1_234
10
12.557919
20
-0.2979035
11
12.7892331
21
0.5181211
0
LINE
8
DEFAULT_255_1_234
10
12.7892331
20
0.5181211
11
12.9193472
21
0.5181211
0
LINE
8
DEFAULT_255_1_234
10
12.9193472
20
0.5181211
11
13.1450391
21
-0.2979035
0
LINE
8
DEFAULT_255_1_234
10
13.1450391
20
-0.2979035
11
13.177166
21
-0.4392621
0
LINE
8
DEFAULT_255_1_234
10
13.177166
20
-0.4392621
11
13.2020644
21
-0.28184
0
LINE
8
DEFAULT_255_1_234
10
13.2020644
20
-0.28184
11
13.3835817
21
0.5181211
0
LINE
8
DEFAULT_255_1_234
10
13.3835817
20
0.5181211
11
13.5385942
21
0.5181211
0
LINE
8
DEFAULT_255_1_234
10
13.5385942
20
0.5181211
11
13.2550739
21
-0.6513
0
LINE
8
DEFAULT_255_1_234
10
13.2550739
20
-0.6513
11
13.1145185
21
-0.6513
0
LINE
8
DEFAULT_255_1_234
10
13.1145185
20
-0.6513
11
12.8735663
21
0.2008674
0
LINE
8
DEFAULT_255_1_234
10
12.8735663
20
0.2008674
11
12.8550933
21
0.2900197
0
LINE
8
DEFAULT_255_1_234
10
12.8550933
20
0.2900197
11
12.8366203
21
0.2008674
0
LINE
8
DEFAULT_255_1_234
10
12.8366203
20
0.2008674
11
12.5868333
21
-0.6513
0
LINE
8
DEFAULT_255_1_234
10
12.5868333
20
-0.6513
11
12.4462778
21
-0.6513
0
LINE
8
DEFAULT_255_1_234
10
12.4462778
20
-0.6513
11
12.1635606
21
0.5181211
0
LINE
8
DEFAULT_255_1_234
10
12.1635606
20
0.5181211
11
12.31777
21
0.5181211
0
LINE
8
DEFAULT_255_1_234
10
13.9474097
20
-0.0938974
11
13.9474097
21
-0.2151766
0
LINE
8
DEFAULT_255_1_234
10
13.9474097
20
-0.2151766
11
13.5554609
21
-0.2151766
0
LINE
8
DEFAULT_255_1_234
10
13.5554609
20
-0.2151766
11
13.5554609
21
-0.0938974
0
LINE
8
DEFAULT_255_1_234
10
13.5554609
20
-0.0938974
11
13.9474097
21
-0.0938974
0
LINE
8
DEFAULT_255_1_234
10
14.544971
20
-0.1934909
11
14.2694824
21
-0.1934909
0
LINE
8
DEFAULT_255_1_234
10
14.2694824
20
-0.1934909
11
14.2694824
21
-0.6513
0
LINE
8
DEFAULT_255_1_234
10
14.2694824
20
-0.6513
11
14.115273
21
-0.6513
0
LINE
8
DEFAULT_255_1_234
10
14.115273
20
-0.6513
11
14.115273
21
0.5181211
0
LINE
8
DEFAULT_255_1_234
10
14.115273
20
0.5181211
11
14.5465774
21
0.5181211
0
LINE
8
DEFAULT_255_1_234
10
14.2694824
20
0.3912196
11
14.2694824
21
-0.0673926
0
LINE
8
DEFAULT_255_1_234
10
14.2694824
20
-0.0673926
11
14.5465774
21
-0.0673926
0
LINE
8
DEFAULT_255_1_234
10
14.5554123
20
0.3912196
11
14.2694824
21
0.3912196
0
ARC
8
DEFAULT_255_1_234
10
14.5507901
20
-0.0877805
40
0.6059162
50
78.8378113
51
90.3983573
0
ARC
8
DEFAULT_255_1_234
10
14.5923914
20
0.1142879
40
0.3996205
50
58.9632738
51
79.0810598
0
ARC
8
DEFAULT_255_1_234
10
14.6225457
20
0.1702721
40
0.3361177
50
48.0197965
51
58.447194
0
ARC
8
DEFAULT_255_1_234
10
14.6314317
20
0.1788225
40
0.3238191
50
3.3375044
51
48.1766626
0
ARC
8
DEFAULT_255_1_234
10
14.5084157
20
0.1611171
40
0.4477806
50
359.9477528
51
4.6829065
0
ARC
8
DEFAULT_255_1_234
10
14.5207474
20
0.1568628
40
0.4354656
50
346.1877825
51
0.5060252
0
ARC
8
DEFAULT_255_1_234
10
14.6566341
20
0.1215731
40
0.295089
50
310.8831995
51
346.5426355
0
ARC
8
DEFAULT_255_1_234
10
14.6257762
20
0.1632695
40
0.3468331
50
286.6925341
51
310.2288297
0
ARC
8
DEFAULT_255_1_234
10
14.5688592
20
0.3422882
40
0.5346654
50
274.6850312
51
287.0245141
0
ARC
8
DEFAULT_255_1_234
10
14.5463315
20
0.5631932
40
0.7566852
50
269.8969846
51
275.018904
0
ARC
8
DEFAULT_255_1_234
10
14.5490907
20
0.3552707
40
0.4226708
50
269.6593078
51
279.4153575
0
ARC
8
DEFAULT_255_1_234
10
14.5748182
20
0.2062133
40
0.2714146
50
279.2049762
51
294.9900808
0
ARC
8
DEFAULT_255_1_234
10
14.6038508
20
0.1414508
40
0.2004525
50
295.2888114
51
311.2911209
0
ARC
8
DEFAULT_255_1_234
10
14.6109402
20
0.130922
40
0.1878703
50
311.7854996
51
347.2861051
0
ARC
8
DEFAULT_255_1_234
10
14.512556
20
0.1562092
40
0.2894234
50
346.6893224
51
0.1059443
0
ARC
8
DEFAULT_255_1_234
10
14.4370456
20
0.1590685
40
0.3649409
50
359.6350983
51
0.0053152
0
ARC
8
DEFAULT_255_1_234
10
14.5340784
20
0.1615937
40
0.2679199
50
359.4672059
51
15.5933957
0
ARC
8
DEFAULT_255_1_234
10
14.5965673
20
0.1784779
40
0.2031932
50
15.7442113
51
46.6203375
0
ARC
8
DEFAULT_255_1_234
10
14.5817893
20
0.1614484
40
0.2257226
50
46.8628658
51
75.6676503
0
ARC
8
DEFAULT_255_1_234
10
14.5523714
20
0.0555718
40
0.3355939
50
75.276167
51
88.2915297
0
ARC
8
DEFAULT_255_1_234
10
14.546542
20
-0.0322476
40
0.4235602
50
87.8575022
51
88.8000139
0
LINE
8
DEFAULT_255_1_234
10
16.0517251
20
0.5181211
11
16.0517251
21
-0.6513
0
LINE
8
DEFAULT_255_1_234
10
16.0517251
20
-0.6513
11
15.8967126
21
-0.6513
0
LINE
8
DEFAULT_255_1_234
10
15.8967126
20
-0.6513
11
15.8967126
21
-0.110764
0
LINE
8
DEFAULT_255_1_234
10
15.8967126
20
-0.110764
11
15.307183
21
-0.110764
0
LINE
8
DEFAULT_255_1_234
10
15.307183
20
-0.110764
11
15.307183
21
-0.6513
0
LINE
8
DEFAULT_255_1_234
10
15.307183
20
-0.6513
11
15.1529736
21
-0.6513
0
LINE
8
DEFAULT_255_1_234
10
15.1529736
20
-0.6513
11
15.1529736
21
0.5181211
0
LINE
8
DEFAULT_255_1_234
10
15.1529736
20
0.5181211
11
15.307183
21
0.5181211
0
LINE
8
DEFAULT_255_1_234
10
15.307183
20
0.5181211
11
15.307183
21
0.0153343
0
LINE
8
DEFAULT_255_1_234
10
15.307183
20
0.0153343
11
15.8967126
21
0.0153343
0
LINE
8
DEFAULT_255_1_234
10
15.8967126
20
0.0153343
11
15.8967126
21
0.5181211
0
LINE
8
DEFAULT_255_1_234
10
15.8967126
20
0.5181211
11
16.0517251
21
0.5181211
0
LINE
8
DEFAULT_255_1_234
10
16.9143338
20
0.5181211
11
16.9143338
21
-0.258548
0
LINE
8
DEFAULT_255_1_234
10
16.9143338
20
-0.258548
11
17.076575
21
-0.258548
0
LINE
8
DEFAULT_255_1_234
10
17.076575
20
-0.258548
11
17.076575
21
-0.3798272
0
LINE
8
DEFAULT_255_1_234
10
17.076575
20
-0.3798272
11
16.9143338
21
-0.3798272
0
LINE
8
DEFAULT_255_1_234
10
16.9143338
20
-0.3798272
11
16.9143338
21
-0.6513
0
LINE
8
DEFAULT_255_1_234
10
16.9143338
20
-0.6513
11
16.7649435
21
-0.6513
0
LINE
8
DEFAULT_255_1_234
10
16.7649435
20
-0.6513
11
16.7649435
21
-0.3798272
0
LINE
8
DEFAULT_255_1_234
10
16.7649435
20
-0.3798272
11
16.2324393
21
-0.3798272
0
LINE
8
DEFAULT_255_1_234
10
16.2324393
20
-0.3798272
11
16.2324393
21
-0.2922813
0
LINE
8
DEFAULT_255_1_234
10
16.2324393
20
-0.2922813
11
16.7561086
21
0.5181211
0
LINE
8
DEFAULT_255_1_234
10
16.7561086
20
0.5181211
11
16.9143338
21
0.5181211
0
LINE
8
DEFAULT_255_1_234
10
16.7472737
20
0.2827912
11
16.4011058
21
-0.258548
0
LINE
8
DEFAULT_255_1_234
10
16.4011058
20
-0.258548
11
16.7649435
21
-0.258548
0
LINE
8
DEFAULT_255_1_234
10
16.7649435
20
-0.258548
11
16.7649435
21
0.3149181
0
LINE
8
DEFAULT_255_1_234
10
16.7649435
20
0.3149181
11
16.7472737
21
0.2827912
0
LINE
8
DEFAULT_255_1_234
10
17.6990347
20
0.5237433
11
17.6990347
21
-0.6513
0
LINE
8
DEFAULT_255_1_234
10
17.6990347
20
-0.6513
11
17.5496443
21
-0.6513
0
LINE
8
DEFAULT_255_1_234
10
17.5496443
20
-0.6513
11
17.5496443
21
0.3390133
0
LINE
8
DEFAULT_255_1_234
10
17.5496443
20
0.3390133
11
17.2500605
21
0.2289785
0
LINE
8
DEFAULT_255_1_234
10
17.2500605
20
0.2289785
11
17.2500605
21
0.3639117
0
LINE
8
DEFAULT_255_1_234
10
17.2500605
20
0.3639117
11
17.6757426
21
0.5237433
0
LINE
8
DEFAULT_255_1_234
10
17.6757426
20
0.5237433
11
17.6990347
21
0.5237433
0
LINE
8
DEFAULT_255_1_234
10
18.8411479
20
0.5181211
11
18.9961604
21
0.5181211
0
LINE
8
DEFAULT_255_1_234
10
18.9961604
20
0.5181211
11
18.9961604
21
-0.277021
0
LINE
8
DEFAULT_255_1_234
10
18.6122433
20
-0.6657571
11
18.5712814
21
-0.6673635
0
LINE
8
DEFAULT_255_1_234
10
18.1496152
20
-0.2786273
11
18.1496152
21
0.5181211
0
LINE
8
DEFAULT_255_1_234
10
18.1496152
20
0.5181211
11
18.3022182
21
0.5181211
0
LINE
8
DEFAULT_255_1_234
10
18.3022182
20
0.5181211
11
18.3022182
21
-0.2738083
0
LINE
8
DEFAULT_255_1_234
10
18.8411479
20
-0.2746115
11
18.8411479
21
0.5181211
0
ARC
8
DEFAULT_255_1_234
10
18.5608502
20
-0.2790072
40
0.4353147
50
343.0898354
51
0.2614217
0
ARC
8
DEFAULT_255_1_234
10
18.6436904
20
-0.3021163
40
0.3493402
50
315.3345598
51
342.7641223
0
ARC
8
DEFAULT_255_1_234
10
18.6213353
20
-0.2789318
40
0.3815385
50
284.6606969
51
315.2182466
0
ARC
8
DEFAULT_255_1_234
10
18.5758065
20
-0.1243245
40
0.5426573
50
273.8500273
51
285.1797701
0
ARC
8
DEFAULT_255_1_234
10
18.5670116
20
-0.0901525
40
0.5772268
50
257.6317484
51
270.4238298
0
ARC
8
DEFAULT_255_1_234
10
18.5245314
20
-0.2722802
40
0.3902347
50
230.6087562
51
257.9964012
0
ARC
8
DEFAULT_255_1_234
10
18.5113316
20
-0.2929198
40
0.3659186
50
227.7440991
51
230.1551448
0
ARC
8
DEFAULT_255_1_234
10
18.4979148
20
-0.3090529
40
0.3449568
50
189.2524587
51
227.5916061
0
ARC
8
DEFAULT_255_1_234
10
18.6500834
20
-0.2762987
40
0.5004737
50
180.2665968
51
190.1525252
0
ARC
8
DEFAULT_255_1_234
10
18.6722854
20
-0.2766082
40
0.3700778
50
179.5665184
51
191.9952995
0
ARC
8
DEFAULT_255_1_234
10
18.549496
20
-0.3039957
40
0.2442808
50
191.6974072
51
215.1404042
0
ARC
8
DEFAULT_255_1_234
10
18.5256875
20
-0.3181892
40
0.2166522
50
215.6950207
51
224.8513522
0
ARC
8
DEFAULT_255_1_234
10
18.5312619
20
-0.3102303
40
0.2262237
50
225.2846858
51
255.0111758
0
ARC
8
DEFAULT_255_1_234
10
18.5636579
20
-0.1988545
40
0.3421979
50
254.5944985
51
267.9129803
0
ARC
8
DEFAULT_255_1_234
10
18.5711059
20
-0.0904097
40
0.4508556
50
267.4689655
51
270.0223026
0
ARC
8
DEFAULT_255_1_234
10
18.5741205
20
-0.1493151
40
0.3919604
50
269.5849941
51
281.1843768
0
ARC
8
DEFAULT_255_1_234
10
18.6019969
20
-0.2845941
40
0.2538457
50
280.9344262
51
300.9743589
0
ARC
8
DEFAULT_255_1_234
10
18.6232575
20
-0.3237312
40
0.2093566
50
301.4980046
51
315.1466847
0
ARC
8
DEFAULT_255_1_234
10
18.6088113
20
-0.3118764
40
0.2279656
50
315.5952539
51
345.6678731
0
ARC
8
DEFAULT_255_1_234
10
18.496863
20
-0.2806991
40
0.3441564
50
345.2524969
51
358.6304371
0
ARC
8
DEFAULT_255_1_234
10
18.3950983
20
-0.2747084
40
0.4460494
50
358.1735671
51
0.0124524
0
ARC
8
DEFAULT_255_2_778
10
15.0734646
20
74.3616567
40
0.3782009
50
0.4397807
51
91.3045231
0
ARC
8
DEFAULT_255_2_778
10
15.0713202
20
74.3593741
40
0.3803695
50
269.0259909
51
0.7811192
0
ARC
8
DEFAULT_255_2_778
10
15.2304616
20
74.3469321
40
0.7639615
50
290.7362057
51
357.8000295
0
ARC
8
DEFAULT_255_2_778
10
15.1452354
20
74.3644912
40
0.8499188
50
356.8376875
51
0.0046095
0
ARC
8
DEFAULT_255_2_778
10
15.1438766
20
74.3645425
40
0.8512778
50
0.0011515
51
85.3589632
0
ARC
8
DEFAULT_255_2_778
10
15.1438694
20
74.3454769
40
0.8702827
50
85.4600549
51
90.0075769
0
ARC
8
DEFAULT_255_2_778
10
19.9750173
20
74.3552104
40
0.3845507
50
1.3931151
51
90.158378
0
ARC
8
DEFAULT_255_2_778
10
20.0342419
20
74.3488312
40
0.8684198
50
359.7643557
51
42.1181505
0
ARC
8
DEFAULT_255_2_778
10
20.0366479
20
74.3492609
40
0.866348
50
42.2037872
51
87.9292218
0
ARC
8
DEFAULT_255_2_778
10
20.0318949
20
74.3079775
40
0.9077821
50
87.7235759
51
90.0025578
0
ARC
8
DEFAULT_255_2_778
10
12.7284028
20
74.3620796
40
0.3777595
50
0.3761505
51
91.175317
0
ARC
8
DEFAULT_255_2_778
10
12.7825419
20
74.3488312
40
0.8684198
50
359.7643557
51
42.1181505
0
ARC
8
DEFAULT_255_2_778
10
12.7849479
20
74.3492609
40
0.866348
50
42.2037872
51
87.9292218
0
ARC
8
DEFAULT_255_2_778
10
12.7801949
20
74.3079775
40
0.9077821
50
87.7235759
51
90.0025578
0
ARC
8
DEFAULT_255_2_778
10
17.3606743
20
73.9570535
40
1.2841942
50
233.3100129
51
270.0348017
0
ARC
8
DEFAULT_255_2_778
10
17.3727456
20
73.9774299
40
1.3077482
50
187.7860459
51
233.4193197
0
ARC
8
DEFAULT_255_2_778
10
17.3909911
20
73.9789862
40
1.3260368
50
179.9838663
51
187.7458681
0
ARC
8
DEFAULT_255_2_778
10
17.3494846
20
73.9796052
40
1.2845303
50
143.7084173
51
180.0109545
0
ARC
8
DEFAULT_255_2_778
10
17.3645561
20
73.9745576
40
1.2996747
50
94.9692901
51
143.9223324
0
ARC
8
DEFAULT_255_2_778
10
17.3613355
20
73.9752024
40
1.2987573
50
89.9947559
51
94.8302073
0
ARC
8
DEFAULT_255_2_778
10
17.3636379
20
73.9691107
40
1.3048507
50
58.145411
51
90.0958788
0
ARC
8
DEFAULT_255_2_778
10
17.3721873
20
73.9754171
40
1.294988
50
3.2655211
51
58.3194462
0
ARC
8
DEFAULT_255_2_778
10
17.3727016
20
73.9794162
40
1.2942527
50
359.997494
51
3.0900664
0
ARC
8
DEFAULT_255_2_778
10
17.1842403
20
73.977316
40
1.4827154
50
0.006083
51
0.0789681
0
ARC
8
DEFAULT_255_2_778
10
17.3622257
20
73.9773976
40
1.30473
50
315.0276525
51
0.0033284
0
ARC
8
DEFAULT_255_2_778
10
17.36257
20
73.9772198
40
1.3043608
50
270.000667
51
315.0224921
0
LINE
8
DEFAULT_255_2_778
10
17.3625852
20
72.6728591
11
17.3614543
21
72.6728596
0
ARC
8
DEFAULT_255_2_778
10
17.3657135
20
73.9753789
40
0.7580313
50
269.6780691
51
315.5292436
0
ARC
8
DEFAULT_255_2_778
10
17.362643
20
73.9746555
40
0.7597205
50
315.7303962
51
0.2857903
0
ARC
8
DEFAULT_255_2_778
10
17.6503699
20
73.9789059
40
0.4719845
50
359.944048
51
0.0186519
0
ARC
8
DEFAULT_255_2_778
10
17.3704095
20
73.9779282
40
0.7519457
50
0.086204
51
85.4319233
0
ARC
8
DEFAULT_255_2_778
10
17.3615932
20
73.9355015
40
0.7949581
50
85.0420495
51
90.0100075
0
ARC
8
DEFAULT_255_2_778
10
17.3595718
20
73.9922196
40
0.7382424
50
89.8538973
51
89.9999976
0
ARC
8
DEFAULT_255_2_778
10
17.3597093
20
73.9792721
40
0.7511899
50
90.01048
51
134.9443097
0
ARC
8
DEFAULT_255_2_778
10
17.359927
20
73.9790899
40
0.7514726
50
134.9462486
51
180.0023145
0
ARC
8
DEFAULT_255_2_778
10
17.3724947
20
73.9751552
40
0.7640503
50
179.7072119
51
222.5790813
0
ARC
8
DEFAULT_255_2_778
10
17.3595619
20
73.9641152
40
0.7470579
50
222.6267201
51
270.1451401
0
ARC
8
DEFAULT_255_2_778
10
9.3660743
20
73.9570535
40
1.2841942
50
233.3100129
51
270.0348017
0
ARC
8
DEFAULT_255_2_778
10
9.3781456
20
73.9774299
40
1.3077482
50
187.7860459
51
233.4193197
0
ARC
8
DEFAULT_255_2_778
10
9.3963911
20
73.9789862
40
1.3260368
50
179.9838663
51
187.7458681
0
ARC
8
DEFAULT_255_2_778
10
9.3551452
20
73.9794638
40
1.2847909
50
143.1940819
51
180.0046489
0
ARC
8
DEFAULT_255_2_778
10
9.36994
20
73.9747683
40
1.2994598
50
94.9233187
51
143.4191345
0
ARC
8
DEFAULT_255_2_778
10
9.3667331
20
73.9754797
40
1.2984798
50
89.9946509
51
94.7850278
0
ARC
8
DEFAULT_255_2_778
10
9.3690225
20
73.9693118
40
1.3046496
50
58.1428905
51
90.0952196
0
ARC
8
DEFAULT_255_2_778
10
9.37745
20
73.975413
40
1.2950254
50
3.2656058
51
58.3171105
0
ARC
8
DEFAULT_255_2_778
10
9.3780016
20
73.9794162
40
1.2942527
50
359.997494
51
3.0900664
0
ARC
8
DEFAULT_255_2_778
10
9.3953041
20
73.9772125
40
1.276952
50
359.9949307
51
0.0963391
0
ARC
8
DEFAULT_255_2_778
10
9.3679416
20
73.9772263
40
1.3043147
50
315.0200668
51
359.994431
0
ARC
8
DEFAULT_255_2_778
10
9.3679661
20
73.9769877
40
1.3041287
50
270.0008363
51
315.026719
0
LINE
8
DEFAULT_255_2_778
10
9.3679852
20
72.6728591
11
9.3668543
21
72.6728596
0
ARC
8
DEFAULT_255_2_778
10
9.3710735
20
73.9753812
40
0.7580334
50
269.6810953
51
315.6152252
0
ARC
8
DEFAULT_255_2_778
10
9.3680162
20
73.9747058
40
0.7597504
50
315.8129036
51
0.3254485
0
ARC
8
DEFAULT_255_2_778
10
9.3754499
20
73.9776242
40
0.7523058
50
0.1093155
51
85.7820321
0
ARC
8
DEFAULT_255_2_778
10
9.3669704
20
73.936094
40
0.7943655
50
85.3923987
51
90.0083732
0
ARC
8
DEFAULT_255_2_778
10
9.3649708
20
73.9913025
40
0.7391595
50
89.8539942
51
89.9999859
0
ARC
8
DEFAULT_255_2_778
10
9.3650373
20
73.979446
40
0.7510159
50
90.0050654
51
134.9497993
0
ARC
8
DEFAULT_255_2_778
10
9.3649069
20
73.979264
40
0.7510526
50
134.9329452
51
180.0155944
0
ARC
8
DEFAULT_255_2_778
10
9.3779268
20
73.9751289
40
0.7640826
50
179.7052536
51
222.5741919
0
ARC
8
DEFAULT_255_2_778
10
9.3649128
20
73.964084
40
0.7470269
50
222.6256588
51
270.1489141
0
LINE
8
DEFAULT_255_2_778
10
13.8784543
20
75.1951596
11
13.8784543
21
72.7323596
0
LINE
8
DEFAULT_255_2_778
10
13.8784543
20
72.7323596
11
14.4219543
21
72.7323596
0
LINE
8
DEFAULT_255_2_778
10
14.4219543
20
72.7323596
11
14.4219543
21
74.7397596
0
LINE
8
DEFAULT_255_2_778
10
14.4219543
20
74.7397596
11
15.0648543
21
74.7397596
0
LINE
8
DEFAULT_255_2_778
10
15.0648543
20
73.9790596
11
14.6002543
21
73.9790596
0
LINE
8
DEFAULT_255_2_778
10
14.6002543
20
73.9790596
11
15.4413543
21
72.7320596
0
LINE
8
DEFAULT_255_2_778
10
15.4413543
20
72.7320596
11
16.1142543
21
72.7320596
0
LINE
8
DEFAULT_255_2_778
10
16.1142543
20
72.7320596
11
15.5009543
21
73.6324596
0
LINE
8
DEFAULT_255_2_778
10
15.1437543
20
75.2157596
11
14.4216543
21
75.2157596
0
LINE
8
DEFAULT_255_2_778
10
14.4216543
20
75.2157596
11
13.8782543
21
75.1951596
0
LINE
8
DEFAULT_255_2_778
10
13.8782543
20
75.1951596
11
13.8784543
21
75.1951596
0
LINE
8
DEFAULT_255_2_778
10
18.8158543
20
75.1951596
11
18.8158543
21
72.7323596
0
LINE
8
DEFAULT_255_2_778
10
18.8158543
20
72.7323596
11
19.3593543
21
72.7323596
0
LINE
8
DEFAULT_255_2_778
10
19.3593543
20
72.7323596
11
19.3593543
21
74.7397596
0
LINE
8
DEFAULT_255_2_778
10
19.3593543
20
74.7397596
11
19.9739543
21
74.7397596
0
LINE
8
DEFAULT_255_2_778
10
20.3594543
20
74.3645596
11
20.3594543
21
72.7323596
0
LINE
8
DEFAULT_255_2_778
10
20.3594543
20
72.7323596
11
20.9026543
21
72.7323596
0
LINE
8
DEFAULT_255_2_778
10
20.9026543
20
72.7323596
11
20.9026543
21
74.3452596
0
LINE
8
DEFAULT_255_2_778
10
20.0318543
20
75.2157596
11
19.3590543
21
75.2157596
0
LINE
8
DEFAULT_255_2_778
10
19.3590543
20
75.2157596
11
18.8156543
21
75.1951596
0
LINE
8
DEFAULT_255_2_778
10
18.8156543
20
75.1951596
11
18.8158543
21
75.1951596
0
LINE
8
DEFAULT_255_2_778
10
10.8212543
20
75.1951596
11
10.8212543
21
72.7323596
0
LINE
8
DEFAULT_255_2_778
10
10.8212543
20
72.7323596
11
11.3646543
21
72.7323596
0
LINE
8
DEFAULT_255_2_778
10
11.3646543
20
72.7323596
11
11.3646543
21
74.7397596
0
LINE
8
DEFAULT_255_2_778
10
11.3646543
20
74.7397596
11
11.9689543
21
74.7397596
0
LINE
8
DEFAULT_255_2_778
10
11.9689543
20
74.7397596
11
11.9689543
21
72.7323596
0
LINE
8
DEFAULT_255_2_778
10
11.9689543
20
72.7323596
11
12.5124543
21
72.7323596
0
LINE
8
DEFAULT_255_2_778
10
12.5124543
20
72.7323596
11
12.5124543
21
74.7397596
0
LINE
8
DEFAULT_255_2_778
10
12.5124543
20
74.7397596
11
12.7206543
21
74.7397596
0
LINE
8
DEFAULT_255_2_778
10
13.1061543
20
74.3645596
11
13.1061543
21
72.7323596
0
LINE
8
DEFAULT_255_2_778
10
13.1061543
20
72.7323596
11
13.6509543
21
72.7323596
0
LINE
8
DEFAULT_255_2_778
10
13.6509543
20
72.7323596
11
13.6509543
21
74.3452596
0
LINE
8
DEFAULT_255_2_778
10
12.7801543
20
75.2157596
11
11.3749543
21
75.2157596
0
LINE
8
DEFAULT_255_2_778
10
11.3749543
20
75.2157596
11
10.8212543
21
75.1951596
0
LINE
8
DEFAULT_255_2_778
10
10.8212543
20
75.1951596
11
10.8212543
21
75.1951596
0
LINE
8
DEFAULT_255_2_778
10
17.3614543
20
72.6728596
11
17.3614543
21
72.6728596
0
LINE
8
DEFAULT_255_2_778
10
9.3668543
20
72.6728596
11
9.3668543
21
72.6728596
0
LINE
8
DEFAULT_255_1_234
10
11.521223
20
70.4957663
11
11.6762355
21
70.4957663
0
LINE
8
DEFAULT_255_1_234
10
10.7758777
20
70.6547947
11
10.7758777
21
70.7672391
0
LINE
8
DEFAULT_255_1_234
10
11.6762355
20
70.9182357
11
11.521223
21
70.9182357
0
LINE
8
DEFAULT_255_1_234
10
10.9308902
20
70.7632232
11
10.9308902
21
70.6499757
0
ARC
8
DEFAULT_255_1_234
10
11.1281742
20
70.5554846
40
0.5513052
50
340.1774281
51
353.7814284
0
ARC
8
DEFAULT_255_1_234
10
11.2853095
20
70.4969582
40
0.3836379
50
311.4558989
51
340.4421614
0
ARC
8
DEFAULT_255_1_234
10
11.2819763
20
70.5080528
40
0.3941894
50
282.4333181
51
310.7513653
0
ARC
8
DEFAULT_255_1_234
10
11.2380502
20
70.6895679
40
0.5809175
50
269.9358511
51
282.809604
0
ARC
8
DEFAULT_255_1_234
10
11.2328568
20
70.8353212
40
0.7266847
50
270.0021091
51
270.3581957
0
ARC
8
DEFAULT_255_1_234
10
11.2275985
20
70.5752585
40
0.4666519
50
250.7884749
51
270.6489167
0
ARC
8
DEFAULT_255_1_234
10
11.210782
20
70.5115319
40
0.4009729
50
219.3627325
51
250.0611886
0
ARC
8
DEFAULT_255_1_234
10
11.2937031
20
70.5820042
40
0.5097822
50
193.5479632
51
219.5756669
0
ARC
8
DEFAULT_255_1_234
10
11.5308652
20
70.6435919
40
0.7547848
50
181.1218675
51
193.87563
0
ARC
8
DEFAULT_255_1_234
10
11.7378833
20
70.654658
40
0.9620055
50
179.9918545
51
181.5394234
0
ARC
8
DEFAULT_255_1_234
10
11.5527935
20
70.7709788
40
0.7769248
50
169.5837241
51
180.2757934
0
ARC
8
DEFAULT_255_1_234
10
11.3690873
20
70.8049229
40
0.590109
50
155.0365899
51
169.6003176
0
ARC
8
DEFAULT_255_1_234
10
11.2555337
20
70.8596677
40
0.4640625
50
136.783148
51
155.2472683
0
ARC
8
DEFAULT_255_1_234
10
11.2165814
20
70.8927562
40
0.4130255
50
121.7633186
51
136.428115
0
ARC
8
DEFAULT_255_1_234
10
11.2300776
20
70.8678227
40
0.4413323
50
95.6459699
51
121.5490577
0
ARC
8
DEFAULT_255_1_234
10
11.2458058
20
70.7569949
40
0.55319
50
89.924208
51
96.1377933
0
ARC
8
DEFAULT_255_1_234
10
11.2508491
20
70.7688542
40
0.5413475
50
76.6779277
51
90.4563316
0
ARC
8
DEFAULT_255_1_234
10
11.2902114
20
70.9279114
40
0.3775041
50
47.485847
51
76.9287264
0
ARC
8
DEFAULT_255_1_234
10
11.2755087
20
70.9179159
40
0.3948286
50
16.5424086
51
46.8933463
0
ARC
8
DEFAULT_255_1_234
10
11.1147244
20
70.8650861
40
0.564021
50
5.4072051
51
17.0365086
0
ARC
8
DEFAULT_255_1_234
10
10.9708261
20
70.8419679
40
0.5556559
50
7.8891745
51
15.9239216
0
ARC
8
DEFAULT_255_1_234
10
11.1695274
20
70.8996631
40
0.3487515
50
15.7653144
51
27.9410532
0
ARC
8
DEFAULT_255_1_234
10
11.2799492
20
70.958779
40
0.2235026
50
27.8166557
51
46.4008329
0
ARC
8
DEFAULT_255_1_234
10
11.2849135
20
70.9582082
40
0.2205286
50
47.4371857
51
75.0698205
0
ARC
8
DEFAULT_255_1_234
10
11.2540529
20
70.8507765
40
0.3322915
50
74.7008593
51
87.8124495
0
ARC
8
DEFAULT_255_1_234
10
11.2467217
20
70.7451844
40
0.4380987
50
87.3814673
51
90.0240855
0
ARC
8
DEFAULT_255_1_234
10
11.242876
20
70.8629291
40
0.3203749
50
89.3451631
51
108.5745436
0
ARC
8
DEFAULT_255_1_234
10
11.2291865
20
70.9142908
40
0.2673494
50
109.2998449
51
143.3037509
0
ARC
8
DEFAULT_255_1_234
10
11.3053938
20
70.8556881
40
0.3634757
50
143.0753173
51
163.1916937
0
ARC
8
DEFAULT_255_1_234
10
11.5005666
20
70.7940967
40
0.5681262
50
162.9373603
51
174.6208611
0
ARC
8
DEFAULT_255_1_234
10
11.7631708
20
70.765301
40
0.8322832
50
174.3419979
51
180.1430411
0
ARC
8
DEFAULT_255_1_234
10
11.6700864
20
70.6458698
40
0.7392076
50
179.6817502
51
189.150529
0
ARC
8
DEFAULT_255_1_234
10
11.4200112
20
70.604219
40
0.4856932
50
188.9910863
51
203.5773039
0
ARC
8
DEFAULT_255_1_234
10
11.3120445
20
70.5594211
40
0.3688271
50
203.9077269
51
215.1312379
0
ARC
8
DEFAULT_255_1_234
10
11.2197539
20
70.4878941
40
0.2522457
50
213.9071664
51
263.8849284
0
ARC
8
DEFAULT_255_1_234
10
11.2322868
20
70.5663518
40
0.3316174
50
263.1758525
51
270.1031083
0
ARC
8
DEFAULT_255_1_234
10
11.235496
20
70.6910365
40
0.4563091
50
269.6719807
51
279.0609165
0
ARC
8
DEFAULT_255_1_234
10
11.2621728
20
70.5297907
40
0.2928759
50
278.8750225
51
293.6346586
0
ARC
8
DEFAULT_255_1_234
10
11.2941936
20
70.45459
40
0.2111472
50
293.8553404
51
310.0518804
0
ARC
8
DEFAULT_255_1_234
10
11.294679
20
70.4483516
40
0.2060917
50
311.0646779
51
332.0108348
0
ARC
8
DEFAULT_255_1_234
10
11.1754517
20
70.5140978
40
0.3422352
50
331.6588543
51
343.2878891
0
ARC
8
DEFAULT_255_1_234
10
10.9692032
20
70.5774798
40
0.5580003
50
343.1446044
51
351.010618
0
ARC
8
DEFAULT_255_1_234
10
10.8150678
20
70.6055871
40
0.7146438
50
350.7157277
51
351.1602153
0
LINE
8
DEFAULT_255_1_234
10
12.3766031
20
70.4636394
11
12.3766031
21
71.2941211
0
LINE
8
DEFAULT_255_1_234
10
12.3766031
20
71.2941211
11
12.5316157
21
71.2941211
0
LINE
8
DEFAULT_255_1_234
10
12.5316157
20
71.2941211
11
12.5316157
21
70.4660489
0
LINE
8
DEFAULT_255_1_234
10
11.7934989
20
70.4475759
11
11.9477083
21
70.4475759
0
ARC
8
DEFAULT_255_1_234
10
12.0825342
20
70.4622089
40
0.4490979
50
346.3129415
51
0.4899112
0
ARC
8
DEFAULT_255_1_234
10
12.2193691
20
70.4271729
40
0.3078632
50
313.3793358
51
346.6225026
0
ARC
8
DEFAULT_255_1_234
10
12.1992878
20
70.4524522
40
0.3400404
50
281.1587967
51
312.9131091
0
ARC
8
DEFAULT_255_1_234
10
12.1652342
20
70.6019185
40
0.4932916
50
269.6424364
51
281.6795951
0
ARC
8
DEFAULT_255_1_234
10
12.1583706
20
70.6568382
40
0.5482147
50
258.9990078
51
270.3955952
0
ARC
8
DEFAULT_255_1_234
10
12.120901
20
70.4719746
40
0.359601
50
239.6256123
51
259.238693
0
ARC
8
DEFAULT_255_1_234
10
12.0920093
20
70.4174669
40
0.2979777
50
227.4959765
51
239.1188186
0
ARC
8
DEFAULT_255_1_234
10
12.0882659
20
70.4113689
40
0.2909561
50
191.339631
51
227.2280909
0
ARC
8
DEFAULT_255_1_234
10
12.22873
20
70.4446031
40
0.4352412
50
179.6086538
51
191.9934722
0
ARC
8
DEFAULT_255_1_234
10
12.2421322
20
70.4453427
40
0.2944324
50
179.5654258
51
192.070398
0
ARC
8
DEFAULT_255_1_234
10
12.1449812
20
70.4235079
40
0.194866
50
191.7656467
51
215.6461951
0
ARC
8
DEFAULT_255_1_234
10
12.1271313
20
70.4127546
40
0.1741017
50
216.1938368
51
224.3931108
0
ARC
8
DEFAULT_255_1_234
10
12.1278199
20
70.4154473
40
0.1764834
50
224.8613677
51
254.362656
0
ARC
8
DEFAULT_255_1_234
10
12.1548913
20
70.504901
40
0.2699302
50
253.9471729
51
267.3949949
0
ARC
8
DEFAULT_255_1_234
10
12.161942
20
70.5973067
40
0.362572
50
266.9456419
51
270.0337791
0
ARC
8
DEFAULT_255_1_234
10
12.16448
20
70.481123
40
0.2463991
50
269.4595111
51
286.1822844
0
ARC
8
DEFAULT_255_1_234
10
12.178609
20
70.4293047
40
0.1926982
50
286.4416479
51
315.8044008
0
ARC
8
DEFAULT_255_1_234
10
12.1731897
20
70.4335207
40
0.1995241
50
316.0212565
51
345.4794351
0
ARC
8
DEFAULT_255_1_234
10
12.0761404
20
70.4608575
40
0.3003349
50
345.0729543
51
358.325089
0
ARC
8
DEFAULT_255_1_234
10
11.9885375
20
70.4664568
40
0.3880759
50
357.8767804
51
359.5840246
0
LINE
8
DEFAULT_255_1_234
10
13.0801834
20
70.6821026
11
13.0801834
21
70.5608234
0
LINE
8
DEFAULT_255_1_234
10
13.0801834
20
70.5608234
11
12.6882346
21
70.5608234
0
LINE
8
DEFAULT_255_1_234
10
12.6882346
20
70.5608234
11
12.6882346
21
70.6821026
0
LINE
8
DEFAULT_255_1_234
10
12.6882346
20
70.6821026
11
13.0801834
21
70.6821026
0
LINE
8
DEFAULT_255_1_234
10
14.0239126
20
70.9559849
11
13.8689001
21
70.9559849
0
LINE
8
DEFAULT_255_1_234
10
13.1765643
20
70.4636394
11
13.3315768
21
70.4636394
0
ARC
8
DEFAULT_255_1_234
10
13.9347814
20
71.8506768
40
1.252368
50
248.9199003
51
254.1439814
0
ARC
8
DEFAULT_255_1_234
10
13.7667309
20
71.4180234
40
0.788226
50
241.633709
51
249.0064503
0
ARC
8
DEFAULT_255_1_234
10
13.6138703
20
71.1379317
40
0.4691427
50
230.498225
51
241.8087113
0
ARC
8
DEFAULT_255_1_234
10
13.5354277
20
71.0379906
40
0.3421437
50
227.4064532
51
229.9881192
0
ARC
8
DEFAULT_255_1_234
10
13.4866798
20
70.9904088
40
0.2741476
50
200.6781896
51
228.1763934
0
ARC
8
DEFAULT_255_1_234
10
13.4939109
20
70.9889077
40
0.2804109
50
179.5061581
51
199.8694617
0
ARC
8
DEFAULT_255_1_234
10
13.492986
20
70.996321
40
0.2795204
50
132.4834203
51
181.0242172
0
ARC
8
DEFAULT_255_1_234
10
13.5525443
20
70.9400704
40
0.3612768
50
129.2532479
51
133.4242687
0
ARC
8
DEFAULT_255_1_234
10
13.5671892
20
70.9180965
40
0.3875675
50
101.98776
51
128.8742646
0
ARC
8
DEFAULT_255_1_234
10
13.6070503
20
70.7459741
40
0.5642249
50
89.5906553
51
102.3169264
0
ARC
8
DEFAULT_255_1_234
10
13.6140995
20
70.7778148
40
0.5323783
50
77.2360837
51
90.3248275
0
ARC
8
DEFAULT_255_1_234
10
13.6348074
20
70.87454
40
0.4334697
50
63.837784
51
77.0809408
0
ARC
8
DEFAULT_255_1_234
10
13.6625836
20
70.9262911
40
0.3747796
50
45.9864267
51
64.1607727
0
ARC
8
DEFAULT_255_1_234
10
13.6886717
20
70.9560866
40
0.3352302
50
32.2747395
51
45.6547121
0
ARC
8
DEFAULT_255_1_234
10
13.6953158
20
70.957988
40
0.328603
50
359.6507365
51
32.6130309
0
ARC
8
DEFAULT_255_1_234
10
13.6010253
20
70.958466
40
0.2678863
50
359.469343
51
14.9832209
0
ARC
8
DEFAULT_255_1_234
10
13.6715316
20
70.9773539
40
0.1948938
50
14.9781179
51
48.2004265
0
ARC
8
DEFAULT_255_1_234
10
13.655096
20
70.9566983
40
0.2212521
50
48.5927837
51
74.1241538
0
ARC
8
DEFAULT_255_1_234
10
13.6217449
20
70.8466248
40
0.3362561
50
73.7888341
51
86.6652678
0
ARC
8
DEFAULT_255_1_234
10
13.6115015
20
70.7258881
40
0.4573953
50
86.2640471
51
90.0526343
0
ARC
8
DEFAULT_255_1_234
10
13.6086727
20
70.7654192
40
0.4178709
50
89.6697524
51
99.2309573
0
ARC
8
DEFAULT_255_1_234
10
13.5844178
20
70.9098964
40
0.2713749
50
99.069534
51
113.7658566
0
ARC
8
DEFAULT_255_1_234
10
13.5570369
20
70.9744677
40
0.2012469
50
114.0401004
51
127.9850673
0
ARC
8
DEFAULT_255_1_234
10
13.5329933
20
71.004073
40
0.1631167
50
127.7287463
51
176.7105154
0
ARC
8
DEFAULT_255_1_234
10
13.6008651
20
70.9939693
40
0.2315392
50
175.1779447
51
180.0581938
0
ARC
8
DEFAULT_255_1_234
10
13.5165498
20
70.9927428
40
0.1472271
50
179.6142195
51
228.1246017
0
ARC
8
DEFAULT_255_1_234
10
13.5607166
20
71.0336308
40
0.2072299
50
226.5779593
51
230.8800004
0
ARC
8
DEFAULT_255_1_234
10
13.6078245
20
71.0961636
40
0.2854818
50
231.4635071
51
241.9260842
0
ARC
8
DEFAULT_255_1_234
10
13.7275423
20
71.31648
40
0.53622
50
241.7178533
51
248.3259551
0
ARC
8
DEFAULT_255_1_234
10
13.8660795
20
71.6597064
40
0.9063478
50
248.2007737
51
252.4528373
0
ARC
8
DEFAULT_255_1_234
10
13.986452
20
72.0318441
40
1.2974635
50
252.3391078
51
254.3469452
0
ARC
8
DEFAULT_255_1_234
10
13.2322222
20
69.3341148
40
1.5037162
50
71.0197183
51
74.4087047
0
ARC
8
DEFAULT_255_1_234
10
13.4016907
20
69.8233111
40
0.9859993
50
66.1847285
51
71.086374
0
ARC
8
DEFAULT_255_1_234
10
13.557322
20
70.17372
40
0.6025855
50
59.3536294
51
66.2691831
0
ARC
8
DEFAULT_255_1_234
10
13.6461872
20
70.3240609
40
0.4279449
50
49.1020879
51
59.3293958
0
ARC
8
DEFAULT_255_1_234
10
13.7280612
20
70.4173834
40
0.3038015
50
32.7919921
51
49.2505539
0
ARC
8
DEFAULT_255_1_234
10
13.7601702
20
70.4402191
40
0.264448
50
31.1181161
51
32.4005348
0
ARC
8
DEFAULT_255_1_234
10
13.751324
20
70.4366779
40
0.2738556
50
8.1116974
51
30.7958831
0
ARC
8
DEFAULT_255_1_234
10
13.6702908
20
70.4228753
40
0.3560327
50
359.8389159
51
8.4706516
0
ARC
8
DEFAULT_255_1_234
10
13.7328699
20
70.4180137
40
0.2934776
50
337.4731098
51
0.7537279
0
ARC
8
DEFAULT_255_1_234
10
13.7507394
20
70.4160387
40
0.2762607
50
307.5917067
51
336.4315538
0
ARC
8
DEFAULT_255_1_234
10
13.7047222
20
70.4673102
40
0.3449979
50
307.6551545
51
308.4529766
0
ARC
8
DEFAULT_255_1_234
10
13.6816941
20
70.502825
40
0.3871988
50
284.3734338
51
307.1424381
0
ARC
8
DEFAULT_255_1_234
10
13.6321771
20
70.6849932
40
0.5759636
50
272.4382747
51
284.646547
0
ARC
8
DEFAULT_255_1_234
10
13.619498
20
70.8649893
40
0.7563528
50
269.9708387
51
272.8178037
0
ARC
8
DEFAULT_255_1_234
10
13.615202
20
70.6611716
40
0.5525489
50
248.2707594
51
270.4055579
0
ARC
8
DEFAULT_255_1_234
10
13.6097761
20
70.6421192
40
0.5328452
50
246.1383403
51
248.0542782
0
ARC
8
DEFAULT_255_1_234
10
13.567914
20
70.5541843
40
0.4355005
50
233.1670131
51
246.4950969
0
ARC
8
DEFAULT_255_1_234
10
13.5125045
20
70.4793812
40
0.3424126
50
215.3403242
51
233.0843104
0
ARC
8
DEFAULT_255_1_234
10
13.4852476
20
70.4595549
40
0.3087104
50
179.2419209
51
215.2648451
0
ARC
8
DEFAULT_255_1_234
10
13.562007
20
70.4609666
40
0.2304457
50
179.335461
51
199.1045811
0
ARC
8
DEFAULT_255_1_234
10
13.5287746
20
70.4522766
40
0.1962176
50
199.8828939
51
232.7063202
0
ARC
8
DEFAULT_255_1_234
10
13.5760015
20
70.5116788
40
0.2720938
50
232.3738199
51
255.5136649
0
ARC
8
DEFAULT_255_1_234
10
13.6100881
20
70.6360835
40
0.4010747
50
255.2446292
51
267.5320849
0
ARC
8
DEFAULT_255_1_234
10
13.6188505
20
70.7593702
40
0.5246356
50
267.1557994
51
270.0286766
0
ARC
8
DEFAULT_255_1_234
10
13.6216277
20
70.714995
40
0.4802668
50
269.7000017
51
278.1660162
0
ARC
8
DEFAULT_255_1_234
10
13.6472282
20
70.5419515
40
0.3053425
50
278.0231263
51
290.625471
0
ARC
8
DEFAULT_255_1_234
10
13.6819969
20
70.4492025
40
0.206291
50
290.6619762
51
307.0370976
0
ARC
8
DEFAULT_255_1_234
10
13.7120358
20
70.4123504
40
0.1587906
50
306.3943566
51
355.3030547
0
ARC
8
DEFAULT_255_1_234
10
13.6608289
20
70.4200113
40
0.2104809
50
354.3660432
51
0.0698737
0
ARC
8
DEFAULT_255_1_234
10
13.6750635
20
70.4222617
40
0.1962563
50
359.417946
51
16.1971788
0
ARC
8
DEFAULT_255_1_234
10
13.7205945
20
70.4347418
40
0.149053
50
16.4723299
51
52.6262157
0
ARC
8
DEFAULT_255_1_234
10
13.6384999
20
70.3263433
40
0.2850296
50
52.7386432
51
62.4979148
0
ARC
8
DEFAULT_255_1_234
10
13.5000076
20
70.0657283
40
0.5801521
50
62.2515216
51
68.1220564
0
ARC
8
DEFAULT_255_1_234
10
13.3279987
20
69.6429872
40
1.0365451
50
68.0062803
51
71.8053402
0
ARC
8
DEFAULT_255_1_234
10
13.1484358
20
69.1044758
40
1.6042013
50
71.7183119
51
73.9258742
0
LINE
8
DEFAULT_255_1_234
10
14.1628617
20
70.5351218
11
14.1628617
21
70.5624297
0
LINE
8
DEFAULT_255_1_234
10
14.9001753
20
70.5784932
11
14.9001753
21
70.5166488
0
LINE
8
DEFAULT_255_1_234
10
14.9001753
20
70.5166488
11
14.3114489
21
70.5166488
0
LINE
8
DEFAULT_255_1_234
10
14.7981722
20
70.3471792
11
14.8889309
21
70.2764999
0
LINE
8
DEFAULT_255_1_234
10
14.3162679
20
70.6387313
11
14.7515881
21
70.6387313
0
LINE
8
DEFAULT_255_1_234
10
14.7515881
20
70.6387313
11
14.7515881
21
70.6499757
0
ARC
8
DEFAULT_255_1_234
10
14.5567982
20
70.5462332
40
0.4376191
50
252.3266134
51
270.5810217
0
ARC
8
DEFAULT_255_1_234
10
14.5363071
20
70.4721644
40
0.3608374
50
223.3000567
51
251.8561855
0
ARC
8
DEFAULT_255_1_234
10
14.5574432
20
70.4926937
40
0.3902993
50
190.9374509
51
223.3654032
0
ARC
8
DEFAULT_255_1_234
10
14.7299404
20
70.5316885
40
0.5670891
50
179.6531105
51
191.4989439
0
ARC
8
DEFAULT_255_1_234
10
14.7421417
20
70.5656417
40
0.5792888
50
167.4007466
51
180.3176909
0
ARC
8
DEFAULT_255_1_234
10
14.6369478
20
70.5878885
40
0.471777
50
154.1835823
51
167.250763
0
ARC
8
DEFAULT_255_1_234
10
14.5737945
20
70.6211417
40
0.4004528
50
134.3149965
51
154.5315275
0
ARC
8
DEFAULT_255_1_234
10
14.5520441
20
70.6402228
40
0.371612
50
122.8616532
51
133.9707695
0
ARC
8
DEFAULT_255_1_234
10
14.5417015
20
70.6624703
40
0.3473289
50
89.8249009
51
123.4199222
0
ARC
8
DEFAULT_255_1_234
10
14.5467056
20
70.5977967
40
0.4120197
50
74.7876118
51
90.5482747
0
ARC
8
DEFAULT_255_1_234
10
14.5760799
20
70.706303
40
0.2996077
50
39.8178249
51
74.7633718
0
ARC
8
DEFAULT_255_1_234
10
14.5248119
20
70.6663351
40
0.3645855
50
16.8990863
51
39.4829761
0
ARC
8
DEFAULT_255_1_234
10
14.3353416
20
70.6056526
40
0.5635218
50
4.9636328
51
17.2026414
0
ARC
8
DEFAULT_255_1_234
10
14.0935486
20
70.580134
40
0.8066286
50
359.8834553
51
5.2834307
0
ARC
8
DEFAULT_255_1_234
10
14.697301
20
70.5232803
40
0.3859091
50
180.9846213
51
194.9401313
0
ARC
8
DEFAULT_255_1_234
10
14.5923288
20
70.4945849
40
0.2770883
50
194.80314
51
222.0412631
0
ARC
8
DEFAULT_255_1_234
10
14.561917
20
70.4644116
40
0.2343055
50
221.5417084
51
268.8614402
0
ARC
8
DEFAULT_255_1_234
10
14.5692165
20
70.5320686
40
0.3021528
50
267.732405
51
270.0097136
0
ARC
8
DEFAULT_255_1_234
10
14.5709975
20
70.5522105
40
0.3222994
50
269.6924892
51
280.4117579
0
ARC
8
DEFAULT_255_1_234
10
14.5886381
20
70.4603193
40
0.2287344
50
280.2255091
51
298.6338936
0
ARC
8
DEFAULT_255_1_234
10
14.6003173
20
70.4359223
40
0.2017294
50
299.0430333
51
300.4643464
0
ARC
8
DEFAULT_255_1_234
10
14.5323179
20
70.5493038
40
0.3339357
50
300.6577328
51
322.0378878
0
ARC
8
DEFAULT_255_1_234
10
14.4972718
20
70.5797021
40
0.3802736
50
321.6750233
51
322.3046845
0
ARC
8
DEFAULT_255_1_234
10
14.5903679
20
70.463037
40
0.3520454
50
276.9728461
51
328.0035423
0
ARC
8
DEFAULT_255_1_234
10
14.5626732
20
70.6110841
40
0.5024498
50
269.8361028
51
278.0581756
0
ARC
8
DEFAULT_255_1_234
10
14.539947
20
70.6855757
40
0.202159
50
89.2018686
51
117.2851756
0
ARC
8
DEFAULT_255_1_234
10
14.5452639
20
70.6813752
40
0.2083484
50
118.0551165
51
137.4540413
0
ARC
8
DEFAULT_255_1_234
10
14.5827379
20
70.6473304
40
0.2589774
50
137.5109581
51
158.8516286
0
ARC
8
DEFAULT_255_1_234
10
14.6965214
20
70.6014074
40
0.38167
50
158.5845963
51
170.1721436
0
ARC
8
DEFAULT_255_1_234
10
14.8134603
20
70.5781823
40
0.5008657
50
169.8376422
51
173.0566086
0
ARC
8
DEFAULT_255_1_234
10
14.3437677
20
70.6292509
40
0.4083467
50
2.9091802
51
12.8847116
0
ARC
8
DEFAULT_255_1_234
10
14.4808354
20
70.6615101
40
0.2675383
50
12.6957781
51
28.6404489
0
ARC
8
DEFAULT_255_1_234
10
14.5350025
20
70.6895458
40
0.2065654
50
29.0169854
51
41.1487595
0
ARC
8
DEFAULT_255_1_234
10
14.555281
20
70.7072003
40
0.1796786
50
41.1646065
51
85.0013516
0
ARC
8
DEFAULT_255_1_234
10
14.5431906
20
70.6337431
40
0.2539726
50
83.7280015
51
90.0964893
0
LINE
8
DEFAULT_255_1_234
10
15.4921144
20
70.9985531
11
15.4921144
21
70.8604072
0
LINE
8
DEFAULT_255_1_234
10
15.2206417
20
70.7415375
11
15.2206417
21
70.1247
0
LINE
8
DEFAULT_255_1_234
10
15.2206417
20
70.1247
11
15.0720545
21
70.1247
0
LINE
8
DEFAULT_255_1_234
10
15.0720545
20
70.1247
11
15.0720545
21
70.9937341
0
LINE
8
DEFAULT_255_1_234
10
15.0720545
20
70.9937341
11
15.2166258
21
70.9937341
0
LINE
8
DEFAULT_255_1_234
10
15.2166258
20
70.9937341
11
15.2190353
21
70.8933374
0
ARC
8
DEFAULT_255_1_234
10
15.425455
20
70.4544342
40
0.4114092
50
80.6754243
51
86.8932892
0
ARC
8
DEFAULT_255_1_234
10
15.4194084
20
70.35767
40
0.5083596
50
86.8038578
51
90.0431435
0
ARC
8
DEFAULT_255_1_234
10
15.4157065
20
70.6033866
40
0.2626638
50
89.2759698
51
106.6213787
0
ARC
8
DEFAULT_255_1_234
10
15.3952629
20
70.677683
40
0.1856317
50
107.1346045
51
157.6458115
0
ARC
8
DEFAULT_255_1_234
10
15.464423
20
70.6393311
40
0.2643398
50
155.6586782
51
157.2539184
0
ARC
8
DEFAULT_255_1_234
10
15.4439432
20
70.7562157
40
0.2634121
50
127.8165941
51
148.6302098
0
ARC
8
DEFAULT_255_1_234
10
15.4185901
20
70.7822218
40
0.2273596
50
91.3329982
51
126.7875809
0
ARC
8
DEFAULT_255_1_234
10
15.4261842
20
70.7107195
40
0.299078
50
89.986594
51
92.4688449
0
ARC
8
DEFAULT_255_1_234
10
15.4270237
20
70.7382078
40
0.2715908
50
85.3589899
51
90.1623399
0
ARC
8
DEFAULT_255_1_234
10
15.4354752
20
70.8386164
40
0.1708278
50
78.401942
51
85.4594656
0
ARC
8
DEFAULT_255_1_234
10
15.4499636
20
70.9077236
40
0.1002194
50
67.7858312
51
78.5728455
0
ARC
8
DEFAULT_255_1_234
10
15.4607489
20
70.9356887
40
0.0702548
50
63.4835954
51
67.3062642
0
LINE
8
DEFAULT_255_1_234
10
15.7900919
20
70.9937341
11
15.7900919
21
70.1247
0
LINE
8
DEFAULT_255_1_234
10
15.7900919
20
70.1247
11
15.6415047
21
70.1247
0
LINE
8
DEFAULT_255_1_234
10
15.6415047
20
70.1247
11
15.6415047
21
70.9937341
0
LINE
8
DEFAULT_255_1_234
10
15.6415047
20
70.9937341
11
15.7900919
21
70.9937341
0
ARC
8
DEFAULT_255_1_234
10
15.7273196
20
71.2251889
40
0.097867
50
161.415052
51
180.5526306
0
ARC
8
DEFAULT_255_1_234
10
15.7148974
20
71.2286077
40
0.0850062
50
138.1827368
51
160.9307106
0
ARC
8
DEFAULT_255_1_234
10
15.703892
20
71.2381588
40
0.0704362
50
104.6368899
51
138.0039868
0
ARC
8
DEFAULT_255_1_234
10
15.7146075
20
71.2014963
40
0.1086221
50
92.0600725
51
105.2189128
0
ARC
8
DEFAULT_255_1_234
10
15.7169423
20
71.1672117
40
0.1429728
50
89.9756393
51
92.5012496
0
ARC
8
DEFAULT_255_1_234
10
15.7179442
20
71.1897731
40
0.1204151
50
78.0235316
51
90.4478182
0
ARC
8
DEFAULT_255_1_234
10
15.7271534
20
71.2311295
40
0.0780493
50
55.051506
51
78.3369085
0
ARC
8
DEFAULT_255_1_234
10
15.7321809
20
71.2395711
40
0.0682538
50
42.0501187
51
54.4513741
0
ARC
8
DEFAULT_255_1_234
10
15.7186676
20
71.2271798
40
0.0865878
50
1.7497075
51
42.1496013
0
ARC
8
DEFAULT_255_1_234
10
15.6932009
20
71.2242738
40
0.1121515
50
359.9852656
51
2.8364544
0
ARC
8
DEFAULT_255_1_234
10
15.7098001
20
71.2233229
40
0.0955566
50
342.1070653
51
0.552888
0
ARC
8
DEFAULT_255_1_234
10
15.7240698
20
71.2193904
40
0.0807713
50
316.7107116
51
341.6516965
0
ARC
8
DEFAULT_255_1_234
10
15.7307735
20
71.2133823
40
0.0717724
50
285.4397031
51
316.5324284
0
ARC
8
DEFAULT_255_1_234
10
15.7197652
20
71.2499554
40
0.1099597
50
272.3547054
51
285.8953117
0
ARC
8
DEFAULT_255_1_234
10
15.717081
20
71.2865048
40
0.1465932
50
269.9695369
51
272.8160237
0
ARC
8
DEFAULT_255_1_234
10
15.7160992
20
71.2645863
40
0.1246779
50
258.8431134
51
270.4153935
0
ARC
8
DEFAULT_255_1_234
10
15.7071034
20
71.2210414
40
0.0802162
50
238.5431189
51
259.1288175
0
ARC
8
DEFAULT_255_1_234
10
15.7002919
20
71.2086856
40
0.0661247
50
222.5062634
51
237.9906969
0
ARC
8
DEFAULT_255_1_234
10
15.7130506
20
71.2202889
40
0.0833707
50
184.1069131
51
222.460413
0
ARC
8
DEFAULT_255_1_234
10
15.7399747
20
71.2241349
40
0.1105176
50
179.9429482
51
185.0960898
0
LINE
8
DEFAULT_255_1_234
10
15.9900822
20
70.5351218
11
15.9900822
21
70.5624297
0
LINE
8
DEFAULT_255_1_234
10
16.7273958
20
70.5784932
11
16.7273958
21
70.5166488
0
LINE
8
DEFAULT_255_1_234
10
16.7273958
20
70.5166488
11
16.1386693
21
70.5166488
0
LINE
8
DEFAULT_255_1_234
10
16.6253927
20
70.3471792
11
16.7161513
21
70.2764999
0
LINE
8
DEFAULT_255_1_234
10
16.1434884
20
70.6387313
11
16.5788086
21
70.6387313
0
LINE
8
DEFAULT_255_1_234
10
16.5788086
20
70.6387313
11
16.5788086
21
70.6499757
0
ARC
8
DEFAULT_255_1_234
10
16.3840187
20
70.5462332
40
0.4376191
50
252.3266134
51
270.5810217
0
ARC
8
DEFAULT_255_1_234
10
16.3635276
20
70.4721644
40
0.3608374
50
223.3000567
51
251.8561855
0
ARC
8
DEFAULT_255_1_234
10
16.3846637
20
70.4926937
40
0.3902993
50
190.9374509
51
223.3654032
0
ARC
8
DEFAULT_255_1_234
10
16.5571609
20
70.5316885
40
0.5670891
50
179.6531105
51
191.4989439
0
ARC
8
DEFAULT_255_1_234
10
16.5693621
20
70.5656417
40
0.5792888
50
167.4007466
51
180.3176909
0
ARC
8
DEFAULT_255_1_234
10
16.4641683
20
70.5878885
40
0.471777
50
154.1835823
51
167.250763
0
ARC
8
DEFAULT_255_1_234
10
16.401015
20
70.6211417
40
0.4004528
50
134.3149965
51
154.5315275
0
ARC
8
DEFAULT_255_1_234
10
16.3792645
20
70.6402228
40
0.371612
50
122.8616532
51
133.9707695
0
ARC
8
DEFAULT_255_1_234
10
16.3689219
20
70.6624703
40
0.3473289
50
89.8249009
51
123.4199222
0
ARC
8
DEFAULT_255_1_234
10
16.373926
20
70.5977967
40
0.4120197
50
74.7876118
51
90.5482747
0
ARC
8
DEFAULT_255_1_234
10
16.4033004
20
70.706303
40
0.2996077
50
39.8178249
51
74.7633718
0
ARC
8
DEFAULT_255_1_234
10
16.3520324
20
70.6663351
40
0.3645855
50
16.8990863
51
39.4829761
0
ARC
8
DEFAULT_255_1_234
10
16.162562
20
70.6056526
40
0.5635218
50
4.9636328
51
17.2026414
0
ARC
8
DEFAULT_255_1_234
10
15.920769
20
70.580134
40
0.8066286
50
359.8834553
51
5.2834307
0
ARC
8
DEFAULT_255_1_234
10
16.5245215
20
70.5232803
40
0.3859091
50
180.9846213
51
194.9401313
0
ARC
8
DEFAULT_255_1_234
10
16.4195493
20
70.4945849
40
0.2770883
50
194.80314
51
222.0412631
0
ARC
8
DEFAULT_255_1_234
10
16.3891375
20
70.4644116
40
0.2343055
50
221.5417084
51
268.8614402
0
ARC
8
DEFAULT_255_1_234
10
16.3964369
20
70.5320686
40
0.3021528
50
267.732405
51
270.0097136
0
ARC
8
DEFAULT_255_1_234
10
16.3982179
20
70.5522105
40
0.3222994
50
269.6924892
51
280.4117579
0
ARC
8
DEFAULT_255_1_234
10
16.4158586
20
70.4603193
40
0.2287344
50
280.2255091
51
298.6338936
0
ARC
8
DEFAULT_255_1_234
10
16.4275378
20
70.4359223
40
0.2017294
50
299.0430333
51
300.4643464
0
ARC
8
DEFAULT_255_1_234
10
16.3595383
20
70.5493038
40
0.3339357
50
300.6577328
51
322.0378878
0
ARC
8
DEFAULT_255_1_234
10
16.3244923
20
70.5797021
40
0.3802736
50
321.6750233
51
322.3046845
0
ARC
8
DEFAULT_255_1_234
10
16.4175884
20
70.463037
40
0.3520454
50
276.9728461
51
328.0035423
0
ARC
8
DEFAULT_255_1_234
10
16.3898937
20
70.6110841
40
0.5024498
50
269.8361028
51
278.0581756
0
ARC
8
DEFAULT_255_1_234
10
16.3671674
20
70.6855757
40
0.202159
50
89.2018686
51
117.2851756
0
ARC
8
DEFAULT_255_1_234
10
16.3724843
20
70.6813752
40
0.2083484
50
118.0551165
51
137.4540413
0
ARC
8
DEFAULT_255_1_234
10
16.4099583
20
70.6473304
40
0.2589774
50
137.5109581
51
158.8516286
0
ARC
8
DEFAULT_255_1_234
10
16.5237419
20
70.6014074
40
0.38167
50
158.5845963
51
170.1721436
0
ARC
8
DEFAULT_255_1_234
10
16.6406808
20
70.5781823
40
0.5008657
50
169.8376422
51
173.0566086
0
ARC
8
DEFAULT_255_1_234
10
16.1709882
20
70.6292509
40
0.4083467
50
2.9091802
51
12.8847116
0
ARC
8
DEFAULT_255_1_234
10
16.3080558
20
70.6615101
40
0.2675383
50
12.6957781
51
28.6404489
0
ARC
8
DEFAULT_255_1_234
10
16.3622229
20
70.6895458
40
0.2065654
50
29.0169854
51
41.1487595
0
ARC
8
DEFAULT_255_1_234
10
16.3825014
20
70.7072003
40
0.1796786
50
41.1646065
51
85.0013516
0
ARC
8
DEFAULT_255_1_234
10
16.3704111
20
70.6337431
40
0.2539726
50
83.7280015
51
90.0964893
0
LINE
8
DEFAULT_255_1_234
10
17.5458299
20
70.7383248
11
17.3964396
21
70.7383248
0
LINE
8
DEFAULT_255_1_234
10
16.8631321
20
70.3921569
11
17.0117193
21
70.3921569
0
ARC
8
DEFAULT_255_1_234
10
17.2776214
20
70.3566959
40
0.1276617
50
359.3334982
51
18.5871358
0
ARC
8
DEFAULT_255_1_234
10
17.2984851
20
70.3622133
40
0.1061371
50
19.3540742
51
54.6485071
0
ARC
8
DEFAULT_255_1_234
10
17.2480753
20
70.2926919
40
0.1920087
50
54.3827097
51
65.0622807
0
ARC
8
DEFAULT_255_1_234
10
17.171215
20
70.13099
40
0.3710447
50
64.8282493
51
71.4200025
0
ARC
8
DEFAULT_255_1_234
10
17.0810025
20
69.8663107
40
0.6506741
50
71.3164301
51
75.8006402
0
ARC
8
DEFAULT_255_1_234
10
16.9968845
20
69.5422561
40
0.9854641
50
75.6809531
51
78.0061883
0
ARC
8
DEFAULT_255_1_234
10
17.4417378
20
71.640177
40
1.1591028
50
254.6901892
51
258.0466452
0
ARC
8
DEFAULT_255_1_234
10
17.3379287
20
71.2642781
40
0.7691345
50
249.9010773
51
254.755261
0
ARC
8
DEFAULT_255_1_234
10
17.2375629
20
70.9916982
40
0.478665
50
243.3097214
51
249.9709442
0
ARC
8
DEFAULT_255_1_234
10
17.174665
20
70.8662778
40
0.3383568
50
234.4047477
51
243.2862168
0
ARC
8
DEFAULT_255_1_234
10
17.1124173
20
70.7803232
40
0.2322322
50
220.8667099
51
234.5493881
0
ARC
8
DEFAULT_255_1_234
10
17.0782114
20
70.7491817
40
0.1859923
50
214.3062465
51
220.5065136
0
ARC
8
DEFAULT_255_1_234
10
17.0756194
20
70.746088
40
0.1821108
50
186.912965
51
213.9618616
0
ARC
8
DEFAULT_255_1_234
10
17.1288288
20
70.7547009
40
0.2359799
50
179.8808832
51
187.4339886
0
ARC
8
DEFAULT_255_1_234
10
17.1133422
20
70.7567088
40
0.2204978
50
132.005434
51
180.3942919
0
ARC
8
DEFAULT_255_1_234
10
17.1790035
20
70.6961083
40
0.3095791
50
129.2319861
51
133.5302299
0
ARC
8
DEFAULT_255_1_234
10
17.1843543
20
70.6866928
40
0.3202615
50
100.4410011
51
128.9081242
0
ARC
8
DEFAULT_255_1_234
10
17.2117427
20
70.5581455
40
0.4516583
50
89.6985377
51
100.9026564
0
ARC
8
DEFAULT_255_1_234
10
17.2174469
20
70.5421166
40
0.4676928
50
77.6965325
51
90.4076836
0
ARC
8
DEFAULT_255_1_234
10
17.2505453
20
70.6848413
40
0.3211988
50
50.7276602
51
78.0399361
0
ARC
8
DEFAULT_255_1_234
10
17.2949911
20
70.7366296
40
0.2529778
50
25.7545084
51
51.0957453
0
ARC
8
DEFAULT_255_1_234
10
17.2951136
20
70.7416206
40
0.250738
50
359.2468627
51
24.7394243
0
ARC
8
DEFAULT_255_1_234
10
17.2666588
20
70.7387664
40
0.1297815
50
359.8050318
51
45.1544908
0
ARC
8
DEFAULT_255_1_234
10
17.225973
20
70.7039794
40
0.1831883
50
43.8047702
51
49.6271585
0
ARC
8
DEFAULT_255_1_234
10
17.2267632
20
70.7040678
40
0.18261
50
49.7980766
51
82.1218353
0
ARC
8
DEFAULT_255_1_234
10
17.2148603
20
70.6393998
40
0.2483163
50
81.4465357
51
90.1710293
0
ARC
8
DEFAULT_255_1_234
10
17.2124206
20
70.586788
40
0.300932
50
89.6766211
51
99.1264602
0
ARC
8
DEFAULT_255_1_234
10
17.1952668
20
70.6901537
40
0.1961547
50
98.968313
51
113.4570237
0
ARC
8
DEFAULT_255_1_234
10
17.1756753
20
70.7369965
40
0.1453859
50
113.722589
51
127.4763106
0
ARC
8
DEFAULT_255_1_234
10
17.1588399
20
70.7570124
40
0.1192639
50
126.9083309
51
150.3165862
0
ARC
8
DEFAULT_255_1_234
10
17.1540732
20
70.7620981
40
0.112623
50
151.3635175
51
180.0701457
0
ARC
8
DEFAULT_255_1_234
10
17.1849517
20
70.759999
40
0.1435149
50
179.2169974
51
179.9954013
0
ARC
8
DEFAULT_255_1_234
10
17.1488574
20
70.7587056
40
0.1074286
50
179.3040112
51
198.4225446
0
ARC
8
DEFAULT_255_1_234
10
17.1296708
20
70.7537127
40
0.0876573
50
199.2895851
51
238.6034594
0
ARC
8
DEFAULT_255_1_234
10
17.1899554
20
70.848345
40
0.1998512
50
237.9846301
51
246.8744712
0
ARC
8
DEFAULT_255_1_234
10
17.2757499
20
71.0446205
40
0.4140547
50
246.6234531
51
251.8168941
0
ARC
8
DEFAULT_255_1_234
10
17.3788043
20
71.3540905
40
0.7402308
50
251.713434
51
255.0778414
0
ARC
8
DEFAULT_255_1_234
10
17.4987305
20
71.8007563
40
1.2027155
50
255.0367487
51
257.4705983
0
ARC
8
DEFAULT_255_1_234
10
16.9879315
20
69.4993863
40
1.1546601
50
73.6837552
51
77.5016755
0
ARC
8
DEFAULT_255_1_234
10
17.096809
20
69.8693581
40
0.7690009
50
68.7044154
51
73.7249639
0
ARC
8
DEFAULT_255_1_234
10
17.1871111
20
70.1020654
40
0.5193873
50
63.590599
51
68.6626804
0
ARC
8
DEFAULT_255_1_234
10
17.264213
20
70.2558123
40
0.3473927
50
54.7106439
51
63.7013633
0
ARC
8
DEFAULT_255_1_234
10
17.3266584
20
70.34304
40
0.2401192
50
41.0622434
51
54.8487496
0
ARC
8
DEFAULT_255_1_234
10
17.3607971
20
70.3743592
40
0.1938094
50
34.4950568
51
40.7105546
0
ARC
8
DEFAULT_255_1_234
10
17.3654778
20
70.3792078
40
0.1872106
50
9.3763373
51
34.0833615
0
ARC
8
DEFAULT_255_1_234
10
17.3001648
20
70.3666728
40
0.2536988
50
359.7694872
51
9.7663171
0
ARC
8
DEFAULT_255_1_234
10
17.3199149
20
70.3623764
40
0.2339696
50
335.8654732
51
0.8022045
0
ARC
8
DEFAULT_255_1_234
10
17.3274194
20
70.3637197
40
0.2277108
50
307.7357725
51
334.7849066
0
ARC
8
DEFAULT_255_1_234
10
17.2873369
20
70.4087645
40
0.2878951
50
307.0241536
51
308.5578354
0
ARC
8
DEFAULT_255_1_234
10
17.2615701
20
70.4473801
40
0.3342515
50
282.9362969
51
306.5646424
0
ARC
8
DEFAULT_255_1_234
10
17.2253998
20
70.5941108
40
0.4853615
50
271.1026298
51
283.2200835
0
ARC
8
DEFAULT_255_1_234
10
17.2190242
20
70.7182418
40
0.6096052
50
269.9919117
51
271.4772449
0
ARC
8
DEFAULT_255_1_234
10
17.2163997
20
70.6104436
40
0.5018135
50
259.0723564
51
270.289833
0
ARC
8
DEFAULT_255_1_234
10
17.1951729
20
70.4987271
40
0.388099
50
245.4963068
51
259.0227342
0
ARC
8
DEFAULT_255_1_234
10
17.1673686
20
70.4405615
40
0.3236422
50
228.9684658
51
245.7044727
0
ARC
8
DEFAULT_255_1_234
10
17.1408129
20
70.4078575
40
0.2815426
50
214.4011705
51
228.6759915
0
ARC
8
DEFAULT_255_1_234
10
17.111887
20
70.392029
40
0.2487548
50
179.9705531
51
215.1572795
0
ARC
8
DEFAULT_255_1_234
10
17.181947
20
70.3993806
40
0.1703809
50
182.4299387
51
203.0329699
0
ARC
8
DEFAULT_255_1_234
10
17.1635127
20
70.3937396
40
0.1512226
50
203.798802
51
232.548466
0
ARC
8
DEFAULT_255_1_234
10
17.1911649
20
70.4288826
40
0.1959374
50
232.3782728
51
256.3934612
0
ARC
8
DEFAULT_255_1_234
10
17.214201
20
70.5178842
40
0.2878639
50
256.104506
51
268.4626716
0
ARC
8
DEFAULT_255_1_234
10
17.2188495
20
70.5975487
40
0.3676329
50
268.0715632
51
270.0138206
0
ARC
8
DEFAULT_255_1_234
10
17.2207019
20
70.5703083
40
0.3403971
50
269.7031147
51
278.8341955
0
ARC
8
DEFAULT_255_1_234
10
17.2389112
20
70.4572876
40
0.2259217
50
278.6728789
51
292.8232582
0
ARC
8
DEFAULT_255_1_234
10
17.2589651
20
70.4071449
40
0.171929
50
293.1452328
51
303.6655899
0
ARC
8
DEFAULT_255_1_234
10
17.285453
20
70.3695204
40
0.1259367
50
303.1248165
51
321.742847
0
ARC
8
DEFAULT_255_1_234
10
17.304041
20
70.3532156
40
0.1012531
50
322.4748573
51
1.1291126
0
LINE
8
DEFAULT_255_2_778
10
9.3932417
20
60.721908
11
10.7161417
21
60.721908
0
LINE
8
DEFAULT_255_2_778
10
10.7161417
20
60.721908
11
10.7161417
21
35.586508
0
LINE
8
DEFAULT_255_2_778
10
9.3932834
20
35.5864333
11
12.0390834
21
35.5864333
0
LINE
8
DEFAULT_255_2_778
10
12.0390834
20
35.5864333
11
12.0390834
21
30.2947333
0
LINE
8
DEFAULT_255_2_778
10
12.0390834
20
30.2947333
11
9.3932834
21
30.2947333
0
LINE
8
DEFAULT_255_2_778
10
9.3932834
20
30.2947333
11
9.3932834
21
35.5864333
0
ARC
8
DEFAULT_255_2_778_1
10
13.1928591
20
30.397177
40
4.816461
50
120.9442904
51
122.351755
0
ARC
8
DEFAULT_255_2_778_1
10
12.7462523
20
31.1008039
40
3.9830657
50
122.3407904
51
124.1946752
0
ARC
8
DEFAULT_255_2_778_1
10
12.3063464
20
31.7473306
40
3.2010724
50
124.1855758
51
126.4338849
0
ARC
8
DEFAULT_255_2_778_1
10
11.9204129
20
32.2700611
40
2.5513094
50
126.4326926
51
128.8877368
0
ARC
8
DEFAULT_255_2_778_1
10
11.5855968
20
32.6844658
40
2.0185498
50
128.8749205
51
131.8726567
0
ARC
8
DEFAULT_255_2_778_1
10
11.2884677
20
33.0154854
40
1.5737356
50
131.8616166
51
135.4168838
0
ARC
8
DEFAULT_255_2_778_1
10
11.025668
20
33.2736765
40
1.2053256
50
135.3893975
51
139.9687014
0
ARC
8
DEFAULT_255_2_778_1
10
10.7927889
20
33.4685102
40
0.9016937
50
139.9301659
51
145.9260426
0
ARC
8
DEFAULT_255_2_778_1
10
10.596654
20
33.6005104
40
0.6652776
50
145.8787362
51
153.8146208
0
ARC
8
DEFAULT_255_2_778_1
10
10.4445553
20
33.6748797
40
0.4959714
50
153.770634
51
164.3484794
0
ARC
8
DEFAULT_255_2_778_1
10
10.3432387
20
33.7030786
40
0.3908039
50
164.3220276
51
179.8083066
0
ARC
8
DEFAULT_255_2_778_1
10
10.3642789
20
33.711215
40
0.4118985
50
180.9499449
51
213.8111542
0
ARC
8
DEFAULT_255_2_778_1
10
10.6401828
20
33.8807896
40
0.73561
50
212.8271214
51
224.258472
0
ARC
8
DEFAULT_255_2_778_1
10
11.0230335
20
34.2501236
40
1.267567
50
224.1376218
51
231.4508261
0
ARC
8
DEFAULT_255_2_778_1
10
11.6657195
20
35.0531168
40
2.2960809
50
231.3955893
51
236.1256478
0
ARC
8
DEFAULT_255_2_778_1
10
13.4980223
20
37.7996293
40
5.5976905
50
236.2233172
51
239.1314682
0
ARC
8
DEFAULT_255_2_778_1
10
25.447927
20
57.5273568
40
28.6623793
50
238.8606853
51
239.0711101
0
ARC
8
DEFAULT_255_2_778_1
10
6.2757281
20
25.4302653
40
8.7248518
50
57.2420924
51
59.4062964
0
ARC
8
DEFAULT_255_2_778_1
10
9.5034241
20
30.4612102
40
2.747542
50
52.8289294
51
57.079028
0
ARC
8
DEFAULT_255_2_778_1
10
10.2780783
20
31.4815488
40
1.466457
50
46.3041868
51
52.8596521
0
ARC
8
DEFAULT_255_2_778_1
10
10.7103073
20
31.9316842
40
0.8424061
50
36.2174211
51
46.4090895
0
ARC
8
DEFAULT_255_2_778_1
10
10.9948088
20
32.1365128
40
0.4918609
50
17.400375
51
36.5489745
0
ARC
8
DEFAULT_255_2_778_1
10
11.1088994
20
32.1763754
40
0.3710912
50
0.0676858
51
16.7951297
0
ARC
8
DEFAULT_255_2_778_1
10
11.0878613
20
32.1782428
40
0.3921317
50
343.8035191
51
359.7912046
0
ARC
8
DEFAULT_255_2_778_1
10
10.9815912
20
32.2087167
40
0.5026844
50
333.2506233
51
343.8465691
0
ARC
8
DEFAULT_255_2_778_1
10
10.8277757
20
32.2854313
40
0.6745679
50
325.6600948
51
333.3122657
0
ARC
8
DEFAULT_255_2_778_1
10
10.6323344
20
32.4182296
40
0.9108568
50
319.7560915
51
325.6976089
0
ARC
8
DEFAULT_255_2_778_1
10
10.404199
20
32.6100002
40
1.2088854
50
315.4577584
51
319.8037947
0
ARC
8
DEFAULT_255_2_778_1
10
10.1408127
20
32.8688507
40
1.5781764
50
311.7298824
51
315.4670864
0
ARC
8
DEFAULT_255_2_778_1
10
9.8317879
20
33.2144074
40
2.0417554
50
308.723055
51
311.7470879
0
ARC
8
DEFAULT_255_2_778_1
10
9.477589
20
33.6556492
40
2.6075745
50
306.1165163
51
308.7300151
0
ARC
8
DEFAULT_255_2_778_1
10
9.0746091
20
34.2069523
40
3.2904564
50
303.9559446
51
306.1266333
0
ARC
8
DEFAULT_255_2_778_1
10
8.6630432
20
34.816215
40
4.0257023
50
302.3733397
51
303.9712246
0
ARC
8
DEFAULT_255_2_778_1
10
8.2434347
20
35.4777058
40
4.8090549
50
300.9434827
51
302.3758078
0
LINE
8
DEFAULT_255_2_778
10
10.7161417
20
30.294808
11
10.7161417
21
5.159408
0
LINE
8
DEFAULT_255_2_778
10
10.7161417
20
5.159408
11
9.3932417
21
5.159408
0
LINE
8
DEFAULT_255_1_234
10
4.9274119
20
68.2616792
11
4.9274119
21
68.1404
0
LINE
8
DEFAULT_255_1_234
10
4.9274119
20
68.1404
11
4.161184
21
68.1404
0
LINE
8
DEFAULT_255_1_234
10
4.161184
20
68.1404
11
4.161184
21
68.2472221
0
LINE
8
DEFAULT_255_1_234
10
4.161184
20
68.2472221
11
4.5659836
21
68.6969995
0
LINE
8
DEFAULT_255_1_234
10
4.2872823
20
68.9652595
11
4.1386952
21
68.9652595
0
LINE
8
DEFAULT_255_1_234
10
4.6535296
20
68.6014218
11
4.3402918
21
68.2616792
0
LINE
8
DEFAULT_255_1_234
10
4.3402918
20
68.2616792
11
4.9274119
21
68.2616792
0
ARC
8
DEFAULT_255_1_234
10
3.216967
20
69.8899527
40
1.8008286
50
318.5132453
51
320.7828378
0
ARC
8
DEFAULT_255_1_234
10
3.7456644
20
69.4596426
40
1.1191493
50
320.7372736
51
323.9737074
0
ARC
8
DEFAULT_255_1_234
10
4.1376501
20
69.1756361
40
0.6350923
50
323.8961724
51
328.6421089
0
ARC
8
DEFAULT_255_1_234
10
4.3423096
20
69.0494031
40
0.3946393
50
328.8299013
51
331.789948
0
ARC
8
DEFAULT_255_1_234
10
4.4420274
20
68.9979509
40
0.2824501
50
331.4255242
51
352.9364833
0
ARC
8
DEFAULT_255_1_234
10
4.4556775
20
68.9948976
40
0.2685315
50
353.2248685
51
0.0169286
0
ARC
8
DEFAULT_255_1_234
10
4.4766652
20
68.997195
40
0.2475536
50
359.4866256
51
15.9339782
0
ARC
8
DEFAULT_255_1_234
10
4.5273637
20
69.0108286
40
0.1950618
50
16.1714718
51
43.5284424
0
ARC
8
DEFAULT_255_1_234
10
4.5350946
20
69.0185573
40
0.184134
50
43.4415429
51
83.1661404
0
ARC
8
DEFAULT_255_1_234
10
4.5216864
20
68.9448771
40
0.258926
50
82.160215
51
90.1505798
0
ARC
8
DEFAULT_255_1_234
10
4.5185291
20
68.8911865
40
0.3126255
50
89.5460705
51
102.5418777
0
ARC
8
DEFAULT_255_1_234
10
4.4942377
20
68.9942665
40
0.2067346
50
102.1739365
51
129.2061916
0
ARC
8
DEFAULT_255_1_234
10
4.4863449
20
69.0067094
40
0.1921118
50
129.7279328
51
135.7542026
0
ARC
8
DEFAULT_255_1_234
10
4.4984977
20
68.9970045
40
0.2075944
50
136.175737
51
166.3674722
0
ARC
8
DEFAULT_255_1_234
10
4.5991896
20
68.9700182
40
0.3118201
50
165.9092917
51
178.8683903
0
ARC
8
DEFAULT_255_1_234
10
4.6856757
20
68.9653179
40
0.3983935
50
178.438168
51
180.0083905
0
ARC
8
DEFAULT_255_1_234
10
4.5455359
20
68.9692231
40
0.4068601
50
163.2878735
51
180.5581814
0
ARC
8
DEFAULT_255_1_234
10
4.4653621
20
68.991284
40
0.3237344
50
133.454115
51
162.9470031
0
ARC
8
DEFAULT_255_1_234
10
4.4832162
20
68.9723
40
0.349795
50
100.7869394
51
133.4384016
0
ARC
8
DEFAULT_255_1_234
10
4.5179934
20
68.8174319
40
0.5084616
50
89.6605301
51
101.3704185
0
ARC
8
DEFAULT_255_1_234
10
4.5246273
20
68.8235496
40
0.502348
50
78.2171172
51
90.4130393
0
ARC
8
DEFAULT_255_1_234
10
4.5601351
20
68.9859637
40
0.3361092
50
55.9268222
51
78.4888551
0
ARC
8
DEFAULT_255_1_234
10
4.5797791
20
69.0198324
40
0.2970617
50
47.9292255
51
55.4054003
0
ARC
8
DEFAULT_255_1_234
10
4.5899352
20
69.0301502
40
0.2825983
50
4.3347696
51
48.0560701
0
ARC
8
DEFAULT_255_1_234
10
4.4803745
20
69.0131601
40
0.393225
50
359.925209
51
5.5967654
0
ARC
8
DEFAULT_255_1_234
10
4.5232637
20
69.0187816
40
0.3503892
50
337.8914096
51
358.9967724
0
ARC
8
DEFAULT_255_1_234
10
4.2519049
20
69.1234706
40
0.6412172
50
326.9135351
51
338.3505194
0
ARC
8
DEFAULT_255_1_234
10
3.8533353
20
69.3789284
40
1.1146189
50
319.6472867
51
327.095818
0
ARC
8
DEFAULT_255_1_234
10
3.4700356
20
69.6951
40
1.6114559
50
317.2586784
51
319.9046139
0
LINE
8
DEFAULT_255_1_234
10
5.7121127
20
69.3098211
11
5.7121127
21
68.533152
0
LINE
8
DEFAULT_255_1_234
10
5.7121127
20
68.533152
11
5.8743538
21
68.533152
0
LINE
8
DEFAULT_255_1_234
10
5.8743538
20
68.533152
11
5.8743538
21
68.4118728
0
LINE
8
DEFAULT_255_1_234
10
5.8743538
20
68.4118728
11
5.7121127
21
68.4118728
0
LINE
8
DEFAULT_255_1_234
10
5.7121127
20
68.4118728
11
5.7121127
21
68.1404
0
LINE
8
DEFAULT_255_1_234
10
5.7121127
20
68.1404
11
5.5627224
21
68.1404
0
LINE
8
DEFAULT_255_1_234
10
5.5627224
20
68.1404
11
5.5627224
21
68.4118728
0
LINE
8
DEFAULT_255_1_234
10
5.5627224
20
68.4118728
11
5.0302181
21
68.4118728
0
LINE
8
DEFAULT_255_1_234
10
5.0302181
20
68.4118728
11
5.0302181
21
68.4994187
0
LINE
8
DEFAULT_255_1_234
10
5.0302181
20
68.4994187
11
5.5538875
21
69.3098211
0
LINE
8
DEFAULT_255_1_234
10
5.5538875
20
69.3098211
11
5.7121127
21
69.3098211
0
LINE
8
DEFAULT_255_1_234
10
5.5450525
20
69.0744912
11
5.1988846
21
68.533152
0
LINE
8
DEFAULT_255_1_234
10
5.1988846
20
68.533152
11
5.5627224
21
68.533152
0
LINE
8
DEFAULT_255_1_234
10
5.5627224
20
68.533152
11
5.5627224
21
69.1066181
0
LINE
8
DEFAULT_255_1_234
10
5.5627224
20
69.1066181
11
5.5450525
21
69.0744912
0
LINE
8
DEFAULT_255_1_234
10
6.101652
20
69.3098211
11
6.434166
21
68.3452093
0
LINE
8
DEFAULT_255_1_234
10
6.434166
20
68.3452093
11
6.7682863
21
69.3098211
0
LINE
8
DEFAULT_255_1_234
10
6.7682863
20
69.3098211
11
6.9369528
21
69.3098211
0
LINE
8
DEFAULT_255_1_234
10
6.9369528
20
69.3098211
11
6.5032389
21
68.1404
0
LINE
8
DEFAULT_255_1_234
10
6.5032389
20
68.1404
11
6.3666994
21
68.1404
0
LINE
8
DEFAULT_255_1_234
10
6.3666994
20
68.1404
11
5.9337887
21
69.3098211
0
LINE
8
DEFAULT_255_1_234
10
5.9337887
20
69.3098211
11
6.101652
21
69.3098211
0
LINE
8
DEFAULT_255_1_234
10
4.8146628
20
5.8098211
11
4.8146628
21
5.033152
0
LINE
8
DEFAULT_255_1_234
10
4.8146628
20
5.033152
11
4.9769039
21
5.033152
0
LINE
8
DEFAULT_255_1_234
10
4.9769039
20
5.033152
11
4.9769039
21
4.9118728
0
LINE
8
DEFAULT_255_1_234
10
4.9769039
20
4.9118728
11
4.8146628
21
4.9118728
0
LINE
8
DEFAULT_255_1_234
10
4.8146628
20
4.9118728
11
4.8146628
21
4.6404
0
LINE
8
DEFAULT_255_1_234
10
4.8146628
20
4.6404
11
4.6652725
21
4.6404
0
LINE
8
DEFAULT_255_1_234
10
4.6652725
20
4.6404
11
4.6652725
21
4.9118728
0
LINE
8
DEFAULT_255_1_234
10
4.6652725
20
4.9118728
11
4.1327682
21
4.9118728
0
LINE
8
DEFAULT_255_1_234
10
4.1327682
20
4.9118728
11
4.1327682
21
4.9994187
0
LINE
8
DEFAULT_255_1_234
10
4.1327682
20
4.9994187
11
4.6564375
21
5.8098211
0
LINE
8
DEFAULT_255_1_234
10
4.6564375
20
5.8098211
11
4.8146628
21
5.8098211
0
LINE
8
DEFAULT_255_1_234
10
4.6476026
20
5.5744912
11
4.3014347
21
5.033152
0
LINE
8
DEFAULT_255_1_234
10
4.3014347
20
5.033152
11
4.6652725
21
5.033152
0
LINE
8
DEFAULT_255_1_234
10
4.6652725
20
5.033152
11
4.6652725
21
5.6066181
0
LINE
8
DEFAULT_255_1_234
10
4.6652725
20
5.6066181
11
4.6476026
21
5.5744912
0
LINE
8
DEFAULT_255_1_234
10
5.4355162
20
5.1978026
11
5.4355162
21
5.0765234
0
LINE
8
DEFAULT_255_1_234
10
5.4355162
20
5.0765234
11
5.0435673
21
5.0765234
0
LINE
8
DEFAULT_255_1_234
10
5.0435673
20
5.0765234
11
5.0435673
21
5.1978026
0
LINE
8
DEFAULT_255_1_234
10
5.0435673
20
5.1978026
11
5.4355162
21
5.1978026
0
LINE
8
DEFAULT_255_1_234
10
4.7865628
20
13.7473211
11
4.7865628
21
12.970652
0
LINE
8
DEFAULT_255_1_234
10
4.7865628
20
12.970652
11
4.9488039
21
12.970652
0
LINE
8
DEFAULT_255_1_234
10
4.9488039
20
12.970652
11
4.9488039
21
12.8493728
0
LINE
8
DEFAULT_255_1_234
10
4.9488039
20
12.8493728
11
4.7865628
21
12.8493728
0
LINE
8
DEFAULT_255_1_234
10
4.7865628
20
12.8493728
11
4.7865628
21
12.5779
0
LINE
8
DEFAULT_255_1_234
10
4.7865628
20
12.5779
11
4.6371725
21
12.5779
0
LINE
8
DEFAULT_255_1_234
10
4.6371725
20
12.5779
11
4.6371725
21
12.8493728
0
LINE
8
DEFAULT_255_1_234
10
4.6371725
20
12.8493728
11
4.1046682
21
12.8493728
0
LINE
8
DEFAULT_255_1_234
10
4.1046682
20
12.8493728
11
4.1046682
21
12.9369187
0
LINE
8
DEFAULT_255_1_234
10
4.1046682
20
12.9369187
11
4.6283375
21
13.7473211
0
LINE
8
DEFAULT_255_1_234
10
4.6283375
20
13.7473211
11
4.7865628
21
13.7473211
0
LINE
8
DEFAULT_255_1_234
10
4.6195026
20
13.5119912
11
4.2733347
21
12.970652
0
LINE
8
DEFAULT_255_1_234
10
4.2733347
20
12.970652
11
4.6371725
21
12.970652
0
LINE
8
DEFAULT_255_1_234
10
4.6371725
20
12.970652
11
4.6371725
21
13.5441181
0
LINE
8
DEFAULT_255_1_234
10
4.6371725
20
13.5441181
11
4.6195026
21
13.5119912
0
LINE
8
DEFAULT_255_1_234
10
5.5238764
20
13.5465276
11
5.5238764
21
13.2051788
0
LINE
8
DEFAULT_255_1_234
10
5.5238764
20
13.2051788
11
5.8499649
21
13.2051788
0
LINE
8
DEFAULT_255_1_234
10
5.8499649
20
13.2051788
11
5.8499649
21
13.0646233
0
LINE
8
DEFAULT_255_1_234
10
5.8499649
20
13.0646233
11
5.5238764
21
13.0646233
0
LINE
8
DEFAULT_255_1_234
10
5.5238764
20
13.0646233
11
5.5238764
21
12.6951634
0
LINE
8
DEFAULT_255_1_234
10
5.5238764
20
12.6951634
11
5.374486
21
12.6951634
0
LINE
8
DEFAULT_255_1_234
10
5.374486
20
12.6951634
11
5.374486
21
13.0646233
0
LINE
8
DEFAULT_255_1_234
10
5.374486
20
13.0646233
11
5.0483975
21
13.0646233
0
LINE
8
DEFAULT_255_1_234
10
5.0483975
20
13.0646233
11
5.0483975
21
13.2051788
0
LINE
8
DEFAULT_255_1_234
10
5.0483975
20
13.2051788
11
5.374486
21
13.2051788
0
LINE
8
DEFAULT_255_1_234
10
5.374486
20
13.2051788
11
5.374486
21
13.5465276
0
LINE
8
DEFAULT_255_1_234
10
5.374486
20
13.5465276
11
5.5238764
21
13.5465276
0
LINE
8
DEFAULT_255_1_234
10
4.2976378
20
21.0511169
11
4.2976378
21
21.1723962
0
LINE
8
DEFAULT_255_1_234
10
4.2976378
20
21.1723962
11
4.409279
21
21.1723962
0
LINE
8
DEFAULT_255_1_234
10
4.2189268
20
21.3780087
11
4.0703396
21
21.3780087
0
LINE
8
DEFAULT_255_1_234
10
4.0598983
20
20.8238188
11
4.2092887
21
20.8238188
0
LINE
8
DEFAULT_255_1_234
10
4.409279
20
21.0511169
11
4.2976378
21
21.0511169
0
ARC
8
DEFAULT_255_1_234
10
4.4063656
20
21.5116713
40
0.3392876
50
270.4919872
51
281.8951556
0
ARC
8
DEFAULT_255_1_234
10
4.4304918
20
21.4014702
40
0.2264817
50
281.6691735
51
301.2943132
0
ARC
8
DEFAULT_255_1_234
10
4.4475128
20
21.3703304
40
0.1910381
50
301.7833094
51
311.7545298
0
ARC
8
DEFAULT_255_1_234
10
4.4566704
20
21.3601748
40
0.1773635
50
311.7323931
51
354.2802411
0
ARC
8
DEFAULT_255_1_234
10
4.3840329
20
21.3726722
40
0.2509385
50
353.0937916
51
0.1181479
0
ARC
8
DEFAULT_255_1_234
10
4.3379114
20
21.3774386
40
0.2970898
50
359.1805295
51
15.0453146
0
ARC
8
DEFAULT_255_1_234
10
4.4724951
20
21.4166992
40
0.1569564
50
13.9577229
51
77.6713066
0
ARC
8
DEFAULT_255_1_234
10
4.433848
20
21.2781949
40
0.3006298
50
76.1116566
51
90.7026153
0
ARC
8
DEFAULT_255_1_234
10
4.4279318
20
21.3055545
40
0.2732568
50
89.5324876
51
103.531937
0
ARC
8
DEFAULT_255_1_234
10
4.4078762
20
21.3854884
40
0.1908508
50
103.2931773
51
133.5619022
0
ARC
8
DEFAULT_255_1_234
10
4.4034251
20
21.3914375
40
0.1834746
50
133.8349307
51
173.5344437
0
ARC
8
DEFAULT_255_1_234
10
4.4757294
20
21.3786213
40
0.2568033
50
172.5096846
51
180.1366907
0
ARC
8
DEFAULT_255_1_234
10
4.3806188
20
21.3820622
40
0.3103056
50
155.3484492
51
180.7484736
0
ARC
8
DEFAULT_255_1_234
10
4.3757277
20
21.3791846
40
0.3070957
50
131.5744599
51
154.4798489
0
ARC
8
DEFAULT_255_1_234
10
4.4070424
20
21.347531
40
0.3515643
50
96.9875458
51
131.9690667
0
ARC
8
DEFAULT_255_1_234
10
4.4289904
20
21.2229636
40
0.4779224
50
89.8596053
51
97.7825159
0
ARC
8
DEFAULT_255_1_234
10
4.4337967
20
21.1967616
40
0.5041361
50
78.3655447
51
90.4131539
0
ARC
8
DEFAULT_255_1_234
10
4.4695885
20
21.3626887
40
0.3344039
50
56.6229102
51
78.638727
0
ARC
8
DEFAULT_255_1_234
10
4.4910829
20
21.4002805
40
0.2912001
50
47.0253525
51
56.0854072
0
ARC
8
DEFAULT_255_1_234
10
4.4930609
20
21.4042223
40
0.2869704
50
10.9208013
51
46.7778124
0
ARC
8
DEFAULT_255_1_234
10
4.3566675
20
21.3726857
40
0.426899
50
359.6364486
51
11.6087304
0
ARC
8
DEFAULT_255_1_234
10
4.5401519
20
21.3711752
40
0.243409
50
332.3549906
51
359.7179418
0
ARC
8
DEFAULT_255_1_234
10
4.4751121
20
21.4020142
40
0.3153459
50
325.2333722
51
332.8745602
0
ARC
8
DEFAULT_255_1_234
10
4.4903744
20
21.3913828
40
0.2967456
50
292.9802137
51
325.2392345
0
ARC
8
DEFAULT_255_1_234
10
4.4629118
20
21.4447863
40
0.3566604
50
292.5402179
51
293.6924929
0
ARC
8
DEFAULT_255_1_234
10
4.5021714
20
20.7993091
40
0.3307468
50
57.6435486
51
72.8625112
0
ARC
8
DEFAULT_255_1_234
10
4.5376214
20
20.8567549
40
0.2632492
50
36.7248896
51
57.4697979
0
ARC
8
DEFAULT_255_1_234
10
4.5364847
20
20.858022
40
0.2634081
50
8.0545065
51
36.356114
0
ARC
8
DEFAULT_255_1_234
10
4.4502032
20
20.8425174
40
0.3510261
50
359.8320645
51
8.5869982
0
ARC
8
DEFAULT_255_1_234
10
4.4126808
20
20.8377101
40
0.3885653
50
343.9829931
51
0.5571613
0
ARC
8
DEFAULT_255_1_234
10
4.5013005
20
20.8134438
40
0.2966924
50
311.6359546
51
343.7651759
0
ARC
8
DEFAULT_255_1_234
10
4.4634574
20
20.8561102
40
0.3537231
50
279.7829875
51
311.6255694
0
ARC
8
DEFAULT_255_1_234
10
4.4333351
20
20.999828
40
0.5004971
50
269.7286406
51
280.3856417
0
ARC
8
DEFAULT_255_1_234
10
4.4271423
20
20.9956996
40
0.4963778
50
256.6828919
51
270.4412052
0
ARC
8
DEFAULT_255_1_234
10
4.3932719
20
20.8572394
40
0.3538406
50
229.4223008
51
256.8556159
0
ARC
8
DEFAULT_255_1_234
10
4.3518112
20
20.8105736
40
0.2914296
50
181.818294
51
229.6455059
0
ARC
8
DEFAULT_255_1_234
10
4.4558068
20
20.8236496
40
0.3959084
50
179.9755256
51
183.2323064
0
ARC
8
DEFAULT_255_1_234
10
4.4385814
20
20.8216037
40
0.2293034
50
179.4465117
51
196.2869258
0
ARC
8
DEFAULT_255_1_234
10
4.3898222
20
20.8082651
40
0.1787621
50
196.5661473
51
227.705904
0
ARC
8
DEFAULT_255_1_234
10
4.4062317
20
20.8266155
40
0.2033784
50
227.7652068
51
257.8762805
0
ARC
8
DEFAULT_255_1_234
10
4.4287287
20
20.9209156
40
0.3003081
50
257.4584385
51
270.426602
0
ARC
8
DEFAULT_255_1_234
10
4.4332853
20
20.9498996
40
0.329292
50
269.5962073
51
280.8789248
0
ARC
8
DEFAULT_255_1_234
10
4.4562382
20
20.8352685
40
0.2123908
50
280.6346389
51
299.8595945
0
ARC
8
DEFAULT_255_1_234
10
4.4753289
20
20.7990212
40
0.171457
50
300.3576302
51
314.5517981
0
ARC
8
DEFAULT_255_1_234
10
4.4670349
20
20.8050919
40
0.1816095
50
315.0728369
51
345.0431014
0
ARC
8
DEFAULT_255_1_234
10
4.3747163
20
20.8319841
40
0.2777492
50
344.5986631
51
357.9269593
0
ARC
8
DEFAULT_255_1_234
10
4.2851489
20
20.8381276
40
0.3674917
50
357.4748886
51
0.0231117
0
ARC
8
DEFAULT_255_1_234
10
4.3874599
20
20.8405679
40
0.2651907
50
359.5047933
51
13.4239635
0
ARC
8
DEFAULT_255_1_234
10
4.4741242
20
20.8627478
40
0.1757509
50
12.9498199
51
48.7551375
0
ARC
8
DEFAULT_255_1_234
10
4.4558976
20
20.83784
40
0.2065134
50
49.5088623
51
72.1836453
0
ARC
8
DEFAULT_255_1_234
10
4.4201129
20
20.7316291
40
0.3185836
50
71.9010081
51
84.3554254
0
ARC
8
DEFAULT_255_1_234
10
4.4039761
20
20.5955326
40
0.4556151
50
84.0193428
51
89.333121
0
LINE
8
DEFAULT_255_1_234
10
5.3297162
20
21.0728026
11
5.3297162
21
20.9515234
0
LINE
8
DEFAULT_255_1_234
10
5.3297162
20
20.9515234
11
4.9377673
21
20.9515234
0
LINE
8
DEFAULT_255_1_234
10
4.9377673
20
20.9515234
11
4.9377673
21
21.0728026
0
LINE
8
DEFAULT_255_1_234
10
4.9377673
20
21.0728026
11
5.3297162
21
21.0728026
0
LINE
8
DEFAULT_255_1_234
10
4.2695378
20
28.9886169
11
4.2695378
21
29.1098962
0
LINE
8
DEFAULT_255_1_234
10
4.2695378
20
29.1098962
11
4.381179
21
29.1098962
0
LINE
8
DEFAULT_255_1_234
10
4.1908268
20
29.3155087
11
4.0422396
21
29.3155087
0
LINE
8
DEFAULT_255_1_234
10
4.0317983
20
28.7613188
11
4.1811887
21
28.7613188
0
LINE
8
DEFAULT_255_1_234
10
4.381179
20
28.9886169
11
4.2695378
21
28.9886169
0
ARC
8
DEFAULT_255_1_234
10
4.3782656
20
29.4491713
40
0.3392876
50
270.4919872
51
281.8951556
0
ARC
8
DEFAULT_255_1_234
10
4.4023918
20
29.3389702
40
0.2264817
50
281.6691735
51
301.2943132
0
ARC
8
DEFAULT_255_1_234
10
4.4194128
20
29.3078304
40
0.1910381
50
301.7833094
51
311.7545298
0
ARC
8
DEFAULT_255_1_234
10
4.4285704
20
29.2976748
40
0.1773635
50
311.7323931
51
354.2802411
0
ARC
8
DEFAULT_255_1_234
10
4.3559329
20
29.3101722
40
0.2509385
50
353.0937916
51
0.1181479
0
ARC
8
DEFAULT_255_1_234
10
4.3098114
20
29.3149386
40
0.2970898
50
359.1805295
51
15.0453146
0
ARC
8
DEFAULT_255_1_234
10
4.4443951
20
29.3541992
40
0.1569564
50
13.9577229
51
77.6713066
0
ARC
8
DEFAULT_255_1_234
10
4.405748
20
29.2156949
40
0.3006298
50
76.1116566
51
90.7026153
0
ARC
8
DEFAULT_255_1_234
10
4.3998318
20
29.2430545
40
0.2732568
50
89.5324876
51
103.531937
0
ARC
8
DEFAULT_255_1_234
10
4.3797762
20
29.3229884
40
0.1908508
50
103.2931773
51
133.5619022
0
ARC
8
DEFAULT_255_1_234
10
4.3753251
20
29.3289375
40
0.1834746
50
133.8349307
51
173.5344437
0
ARC
8
DEFAULT_255_1_234
10
4.4476294
20
29.3161213
40
0.2568033
50
172.5096846
51
180.1366907
0
ARC
8
DEFAULT_255_1_234
10
4.3525188
20
29.3195622
40
0.3103056
50
155.3484492
51
180.7484736
0
ARC
8
DEFAULT_255_1_234
10
4.3476277
20
29.3166846
40
0.3070957
50
131.5744599
51
154.4798489
0
ARC
8
DEFAULT_255_1_234
10
4.3789424
20
29.285031
40
0.3515643
50
96.9875458
51
131.9690667
0
ARC
8
DEFAULT_255_1_234
10
4.4008904
20
29.1604636
40
0.4779224
50
89.8596053
51
97.7825159
0
ARC
8
DEFAULT_255_1_234
10
4.4056967
20
29.1342616
40
0.5041361
50
78.3655447
51
90.4131539
0
ARC
8
DEFAULT_255_1_234
10
4.4414885
20
29.3001887
40
0.3344039
50
56.6229102
51
78.638727
0
ARC
8
DEFAULT_255_1_234
10
4.4629829
20
29.3377805
40
0.2912001
50
47.0253525
51
56.0854072
0
ARC
8
DEFAULT_255_1_234
10
4.4649609
20
29.3417223
40
0.2869704
50
10.9208013
51
46.7778124
0
ARC
8
DEFAULT_255_1_234
10
4.3285675
20
29.3101857
40
0.426899
50
359.6364486
51
11.6087304
0
ARC
8
DEFAULT_255_1_234
10
4.5120519
20
29.3086752
40
0.243409
50
332.3549906
51
359.7179418
0
ARC
8
DEFAULT_255_1_234
10
4.4470121
20
29.3395142
40
0.3153459
50
325.2333722
51
332.8745602
0
ARC
8
DEFAULT_255_1_234
10
4.4622744
20
29.3288828
40
0.2967456
50
292.9802137
51
325.2392345
0
ARC
8
DEFAULT_255_1_234
10
4.4348118
20
29.3822863
40
0.3566604
50
292.5402179
51
293.6924929
0
ARC
8
DEFAULT_255_1_234
10
4.4740714
20
28.7368091
40
0.3307468
50
57.6435486
51
72.8625112
0
ARC
8
DEFAULT_255_1_234
10
4.5095214
20
28.7942549
40
0.2632492
50
36.7248896
51
57.4697979
0
ARC
8
DEFAULT_255_1_234
10
4.5083847
20
28.795522
40
0.2634081
50
8.0545065
51
36.356114
0
ARC
8
DEFAULT_255_1_234
10
4.4221032
20
28.7800174
40
0.3510261
50
359.8320645
51
8.5869982
0
ARC
8
DEFAULT_255_1_234
10
4.3845808
20
28.7752101
40
0.3885653
50
343.9829931
51
0.5571613
0
ARC
8
DEFAULT_255_1_234
10
4.4732005
20
28.7509438
40
0.2966924
50
311.6359546
51
343.7651759
0
ARC
8
DEFAULT_255_1_234
10
4.4353574
20
28.7936102
40
0.3537231
50
279.7829875
51
311.6255694
0
ARC
8
DEFAULT_255_1_234
10
4.4052351
20
28.937328
40
0.5004971
50
269.7286406
51
280.3856417
0
ARC
8
DEFAULT_255_1_234
10
4.3990423
20
28.9331996
40
0.4963778
50
256.6828919
51
270.4412052
0
ARC
8
DEFAULT_255_1_234
10
4.3651719
20
28.7947394
40
0.3538406
50
229.4223008
51
256.8556159
0
ARC
8
DEFAULT_255_1_234
10
4.3237112
20
28.7480736
40
0.2914296
50
181.818294
51
229.6455059
0
ARC
8
DEFAULT_255_1_234
10
4.4277068
20
28.7611496
40
0.3959084
50
179.9755256
51
183.2323064
0
ARC
8
DEFAULT_255_1_234
10
4.4104814
20
28.7591037
40
0.2293034
50
179.4465117
51
196.2869258
0
ARC
8
DEFAULT_255_1_234
10
4.3617222
20
28.7457651
40
0.1787621
50
196.5661473
51
227.705904
0
ARC
8
DEFAULT_255_1_234
10
4.3781317
20
28.7641155
40
0.2033784
50
227.7652068
51
257.8762805
0
ARC
8
DEFAULT_255_1_234
10
4.4006287
20
28.8584156
40
0.3003081
50
257.4584385
51
270.426602
0
ARC
8
DEFAULT_255_1_234
10
4.4051853
20
28.8873996
40
0.329292
50
269.5962073
51
280.8789248
0
ARC
8
DEFAULT_255_1_234
10
4.4281382
20
28.7727685
40
0.2123908
50
280.6346389
51
299.8595945
0
ARC
8
DEFAULT_255_1_234
10
4.4472289
20
28.7365212
40
0.171457
50
300.3576302
51
314.5517981
0
ARC
8
DEFAULT_255_1_234
10
4.4389349
20
28.7425919
40
0.1816095
50
315.0728369
51
345.0431014
0
ARC
8
DEFAULT_255_1_234
10
4.3466163
20
28.7694841
40
0.2777492
50
344.5986631
51
357.9269593
0
ARC
8
DEFAULT_255_1_234
10
4.2570489
20
28.7756276
40
0.3674917
50
357.4748886
51
0.0231117
0
ARC
8
DEFAULT_255_1_234
10
4.3593599
20
28.7780679
40
0.2651907
50
359.5047933
51
13.4239635
0
ARC
8
DEFAULT_255_1_234
10
4.4460242
20
28.8002478
40
0.1757509
50
12.9498199
51
48.7551375
0
ARC
8
DEFAULT_255_1_234
10
4.4277976
20
28.77534
40
0.2065134
50
49.5088623
51
72.1836453
0
ARC
8
DEFAULT_255_1_234
10
4.3920129
20
28.6691291
40
0.3185836
50
71.9010081
51
84.3554254
0
ARC
8
DEFAULT_255_1_234
10
4.3758761
20
28.5330326
40
0.4556151
50
84.0193428
51
89.333121
0
LINE
8
DEFAULT_255_1_234
10
5.4180764
20
29.4215276
11
5.4180764
21
29.0801788
0
LINE
8
DEFAULT_255_1_234
10
5.4180764
20
29.0801788
11
5.7441649
21
29.0801788
0
LINE
8
DEFAULT_255_1_234
10
5.7441649
20
29.0801788
11
5.7441649
21
28.9396233
0
LINE
8
DEFAULT_255_1_234
10
5.7441649
20
28.9396233
11
5.4180764
21
28.9396233
0
LINE
8
DEFAULT_255_1_234
10
5.4180764
20
28.9396233
11
5.4180764
21
28.5701634
0
LINE
8
DEFAULT_255_1_234
10
5.4180764
20
28.5701634
11
5.268686
21
28.5701634
0
LINE
8
DEFAULT_255_1_234
10
5.268686
20
28.5701634
11
5.268686
21
28.9396233
0
LINE
8
DEFAULT_255_1_234
10
5.268686
20
28.9396233
11
4.9425975
21
28.9396233
0
LINE
8
DEFAULT_255_1_234
10
4.9425975
20
28.9396233
11
4.9425975
21
29.0801788
0
LINE
8
DEFAULT_255_1_234
10
4.9425975
20
29.0801788
11
5.268686
21
29.0801788
0
LINE
8
DEFAULT_255_1_234
10
5.268686
20
29.0801788
11
5.268686
21
29.4215276
0
LINE
8
DEFAULT_255_1_234
10
5.268686
20
29.4215276
11
5.4180764
21
29.4215276
0
LINE
8
DEFAULT_255_1_234
10
4.8478119
20
36.5116792
11
4.8478119
21
36.3904
0
LINE
8
DEFAULT_255_1_234
10
4.8478119
20
36.3904
11
4.081584
21
36.3904
0
LINE
8
DEFAULT_255_1_234
10
4.081584
20
36.3904
11
4.081584
21
36.4972221
0
LINE
8
DEFAULT_255_1_234
10
4.081584
20
36.4972221
11
4.4863836
21
36.9469995
0
LINE
8
DEFAULT_255_1_234
10
4.2076823
20
37.2152595
11
4.0590952
21
37.2152595
0
LINE
8
DEFAULT_255_1_234
10
4.5739296
20
36.8514218
11
4.2606918
21
36.5116792
0
LINE
8
DEFAULT_255_1_234
10
4.2606918
20
36.5116792
11
4.8478119
21
36.5116792
0
ARC
8
DEFAULT_255_1_234
10
3.137367
20
38.1399527
40
1.8008286
50
318.5132453
51
320.7828378
0
ARC
8
DEFAULT_255_1_234
10
3.6660644
20
37.7096426
40
1.1191493
50
320.7372736
51
323.9737074
0
ARC
8
DEFAULT_255_1_234
10
4.0580501
20
37.4256361
40
0.6350923
50
323.8961724
51
328.6421089
0
ARC
8
DEFAULT_255_1_234
10
4.2627096
20
37.2994031
40
0.3946393
50
328.8299013
51
331.789948
0
ARC
8
DEFAULT_255_1_234
10
4.3624274
20
37.2479509
40
0.2824501
50
331.4255242
51
352.9364833
0
ARC
8
DEFAULT_255_1_234
10
4.3760775
20
37.2448976
40
0.2685315
50
353.2248685
51
0.0169286
0
ARC
8
DEFAULT_255_1_234
10
4.3970652
20
37.247195
40
0.2475536
50
359.4866256
51
15.9339782
0
ARC
8
DEFAULT_255_1_234
10
4.4477637
20
37.2608286
40
0.1950618
50
16.1714718
51
43.5284424
0
ARC
8
DEFAULT_255_1_234
10
4.4554946
20
37.2685573
40
0.184134
50
43.4415429
51
83.1661404
0
ARC
8
DEFAULT_255_1_234
10
4.4420864
20
37.1948771
40
0.258926
50
82.160215
51
90.1505798
0
ARC
8
DEFAULT_255_1_234
10
4.4389291
20
37.1411865
40
0.3126255
50
89.5460705
51
102.5418777
0
ARC
8
DEFAULT_255_1_234
10
4.4146377
20
37.2442665
40
0.2067346
50
102.1739365
51
129.2061916
0
ARC
8
DEFAULT_255_1_234
10
4.4067449
20
37.2567094
40
0.1921118
50
129.7279328
51
135.7542026
0
ARC
8
DEFAULT_255_1_234
10
4.4188977
20
37.2470045
40
0.2075944
50
136.175737
51
166.3674722
0
ARC
8
DEFAULT_255_1_234
10
4.5195896
20
37.2200182
40
0.3118201
50
165.9092917
51
178.8683903
0
ARC
8
DEFAULT_255_1_234
10
4.6060757
20
37.2153179
40
0.3983935
50
178.438168
51
180.0083905
0
ARC
8
DEFAULT_255_1_234
10
4.4659359
20
37.2192231
40
0.4068601
50
163.2878735
51
180.5581814
0
ARC
8
DEFAULT_255_1_234
10
4.3857621
20
37.241284
40
0.3237344
50
133.454115
51
162.9470031
0
ARC
8
DEFAULT_255_1_234
10
4.4036162
20
37.2223
40
0.349795
50
100.7869394
51
133.4384016
0
ARC
8
DEFAULT_255_1_234
10
4.4383934
20
37.0674319
40
0.5084616
50
89.6605301
51
101.3704185
0
ARC
8
DEFAULT_255_1_234
10
4.4450273
20
37.0735496
40
0.502348
50
78.2171172
51
90.4130393
0
ARC
8
DEFAULT_255_1_234
10
4.4805351
20
37.2359637
40
0.3361092
50
55.9268222
51
78.4888551
0
ARC
8
DEFAULT_255_1_234
10
4.5001791
20
37.2698324
40
0.2970617
50
47.9292255
51
55.4054003
0
ARC
8
DEFAULT_255_1_234
10
4.5103352
20
37.2801502
40
0.2825983
50
4.3347696
51
48.0560701
0
ARC
8
DEFAULT_255_1_234
10
4.4007745
20
37.2631601
40
0.393225
50
359.925209
51
5.5967654
0
ARC
8
DEFAULT_255_1_234
10
4.4436637
20
37.2687816
40
0.3503892
50
337.8914096
51
358.9967724
0
ARC
8
DEFAULT_255_1_234
10
4.1723049
20
37.3734706
40
0.6412172
50
326.9135351
51
338.3505194
0
ARC
8
DEFAULT_255_1_234
10
3.7737353
20
37.6289284
40
1.1146189
50
319.6472867
51
327.095818
0
ARC
8
DEFAULT_255_1_234
10
3.3904356
20
37.9451
40
1.6114559
50
317.2586784
51
319.9046139
0
LINE
8
DEFAULT_255_1_234
10
5.3297162
20
36.9478026
11
5.3297162
21
36.8265234
0
LINE
8
DEFAULT_255_1_234
10
5.3297162
20
36.8265234
11
4.9377673
21
36.8265234
0
LINE
8
DEFAULT_255_1_234
10
4.9377673
20
36.8265234
11
4.9377673
21
36.9478026
0
LINE
8
DEFAULT_255_1_234
10
4.9377673
20
36.9478026
11
5.3297162
21
36.9478026
0
LINE
8
DEFAULT_255_1_234
10
4.8197119
20
44.4491792
11
4.8197119
21
44.3279
0
LINE
8
DEFAULT_255_1_234
10
4.8197119
20
44.3279
11
4.053484
21
44.3279
0
LINE
8
DEFAULT_255_1_234
10
4.053484
20
44.3279
11
4.053484
21
44.4347221
0
LINE
8
DEFAULT_255_1_234
10
4.053484
20
44.4347221
11
4.4582836
21
44.8844995
0
LINE
8
DEFAULT_255_1_234
10
4.1795823
20
45.1527595
11
4.0309952
21
45.1527595
0
LINE
8
DEFAULT_255_1_234
10
4.5458296
20
44.7889218
11
4.2325918
21
44.4491792
0
LINE
8
DEFAULT_255_1_234
10
4.2325918
20
44.4491792
11
4.8197119
21
44.4491792
0
ARC
8
DEFAULT_255_1_234
10
3.109267
20
46.0774527
40
1.8008286
50
318.5132453
51
320.7828378
0
ARC
8
DEFAULT_255_1_234
10
3.6379644
20
45.6471426
40
1.1191493
50
320.7372736
51
323.9737074
0
ARC
8
DEFAULT_255_1_234
10
4.0299501
20
45.3631361
40
0.6350923
50
323.8961724
51
328.6421089
0
ARC
8
DEFAULT_255_1_234
10
4.2346096
20
45.2369031
40
0.3946393
50
328.8299013
51
331.789948
0
ARC
8
DEFAULT_255_1_234
10
4.3343274
20
45.1854509
40
0.2824501
50
331.4255242
51
352.9364833
0
ARC
8
DEFAULT_255_1_234
10
4.3479775
20
45.1823976
40
0.2685315
50
353.2248685
51
0.0169286
0
ARC
8
DEFAULT_255_1_234
10
4.3689652
20
45.184695
40
0.2475536
50
359.4866256
51
15.9339782
0
ARC
8
DEFAULT_255_1_234
10
4.4196637
20
45.1983286
40
0.1950618
50
16.1714718
51
43.5284424
0
ARC
8
DEFAULT_255_1_234
10
4.4273946
20
45.2060573
40
0.184134
50
43.4415429
51
83.1661404
0
ARC
8
DEFAULT_255_1_234
10
4.4139864
20
45.1323771
40
0.258926
50
82.160215
51
90.1505798
0
ARC
8
DEFAULT_255_1_234
10
4.4108291
20
45.0786865
40
0.3126255
50
89.5460705
51
102.5418777
0
ARC
8
DEFAULT_255_1_234
10
4.3865377
20
45.1817665
40
0.2067346
50
102.1739365
51
129.2061916
0
ARC
8
DEFAULT_255_1_234
10
4.3786449
20
45.1942094
40
0.1921118
50
129.7279328
51
135.7542026
0
ARC
8
DEFAULT_255_1_234
10
4.3907977
20
45.1845045
40
0.2075944
50
136.175737
51
166.3674722
0
ARC
8
DEFAULT_255_1_234
10
4.4914896
20
45.1575182
40
0.3118201
50
165.9092917
51
178.8683903
0
ARC
8
DEFAULT_255_1_234
10
4.5779757
20
45.1528179
40
0.3983935
50
178.438168
51
180.0083905
0
ARC
8
DEFAULT_255_1_234
10
4.4378359
20
45.1567231
40
0.4068601
50
163.2878735
51
180.5581814
0
ARC
8
DEFAULT_255_1_234
10
4.3576621
20
45.178784
40
0.3237344
50
133.454115
51
162.9470031
0
ARC
8
DEFAULT_255_1_234
10
4.3755162
20
45.1598
40
0.349795
50
100.7869394
51
133.4384016
0
ARC
8
DEFAULT_255_1_234
10
4.4102934
20
45.0049319
40
0.5084616
50
89.6605301
51
101.3704185
0
ARC
8
DEFAULT_255_1_234
10
4.4169273
20
45.0110496
40
0.502348
50
78.2171172
51
90.4130393
0
ARC
8
DEFAULT_255_1_234
10
4.4524351
20
45.1734637
40
0.3361092
50
55.9268222
51
78.4888551
0
ARC
8
DEFAULT_255_1_234
10
4.4720791
20
45.2073324
40
0.2970617
50
47.9292255
51
55.4054003
0
ARC
8
DEFAULT_255_1_234
10
4.4822352
20
45.2176502
40
0.2825983
50
4.3347696
51
48.0560701
0
ARC
8
DEFAULT_255_1_234
10
4.3726745
20
45.2006601
40
0.393225
50
359.925209
51
5.5967654
0
ARC
8
DEFAULT_255_1_234
10
4.4155637
20
45.2062816
40
0.3503892
50
337.8914096
51
358.9967724
0
ARC
8
DEFAULT_255_1_234
10
4.1442049
20
45.3109706
40
0.6412172
50
326.9135351
51
338.3505194
0
ARC
8
DEFAULT_255_1_234
10
3.7456353
20
45.5664284
40
1.1146189
50
319.6472867
51
327.095818
0
ARC
8
DEFAULT_255_1_234
10
3.3623356
20
45.8826
40
1.6114559
50
317.2586784
51
319.9046139
0
LINE
8
DEFAULT_255_1_234
10
5.4180764
20
45.2965276
11
5.4180764
21
44.9551788
0
LINE
8
DEFAULT_255_1_234
10
5.4180764
20
44.9551788
11
5.7441649
21
44.9551788
0
LINE
8
DEFAULT_255_1_234
10
5.7441649
20
44.9551788
11
5.7441649
21
44.8146233
0
LINE
8
DEFAULT_255_1_234
10
5.7441649
20
44.8146233
11
5.4180764
21
44.8146233
0
LINE
8
DEFAULT_255_1_234
10
5.4180764
20
44.8146233
11
5.4180764
21
44.4451634
0
LINE
8
DEFAULT_255_1_234
10
5.4180764
20
44.4451634
11
5.268686
21
44.4451634
0
LINE
8
DEFAULT_255_1_234
10
5.268686
20
44.4451634
11
5.268686
21
44.8146233
0
LINE
8
DEFAULT_255_1_234
10
5.268686
20
44.8146233
11
4.9425975
21
44.8146233
0
LINE
8
DEFAULT_255_1_234
10
4.9425975
20
44.8146233
11
4.9425975
21
44.9551788
0
LINE
8
DEFAULT_255_1_234
10
4.9425975
20
44.9551788
11
5.268686
21
44.9551788
0
LINE
8
DEFAULT_255_1_234
10
5.268686
20
44.9551788
11
5.268686
21
45.2965276
0
LINE
8
DEFAULT_255_1_234
10
5.268686
20
45.2965276
11
5.4180764
21
45.2965276
0
LINE
8
DEFAULT_255_1_234
10
4.5699137
20
53.4404433
11
4.5699137
21
52.2654
0
LINE
8
DEFAULT_255_1_234
10
4.5699137
20
52.2654
11
4.4205234
21
52.2654
0
LINE
8
DEFAULT_255_1_234
10
4.4205234
20
52.2654
11
4.4205234
21
53.2557133
0
LINE
8
DEFAULT_255_1_234
10
4.4205234
20
53.2557133
11
4.1209396
21
53.1456785
0
LINE
8
DEFAULT_255_1_234
10
4.1209396
20
53.1456785
11
4.1209396
21
53.2806117
0
LINE
8
DEFAULT_255_1_234
10
4.1209396
20
53.2806117
11
4.5466217
21
53.4404433
0
LINE
8
DEFAULT_255_1_234
10
4.5466217
20
53.4404433
11
4.5699137
21
53.4404433
0
LINE
8
DEFAULT_255_1_234
10
5.3297162
20
52.8228026
11
5.3297162
21
52.7015234
0
LINE
8
DEFAULT_255_1_234
10
5.3297162
20
52.7015234
11
4.9377673
21
52.7015234
0
LINE
8
DEFAULT_255_1_234
10
4.9377673
20
52.7015234
11
4.9377673
21
52.8228026
0
LINE
8
DEFAULT_255_1_234
10
4.9377673
20
52.8228026
11
5.3297162
21
52.8228026
0
LINE
8
DEFAULT_255_1_234
10
4.5418137
20
61.3779433
11
4.5418137
21
60.2029
0
LINE
8
DEFAULT_255_1_234
10
4.5418137
20
60.2029
11
4.3924234
21
60.2029
0
LINE
8
DEFAULT_255_1_234
10
4.3924234
20
60.2029
11
4.3924234
21
61.1932133
0
LINE
8
DEFAULT_255_1_234
10
4.3924234
20
61.1932133
11
4.0928396
21
61.0831785
0
LINE
8
DEFAULT_255_1_234
10
4.0928396
20
61.0831785
11
4.0928396
21
61.2181117
0
LINE
8
DEFAULT_255_1_234
10
4.0928396
20
61.2181117
11
4.5185217
21
61.3779433
0
LINE
8
DEFAULT_255_1_234
10
4.5185217
20
61.3779433
11
4.5418137
21
61.3779433
0
LINE
8
DEFAULT_255_1_234
10
5.4180764
20
61.1715276
11
5.4180764
21
60.8301788
0
LINE
8
DEFAULT_255_1_234
10
5.4180764
20
60.8301788
11
5.7441649
21
60.8301788
0
LINE
8
DEFAULT_255_1_234
10
5.7441649
20
60.8301788
11
5.7441649
21
60.6896233
0
LINE
8
DEFAULT_255_1_234
10
5.7441649
20
60.6896233
11
5.4180764
21
60.6896233
0
LINE
8
DEFAULT_255_1_234
10
5.4180764
20
60.6896233
11
5.4180764
21
60.3201634
0
LINE
8
DEFAULT_255_1_234
10
5.4180764
20
60.3201634
11
5.268686
21
60.3201634
0
LINE
8
DEFAULT_255_1_234
10
5.268686
20
60.3201634
11
5.268686
21
60.6896233
0
LINE
8
DEFAULT_255_1_234
10
5.268686
20
60.6896233
11
4.9425975
21
60.6896233
0
LINE
8
DEFAULT_255_1_234
10
4.9425975
20
60.6896233
11
4.9425975
21
60.8301788
0
LINE
8
DEFAULT_255_1_234
10
4.9425975
20
60.8301788
11
5.268686
21
60.8301788
0
LINE
8
DEFAULT_255_1_234
10
5.268686
20
60.8301788
11
5.268686
21
61.1715276
0
LINE
8
DEFAULT_255_1_234
10
5.268686
20
61.1715276
11
5.4180764
21
61.1715276
0
LINE
8
DEFAULT_255_1_234
10
23.1656817
20
68.8319327
11
23.1656817
21
68.6391709
0
LINE
8
DEFAULT_255_1_234
10
22.427565
20
68.6190916
11
22.427565
21
68.8174755
0
LINE
8
DEFAULT_255_1_234
10
23.0170946
20
68.5990123
11
23.0170946
21
68.8423739
0
LINE
8
DEFAULT_255_1_234
10
22.5761521
20
68.8536184
11
22.5761521
21
68.6158789
0
ARC
8
DEFAULT_255_1_234
10
21.9409707
20
68.6342805
40
1.2247208
50
353.8441951
51
0.2287902
0
ARC
8
DEFAULT_255_1_234
10
22.4049211
20
68.5824806
40
0.7578929
50
344.4934747
51
353.9765454
0
ARC
8
DEFAULT_255_1_234
10
22.7041801
20
68.4973981
40
0.4467846
50
329.2803592
51
344.7472793
0
ARC
8
DEFAULT_255_1_234
10
22.8034626
20
68.4429018
40
0.3336173
50
324.9352394
51
328.6160465
0
ARC
8
DEFAULT_255_1_234
10
22.8411734
20
68.4165427
40
0.2876076
50
280.580143
51
324.9173126
0
ARC
8
DEFAULT_255_1_234
10
22.8010527
20
68.5836099
40
0.4592847
50
269.5977311
51
281.6734359
0
ARC
8
DEFAULT_255_1_234
10
22.7938433
20
68.5716173
40
0.4472986
50
256.6228859
51
270.51044
0
ARC
8
DEFAULT_255_1_234
10
22.753641
20
68.4167877
40
0.2873874
50
215.8618325
51
257.2788573
0
ARC
8
DEFAULT_255_1_234
10
22.8557442
20
68.4852977
40
0.4102928
50
197.9693508
51
215.2623606
0
ARC
8
DEFAULT_255_1_234
10
23.1042558
20
68.5691709
40
0.6725652
50
187.8816417
51
198.2346507
0
ARC
8
DEFAULT_255_1_234
10
23.5000766
20
68.6263079
40
1.0724845
50
180.8976217
51
188.0055519
0
ARC
8
DEFAULT_255_1_234
10
23.7800954
20
68.6366777
40
1.3526448
50
180.7449369
51
181.1510016
0
ARC
8
DEFAULT_255_1_234
10
23.6223683
20
68.8223042
40
1.1948131
50
173.7675579
51
180.231553
0
ARC
8
DEFAULT_255_1_234
10
23.170583
20
68.8733666
40
0.7401564
50
164.3058563
51
173.9002247
0
ARC
8
DEFAULT_255_1_234
10
22.8793899
20
68.9572656
40
0.4371288
50
148.7922025
51
164.568378
0
ARC
8
DEFAULT_255_1_234
10
22.7842351
20
69.0103929
40
0.3282386
50
144.5883898
51
148.1176286
0
ARC
8
DEFAULT_255_1_234
10
22.7499249
20
69.0343315
40
0.2864044
50
101.6440918
51
144.514236
0
ARC
8
DEFAULT_255_1_234
10
22.7924315
20
68.8654069
40
0.4604934
50
89.5284041
51
102.5819763
0
ARC
8
DEFAULT_255_1_234
10
22.8003403
20
68.8615018
40
0.464401
50
77.0437873
51
90.5081339
0
ARC
8
DEFAULT_255_1_234
10
22.8405405
20
69.0257615
40
0.2953195
50
48.2778575
51
77.4994676
0
ARC
8
DEFAULT_255_1_234
10
22.8478036
20
69.0386746
40
0.2808655
50
36.3142134
51
47.6305865
0
ARC
8
DEFAULT_255_1_234
10
22.7609343
20
68.9801515
40
0.3855453
50
18.2931786
51
35.6769206
0
ARC
8
DEFAULT_255_1_234
10
22.5066102
20
68.8928593
40
0.654423
50
8.024666
51
18.5605216
0
ARC
8
DEFAULT_255_1_234
10
22.0903022
20
68.8313792
40
1.0752407
50
1.1274072
51
8.1718305
0
ARC
8
DEFAULT_255_1_234
10
21.7667213
20
68.8186885
40
1.3990231
50
0.5424119
51
1.3863029
0
ARC
8
DEFAULT_255_1_234
10
21.948859
20
68.8459342
40
1.0682415
50
359.8090433
51
4.9407866
0
ARC
8
DEFAULT_255_1_234
10
22.3698604
20
68.8835113
40
0.6455691
50
4.8362157
51
12.2904523
0
ARC
8
DEFAULT_255_1_234
10
22.6453719
20
68.9448965
40
0.3633074
50
12.0805627
51
23.8173984
0
ARC
8
DEFAULT_255_1_234
10
22.7627425
20
68.9945919
40
0.2358723
50
24.2871213
51
31.3935614
0
ARC
8
DEFAULT_255_1_234
10
22.8152122
20
69.0289233
40
0.1732111
50
30.7407893
51
82.4657128
0
ARC
8
DEFAULT_255_1_234
10
22.7972256
20
68.9405691
40
0.263235
50
81.1060089
51
90.2184952
0
ARC
8
DEFAULT_255_1_234
10
22.7936555
20
68.9663924
40
0.2374236
50
89.3806855
51
105.6762551
0
ARC
8
DEFAULT_255_1_234
10
22.7753186
20
69.0330567
40
0.1682847
50
105.7981136
51
149.7388061
0
ARC
8
DEFAULT_255_1_234
10
22.8817264
20
68.969095
40
0.2924306
50
149.4208916
51
163.6286378
0
ARC
8
DEFAULT_255_1_234
10
23.0908152
20
68.905325
40
0.5110213
50
163.3763315
51
172.1410975
0
ARC
8
DEFAULT_255_1_234
10
23.4208871
20
68.8580518
40
0.8444586
50
172.0259487
51
178.0703232
0
ARC
8
DEFAULT_255_1_234
10
23.723896
20
68.8436906
40
1.1477868
50
177.8631668
51
179.5044149
0
ARC
8
DEFAULT_255_1_234
10
23.6166365
20
68.6122389
40
1.0404907
50
179.7995573
51
185.2460446
0
ARC
8
DEFAULT_255_1_234
10
23.2123404
20
68.5739513
40
0.6343885
50
185.1411642
51
193.0079639
0
ARC
8
DEFAULT_255_1_234
10
22.9479877
20
68.5114641
40
0.3627568
50
192.7897626
51
205.2507664
0
ARC
8
DEFAULT_255_1_234
10
22.8433424
20
68.4647415
40
0.2481908
50
205.8005384
51
211.2537509
0
ARC
8
DEFAULT_255_1_234
10
22.7909864
20
68.429658
40
0.1852521
50
210.3789793
51
238.4008143
0
ARC
8
DEFAULT_255_1_234
10
22.7890386
20
68.4343376
40
0.1882621
50
239.6520629
51
265.9793761
0
ARC
8
DEFAULT_255_1_234
10
22.7975586
20
68.5015427
40
0.2559272
50
265.1315437
51
270.060332
0
ARC
8
DEFAULT_255_1_234
10
22.8004365
20
68.4691534
40
0.2235528
50
269.3314664
51
287.2178029
0
ARC
8
DEFAULT_255_1_234
10
22.8142217
20
68.4188279
40
0.1714108
50
287.7958004
51
329.080874
0
ARC
8
DEFAULT_255_1_234
10
22.7184674
20
68.478593
40
0.2842745
50
328.6634704
51
343.3325132
0
ARC
8
DEFAULT_255_1_234
10
22.5011694
20
68.5462863
40
0.5118644
50
343.0499468
51
351.9393422
0
ARC
8
DEFAULT_255_1_234
10
22.1544994
20
68.5973949
40
0.8622784
50
351.8069023
51
357.7959224
0
ARC
8
DEFAULT_255_1_234
10
21.830955
20
68.6141721
40
1.1862365
50
357.5871873
51
359.2677531
0
LINE
8
DEFAULT_255_1_234
10
23.4492021
20
69.3098211
11
23.7817161
21
68.3452093
0
LINE
8
DEFAULT_255_1_234
10
23.7817161
20
68.3452093
11
24.1158364
21
69.3098211
0
LINE
8
DEFAULT_255_1_234
10
24.1158364
20
69.3098211
11
24.2845029
21
69.3098211
0
LINE
8
DEFAULT_255_1_234
10
24.2845029
20
69.3098211
11
23.850789
21
68.1404
0
LINE
8
DEFAULT_255_1_234
10
23.850789
20
68.1404
11
23.7142495
21
68.1404
0
LINE
8
DEFAULT_255_1_234
10
23.7142495
20
68.1404
11
23.2813388
21
69.3098211
0
LINE
8
DEFAULT_255_1_234
10
23.2813388
20
69.3098211
11
23.4492021
21
69.3098211
0
LINE
8
DEFAULT_255_1_234
10
20.5590293
20
36.3904
11
20.4473881
21
36.6956061
0
LINE
8
DEFAULT_255_1_234
10
20.4473881
20
36.6956061
11
19.9574521
21
36.6956061
0
LINE
8
DEFAULT_255_1_234
10
19.9574521
20
36.6956061
11
19.8474173
21
36.3904
0
LINE
8
DEFAULT_255_1_234
10
19.8474173
20
36.3904
11
19.6883889
21
36.3904
0
LINE
8
DEFAULT_255_1_234
10
19.6883889
20
36.3904
11
20.1349535
21
37.5598211
0
LINE
8
DEFAULT_255_1_234
10
20.1349535
20
37.5598211
11
20.2698867
21
37.5598211
0
LINE
8
DEFAULT_255_1_234
10
20.2698867
20
37.5598211
11
20.7172545
21
36.3904
0
LINE
8
DEFAULT_255_1_234
10
20.7172545
20
36.3904
11
20.5590293
21
36.3904
0
LINE
8
DEFAULT_255_1_234
10
20.2024201
20
37.3694689
11
20.0040362
21
36.8225075
0
LINE
8
DEFAULT_255_1_234
10
20.0040362
20
36.8225075
11
20.4016072
21
36.8225075
0
LINE
8
DEFAULT_255_1_234
10
20.4016072
20
36.8225075
11
20.2024201
21
37.3694689
0
LINE
8
DEFAULT_255_1_234
10
21.0296892
20
37.5598211
11
21.0296892
21
36.5164983
0
LINE
8
DEFAULT_255_1_234
10
21.0296892
20
36.5164983
11
21.5838791
21
36.5164983
0
LINE
8
DEFAULT_255_1_234
10
21.5838791
20
36.5164983
11
21.5838791
21
36.3904
0
LINE
8
DEFAULT_255_1_234
10
21.5838791
20
36.3904
11
20.8746766
21
36.3904
0
LINE
8
DEFAULT_255_1_234
10
20.8746766
20
36.3904
11
20.8746766
21
37.5598211
0
LINE
8
DEFAULT_255_1_234
10
20.8746766
20
37.5598211
11
21.0296892
21
37.5598211
0
LINE
8
DEFAULT_255_1_234
10
21.7597742
20
37.5598211
11
21.9589613
21
37.5598211
0
LINE
8
DEFAULT_255_1_234
10
21.9589613
20
37.5598211
11
22.341272
21
36.6056506
0
LINE
8
DEFAULT_255_1_234
10
22.341272
20
36.6056506
11
22.7235828
21
37.5598211
0
LINE
8
DEFAULT_255_1_234
10
22.7235828
20
37.5598211
11
22.923573
21
37.5598211
0
LINE
8
DEFAULT_255_1_234
10
22.923573
20
37.5598211
11
22.923573
21
36.3904
0
LINE
8
DEFAULT_255_1_234
10
22.923573
20
36.3904
11
22.7693637
21
36.3904
0
LINE
8
DEFAULT_255_1_234
10
22.7693637
20
36.3904
11
22.7693637
21
36.8457996
0
LINE
8
DEFAULT_255_1_234
10
22.7693637
20
36.8457996
11
22.7838208
21
37.3373419
0
LINE
8
DEFAULT_255_1_234
10
22.7838208
20
37.3373419
11
22.3999037
21
36.3904
0
LINE
8
DEFAULT_255_1_234
10
22.3999037
20
36.3904
11
22.2818372
21
36.3904
0
LINE
8
DEFAULT_255_1_234
10
22.2818372
20
36.3904
11
21.8987232
21
37.3349324
0
LINE
8
DEFAULT_255_1_234
10
21.8987232
20
37.3349324
11
21.9139835
21
36.8457996
0
LINE
8
DEFAULT_255_1_234
10
21.9139835
20
36.8457996
11
21.9139835
21
36.3904
0
LINE
8
DEFAULT_255_1_234
10
21.9139835
20
36.3904
11
21.7597742
21
36.3904
0
LINE
8
DEFAULT_255_1_234
10
21.7597742
20
36.3904
11
21.7597742
21
37.5598211
0
LINE
8
DEFAULT_255_1_234
10
23.7845754
20
37.5598211
11
23.7845754
21
36.783152
0
LINE
8
DEFAULT_255_1_234
10
23.7845754
20
36.783152
11
23.9468165
21
36.783152
0
LINE
8
DEFAULT_255_1_234
10
23.9468165
20
36.783152
11
23.9468165
21
36.6618728
0
LINE
8
DEFAULT_255_1_234
10
23.9468165
20
36.6618728
11
23.7845754
21
36.6618728
0
LINE
8
DEFAULT_255_1_234
10
23.7845754
20
36.6618728
11
23.7845754
21
36.3904
0
LINE
8
DEFAULT_255_1_234
10
23.7845754
20
36.3904
11
23.6351851
21
36.3904
0
LINE
8
DEFAULT_255_1_234
10
23.6351851
20
36.3904
11
23.6351851
21
36.6618728
0
LINE
8
DEFAULT_255_1_234
10
23.6351851
20
36.6618728
11
23.1026808
21
36.6618728
0
LINE
8
DEFAULT_255_1_234
10
23.1026808
20
36.6618728
11
23.1026808
21
36.7494187
0
LINE
8
DEFAULT_255_1_234
10
23.1026808
20
36.7494187
11
23.6263501
21
37.5598211
0
LINE
8
DEFAULT_255_1_234
10
23.6263501
20
37.5598211
11
23.7845754
21
37.5598211
0
LINE
8
DEFAULT_255_1_234
10
23.6175152
20
37.3244912
11
23.2713473
21
36.783152
0
LINE
8
DEFAULT_255_1_234
10
23.2713473
20
36.783152
11
23.6351851
21
36.783152
0
LINE
8
DEFAULT_255_1_234
10
23.6351851
20
36.783152
11
23.6351851
21
37.3566181
0
LINE
8
DEFAULT_255_1_234
10
23.6351851
20
37.3566181
11
23.6175152
21
37.3244912
0
LINE
8
DEFAULT_255_1_234
10
20.6648293
20
44.3279
11
20.5531881
21
44.6331061
0
LINE
8
DEFAULT_255_1_234
10
20.5531881
20
44.6331061
11
20.0632521
21
44.6331061
0
LINE
8
DEFAULT_255_1_234
10
20.0632521
20
44.6331061
11
19.9532173
21
44.3279
0
LINE
8
DEFAULT_255_1_234
10
19.9532173
20
44.3279
11
19.7941889
21
44.3279
0
LINE
8
DEFAULT_255_1_234
10
19.7941889
20
44.3279
11
20.2407535
21
45.4973211
0
LINE
8
DEFAULT_255_1_234
10
20.2407535
20
45.4973211
11
20.3756867
21
45.4973211
0
LINE
8
DEFAULT_255_1_234
10
20.3756867
20
45.4973211
11
20.8230545
21
44.3279
0
LINE
8
DEFAULT_255_1_234
10
20.8230545
20
44.3279
11
20.6648293
21
44.3279
0
LINE
8
DEFAULT_255_1_234
10
20.3082201
20
45.3069689
11
20.1098362
21
44.7600075
0
LINE
8
DEFAULT_255_1_234
10
20.1098362
20
44.7600075
11
20.5074072
21
44.7600075
0
LINE
8
DEFAULT_255_1_234
10
20.5074072
20
44.7600075
11
20.3082201
21
45.3069689
0
LINE
8
DEFAULT_255_1_234
10
21.1354892
20
45.4973211
11
21.1354892
21
44.4539983
0
LINE
8
DEFAULT_255_1_234
10
21.1354892
20
44.4539983
11
21.6896791
21
44.4539983
0
LINE
8
DEFAULT_255_1_234
10
21.6896791
20
44.4539983
11
21.6896791
21
44.3279
0
LINE
8
DEFAULT_255_1_234
10
21.6896791
20
44.3279
11
20.9804766
21
44.3279
0
LINE
8
DEFAULT_255_1_234
10
20.9804766
20
44.3279
11
20.9804766
21
45.4973211
0
LINE
8
DEFAULT_255_1_234
10
20.9804766
20
45.4973211
11
21.1354892
21
45.4973211
0
LINE
8
DEFAULT_255_1_234
10
21.8655742
20
45.4973211
11
22.0647613
21
45.4973211
0
LINE
8
DEFAULT_255_1_234
10
22.0647613
20
45.4973211
11
22.447072
21
44.5431506
0
LINE
8
DEFAULT_255_1_234
10
22.447072
20
44.5431506
11
22.8293828
21
45.4973211
0
LINE
8
DEFAULT_255_1_234
10
22.8293828
20
45.4973211
11
23.029373
21
45.4973211
0
LINE
8
DEFAULT_255_1_234
10
23.029373
20
45.4973211
11
23.029373
21
44.3279
0
LINE
8
DEFAULT_255_1_234
10
23.029373
20
44.3279
11
22.8751637
21
44.3279
0
LINE
8
DEFAULT_255_1_234
10
22.8751637
20
44.3279
11
22.8751637
21
44.7832996
0
LINE
8
DEFAULT_255_1_234
10
22.8751637
20
44.7832996
11
22.8896208
21
45.2748419
0
LINE
8
DEFAULT_255_1_234
10
22.8896208
20
45.2748419
11
22.5057037
21
44.3279
0
LINE
8
DEFAULT_255_1_234
10
22.5057037
20
44.3279
11
22.3876372
21
44.3279
0
LINE
8
DEFAULT_255_1_234
10
22.3876372
20
44.3279
11
22.0045232
21
45.2724324
0
LINE
8
DEFAULT_255_1_234
10
22.0045232
20
45.2724324
11
22.0197835
21
44.7832996
0
LINE
8
DEFAULT_255_1_234
10
22.0197835
20
44.7832996
11
22.0197835
21
44.3279
0
LINE
8
DEFAULT_255_1_234
10
22.0197835
20
44.3279
11
21.8655742
21
44.3279
0
LINE
8
DEFAULT_255_1_234
10
21.8655742
20
44.3279
11
21.8655742
21
45.4973211
0
LINE
8
DEFAULT_255_1_234
10
23.4791504
20
44.8636169
11
23.4791504
21
44.9848962
0
LINE
8
DEFAULT_255_1_234
10
23.4791504
20
44.9848962
11
23.5907916
21
44.9848962
0
LINE
8
DEFAULT_255_1_234
10
23.4004394
20
45.1905087
11
23.2518522
21
45.1905087
0
LINE
8
DEFAULT_255_1_234
10
23.2414109
20
44.6363188
11
23.3908013
21
44.6363188
0
LINE
8
DEFAULT_255_1_234
10
23.5907916
20
44.8636169
11
23.4791504
21
44.8636169
0
ARC
8
DEFAULT_255_1_234
10
23.5878782
20
45.3241713
40
0.3392876
50
270.4919872
51
281.8951556
0
ARC
8
DEFAULT_255_1_234
10
23.6120044
20
45.2139702
40
0.2264817
50
281.6691735
51
301.2943132
0
ARC
8
DEFAULT_255_1_234
10
23.6290254
20
45.1828304
40
0.1910381
50
301.7833094
51
311.7545298
0
ARC
8
DEFAULT_255_1_234
10
23.638183
20
45.1726748
40
0.1773635
50
311.7323931
51
354.2802411
0
ARC
8
DEFAULT_255_1_234
10
23.5655455
20
45.1851722
40
0.2509385
50
353.0937916
51
0.1181479
0
ARC
8
DEFAULT_255_1_234
10
23.519424
20
45.1899386
40
0.2970898
50
359.1805295
51
15.0453146
0
ARC
8
DEFAULT_255_1_234
10
23.6540077
20
45.2291992
40
0.1569564
50
13.9577229
51
77.6713066
0
ARC
8
DEFAULT_255_1_234
10
23.6153606
20
45.0906949
40
0.3006298
50
76.1116566
51
90.7026153
0
ARC
8
DEFAULT_255_1_234
10
23.6094444
20
45.1180545
40
0.2732568
50
89.5324876
51
103.531937
0
ARC
8
DEFAULT_255_1_234
10
23.5893888
20
45.1979884
40
0.1908508
50
103.2931773
51
133.5619022
0
ARC
8
DEFAULT_255_1_234
10
23.5849377
20
45.2039375
40
0.1834746
50
133.8349307
51
173.5344437
0
ARC
8
DEFAULT_255_1_234
10
23.657242
20
45.1911213
40
0.2568033
50
172.5096846
51
180.1366907
0
ARC
8
DEFAULT_255_1_234
10
23.5621314
20
45.1945622
40
0.3103056
50
155.3484492
51
180.7484736
0
ARC
8
DEFAULT_255_1_234
10
23.5572403
20
45.1916846
40
0.3070957
50
131.5744599
51
154.4798489
0
ARC
8
DEFAULT_255_1_234
10
23.588555
20
45.160031
40
0.3515643
50
96.9875458
51
131.9690667
0
ARC
8
DEFAULT_255_1_234
10
23.610503
20
45.0354636
40
0.4779224
50
89.8596053
51
97.7825159
0
ARC
8
DEFAULT_255_1_234
10
23.6153093
20
45.0092616
40
0.5041361
50
78.3655447
51
90.4131539
0
ARC
8
DEFAULT_255_1_234
10
23.6511011
20
45.1751887
40
0.3344039
50
56.6229102
51
78.638727
0
ARC
8
DEFAULT_255_1_234
10
23.6725955
20
45.2127805
40
0.2912001
50
47.0253525
51
56.0854072
0
ARC
8
DEFAULT_255_1_234
10
23.6745735
20
45.2167223
40
0.2869704
50
10.9208013
51
46.7778124
0
ARC
8
DEFAULT_255_1_234
10
23.5381801
20
45.1851857
40
0.426899
50
359.6364486
51
11.6087304
0
ARC
8
DEFAULT_255_1_234
10
23.7216645
20
45.1836752
40
0.243409
50
332.3549906
51
359.7179418
0
ARC
8
DEFAULT_255_1_234
10
23.6566247
20
45.2145142
40
0.3153459
50
325.2333722
51
332.8745602
0
ARC
8
DEFAULT_255_1_234
10
23.671887
20
45.2038828
40
0.2967456
50
292.9802137
51
325.2392345
0
ARC
8
DEFAULT_255_1_234
10
23.6444244
20
45.2572863
40
0.3566604
50
292.5402179
51
293.6924929
0
ARC
8
DEFAULT_255_1_234
10
23.683684
20
44.6118091
40
0.3307468
50
57.6435486
51
72.8625112
0
ARC
8
DEFAULT_255_1_234
10
23.719134
20
44.6692549
40
0.2632492
50
36.7248896
51
57.4697979
0
ARC
8
DEFAULT_255_1_234
10
23.7179973
20
44.670522
40
0.2634081
50
8.0545065
51
36.356114
0
ARC
8
DEFAULT_255_1_234
10
23.6317158
20
44.6550174
40
0.3510261
50
359.8320645
51
8.5869982
0
ARC
8
DEFAULT_255_1_234
10
23.5941934
20
44.6502101
40
0.3885653
50
343.9829931
51
0.5571613
0
ARC
8
DEFAULT_255_1_234
10
23.6828131
20
44.6259438
40
0.2966924
50
311.6359546
51
343.7651759
0
ARC
8
DEFAULT_255_1_234
10
23.64497
20
44.6686102
40
0.3537231
50
279.7829875
51
311.6255694
0
ARC
8
DEFAULT_255_1_234
10
23.6148476
20
44.812328
40
0.5004971
50
269.7286406
51
280.3856417
0
ARC
8
DEFAULT_255_1_234
10
23.6086549
20
44.8081996
40
0.4963778
50
256.6828919
51
270.4412052
0
ARC
8
DEFAULT_255_1_234
10
23.5747845
20
44.6697394
40
0.3538406
50
229.4223008
51
256.8556159
0
ARC
8
DEFAULT_255_1_234
10
23.5333238
20
44.6230736
40
0.2914296
50
181.818294
51
229.6455059
0
ARC
8
DEFAULT_255_1_234
10
23.6373194
20
44.6361496
40
0.3959084
50
179.9755256
51
183.2323064
0
ARC
8
DEFAULT_255_1_234
10
23.620094
20
44.6341037
40
0.2293034
50
179.4465117
51
196.2869258
0
ARC
8
DEFAULT_255_1_234
10
23.5713348
20
44.6207651
40
0.1787621
50
196.5661473
51
227.705904
0
ARC
8
DEFAULT_255_1_234
10
23.5877443
20
44.6391155
40
0.2033784
50
227.7652068
51
257.8762805
0
ARC
8
DEFAULT_255_1_234
10
23.6102413
20
44.7334156
40
0.3003081
50
257.4584385
51
270.426602
0
ARC
8
DEFAULT_255_1_234
10
23.6147979
20
44.7623996
40
0.329292
50
269.5962073
51
280.8789248
0
ARC
8
DEFAULT_255_1_234
10
23.6377508
20
44.6477685
40
0.2123908
50
280.6346389
51
299.8595945
0
ARC
8
DEFAULT_255_1_234
10
23.6568415
20
44.6115212
40
0.171457
50
300.3576302
51
314.5517981
0
ARC
8
DEFAULT_255_1_234
10
23.6485475
20
44.6175919
40
0.1816095
50
315.0728369
51
345.0431014
0
ARC
8
DEFAULT_255_1_234
10
23.5562289
20
44.6444841
40
0.2777492
50
344.5986631
51
357.9269593
0
ARC
8
DEFAULT_255_1_234
10
23.4666615
20
44.6506276
40
0.3674917
50
357.4748886
51
0.0231117
0
ARC
8
DEFAULT_255_1_234
10
23.5689725
20
44.6530679
40
0.2651907
50
359.5047933
51
13.4239635
0
ARC
8
DEFAULT_255_1_234
10
23.6556368
20
44.6752478
40
0.1757509
50
12.9498199
51
48.7551375
0
ARC
8
DEFAULT_255_1_234
10
23.6374102
20
44.65034
40
0.2065134
50
49.5088623
51
72.1836453
0
ARC
8
DEFAULT_255_1_234
10
23.6016255
20
44.5441291
40
0.3185836
50
71.9010081
51
84.3554254
0
ARC
8
DEFAULT_255_1_234
10
23.5854887
20
44.4080326
40
0.4556151
50
84.0193428
51
89.333121
0
LINE
8
DEFAULT_255_1_234
10
20.6648293
20
52.2654
11
20.5531881
21
52.5706061
0
LINE
8
DEFAULT_255_1_234
10
20.5531881
20
52.5706061
11
20.0632521
21
52.5706061
0
LINE
8
DEFAULT_255_1_234
10
20.0632521
20
52.5706061
11
19.9532173
21
52.2654
0
LINE
8
DEFAULT_255_1_234
10
19.9532173
20
52.2654
11
19.7941889
21
52.2654
0
LINE
8
DEFAULT_255_1_234
10
19.7941889
20
52.2654
11
20.2407535
21
53.4348211
0
LINE
8
DEFAULT_255_1_234
10
20.2407535
20
53.4348211
11
20.3756867
21
53.4348211
0
LINE
8
DEFAULT_255_1_234
10
20.3756867
20
53.4348211
11
20.8230545
21
52.2654
0
LINE
8
DEFAULT_255_1_234
10
20.8230545
20
52.2654
11
20.6648293
21
52.2654
0
LINE
8
DEFAULT_255_1_234
10
20.3082201
20
53.2444689
11
20.1098362
21
52.6975075
0
LINE
8
DEFAULT_255_1_234
10
20.1098362
20
52.6975075
11
20.5074072
21
52.6975075
0
LINE
8
DEFAULT_255_1_234
10
20.5074072
20
52.6975075
11
20.3082201
21
53.2444689
0
LINE
8
DEFAULT_255_1_234
10
21.1354892
20
53.4348211
11
21.1354892
21
52.3914983
0
LINE
8
DEFAULT_255_1_234
10
21.1354892
20
52.3914983
11
21.6896791
21
52.3914983
0
LINE
8
DEFAULT_255_1_234
10
21.6896791
20
52.3914983
11
21.6896791
21
52.2654
0
LINE
8
DEFAULT_255_1_234
10
21.6896791
20
52.2654
11
20.9804766
21
52.2654
0
LINE
8
DEFAULT_255_1_234
10
20.9804766
20
52.2654
11
20.9804766
21
53.4348211
0
LINE
8
DEFAULT_255_1_234
10
20.9804766
20
53.4348211
11
21.1354892
21
53.4348211
0
LINE
8
DEFAULT_255_1_234
10
21.8655742
20
53.4348211
11
22.0647613
21
53.4348211
0
LINE
8
DEFAULT_255_1_234
10
22.0647613
20
53.4348211
11
22.447072
21
52.4806506
0
LINE
8
DEFAULT_255_1_234
10
22.447072
20
52.4806506
11
22.8293828
21
53.4348211
0
LINE
8
DEFAULT_255_1_234
10
22.8293828
20
53.4348211
11
23.029373
21
53.4348211
0
LINE
8
DEFAULT_255_1_234
10
23.029373
20
53.4348211
11
23.029373
21
52.2654
0
LINE
8
DEFAULT_255_1_234
10
23.029373
20
52.2654
11
22.8751637
21
52.2654
0
LINE
8
DEFAULT_255_1_234
10
22.8751637
20
52.2654
11
22.8751637
21
52.7207996
0
LINE
8
DEFAULT_255_1_234
10
22.8751637
20
52.7207996
11
22.8896208
21
53.2123419
0
LINE
8
DEFAULT_255_1_234
10
22.8896208
20
53.2123419
11
22.5057037
21
52.2654
0
LINE
8
DEFAULT_255_1_234
10
22.5057037
20
52.2654
11
22.3876372
21
52.2654
0
LINE
8
DEFAULT_255_1_234
10
22.3876372
20
52.2654
11
22.0045232
21
53.2099324
0
LINE
8
DEFAULT_255_1_234
10
22.0045232
20
53.2099324
11
22.0197835
21
52.7207996
0
LINE
8
DEFAULT_255_1_234
10
22.0197835
20
52.7207996
11
22.0197835
21
52.2654
0
LINE
8
DEFAULT_255_1_234
10
22.0197835
20
52.2654
11
21.8655742
21
52.2654
0
LINE
8
DEFAULT_255_1_234
10
21.8655742
20
52.2654
11
21.8655742
21
53.4348211
0
LINE
8
DEFAULT_255_1_234
10
24.0293245
20
52.3866792
11
24.0293245
21
52.2654
0
LINE
8
DEFAULT_255_1_234
10
24.0293245
20
52.2654
11
23.2630966
21
52.2654
0
LINE
8
DEFAULT_255_1_234
10
23.2630966
20
52.2654
11
23.2630966
21
52.3722221
0
LINE
8
DEFAULT_255_1_234
10
23.2630966
20
52.3722221
11
23.6678962
21
52.8219995
0
LINE
8
DEFAULT_255_1_234
10
23.3891949
20
53.0902595
11
23.2406078
21
53.0902595
0
LINE
8
DEFAULT_255_1_234
10
23.7554422
20
52.7264218
11
23.4422044
21
52.3866792
0
LINE
8
DEFAULT_255_1_234
10
23.4422044
20
52.3866792
11
24.0293245
21
52.3866792
0
ARC
8
DEFAULT_255_1_234
10
22.3188796
20
54.0149527
40
1.8008286
50
318.5132453
51
320.7828378
0
ARC
8
DEFAULT_255_1_234
10
22.847577
20
53.5846426
40
1.1191493
50
320.7372736
51
323.9737074
0
ARC
8
DEFAULT_255_1_234
10
23.2395626
20
53.3006361
40
0.6350923
50
323.8961724
51
328.6421089
0
ARC
8
DEFAULT_255_1_234
10
23.4442222
20
53.1744031
40
0.3946393
50
328.8299013
51
331.789948
0
ARC
8
DEFAULT_255_1_234
10
23.54394
20
53.1229509
40
0.2824501
50
331.4255242
51
352.9364833
0
ARC
8
DEFAULT_255_1_234
10
23.5575901
20
53.1198976
40
0.2685315
50
353.2248685
51
0.0169286
0
ARC
8
DEFAULT_255_1_234
10
23.5785778
20
53.122195
40
0.2475536
50
359.4866256
51
15.9339782
0
ARC
8
DEFAULT_255_1_234
10
23.6292763
20
53.1358286
40
0.1950618
50
16.1714718
51
43.5284424
0
ARC
8
DEFAULT_255_1_234
10
23.6370072
20
53.1435573
40
0.184134
50
43.4415429
51
83.1661404
0
ARC
8
DEFAULT_255_1_234
10
23.623599
20
53.0698771
40
0.258926
50
82.160215
51
90.1505798
0
ARC
8
DEFAULT_255_1_234
10
23.6204417
20
53.0161865
40
0.3126255
50
89.5460705
51
102.5418777
0
ARC
8
DEFAULT_255_1_234
10
23.5961503
20
53.1192665
40
0.2067346
50
102.1739365
51
129.2061916
0
ARC
8
DEFAULT_255_1_234
10
23.5882575
20
53.1317094
40
0.1921118
50
129.7279328
51
135.7542026
0
ARC
8
DEFAULT_255_1_234
10
23.6004103
20
53.1220045
40
0.2075944
50
136.175737
51
166.3674722
0
ARC
8
DEFAULT_255_1_234
10
23.7011022
20
53.0950182
40
0.3118201
50
165.9092917
51
178.8683903
0
ARC
8
DEFAULT_255_1_234
10
23.7875883
20
53.0903179
40
0.3983935
50
178.438168
51
180.0083905
0
ARC
8
DEFAULT_255_1_234
10
23.6474485
20
53.0942231
40
0.4068601
50
163.2878735
51
180.5581814
0
ARC
8
DEFAULT_255_1_234
10
23.5672747
20
53.116284
40
0.3237344
50
133.454115
51
162.9470031
0
ARC
8
DEFAULT_255_1_234
10
23.5851288
20
53.0973
40
0.349795
50
100.7869394
51
133.4384016
0
ARC
8
DEFAULT_255_1_234
10
23.619906
20
52.9424319
40
0.5084616
50
89.6605301
51
101.3704185
0
ARC
8
DEFAULT_255_1_234
10
23.6265398
20
52.9485496
40
0.502348
50
78.2171172
51
90.4130393
0
ARC
8
DEFAULT_255_1_234
10
23.6620477
20
53.1109637
40
0.3361092
50
55.9268222
51
78.4888551
0
ARC
8
DEFAULT_255_1_234
10
23.6816917
20
53.1448324
40
0.2970617
50
47.9292255
51
55.4054003
0
ARC
8
DEFAULT_255_1_234
10
23.6918478
20
53.1551502
40
0.2825983
50
4.3347696
51
48.0560701
0
ARC
8
DEFAULT_255_1_234
10
23.5822871
20
53.1381601
40
0.393225
50
359.925209
51
5.5967654
0
ARC
8
DEFAULT_255_1_234
10
23.6251763
20
53.1437816
40
0.3503892
50
337.8914096
51
358.9967724
0
ARC
8
DEFAULT_255_1_234
10
23.3538175
20
53.2484706
40
0.6412172
50
326.9135351
51
338.3505194
0
ARC
8
DEFAULT_255_1_234
10
22.9552479
20
53.5039284
40
1.1146189
50
319.6472867
51
327.095818
0
ARC
8
DEFAULT_255_1_234
10
22.5719482
20
53.8201
40
1.6114559
50
317.2586784
51
319.9046139
0
LINE
8
DEFAULT_255_1_234
10
20.6739293
20
60.2029
11
20.5622881
21
60.5081061
0
LINE
8
DEFAULT_255_1_234
10
20.5622881
20
60.5081061
11
20.0723521
21
60.5081061
0
LINE
8
DEFAULT_255_1_234
10
20.0723521
20
60.5081061
11
19.9623173
21
60.2029
0
LINE
8
DEFAULT_255_1_234
10
19.9623173
20
60.2029
11
19.8032889
21
60.2029
0
LINE
8
DEFAULT_255_1_234
10
19.8032889
20
60.2029
11
20.2498535
21
61.3723211
0
LINE
8
DEFAULT_255_1_234
10
20.2498535
20
61.3723211
11
20.3847867
21
61.3723211
0
LINE
8
DEFAULT_255_1_234
10
20.3847867
20
61.3723211
11
20.8321545
21
60.2029
0
LINE
8
DEFAULT_255_1_234
10
20.8321545
20
60.2029
11
20.6739293
21
60.2029
0
LINE
8
DEFAULT_255_1_234
10
20.3173201
20
61.1819689
11
20.1189362
21
60.6350075
0
LINE
8
DEFAULT_255_1_234
10
20.1189362
20
60.6350075
11
20.5165072
21
60.6350075
0
LINE
8
DEFAULT_255_1_234
10
20.5165072
20
60.6350075
11
20.3173201
21
61.1819689
0
LINE
8
DEFAULT_255_1_234
10
21.1445892
20
61.3723211
11
21.1445892
21
60.3289983
0
LINE
8
DEFAULT_255_1_234
10
21.1445892
20
60.3289983
11
21.6987791
21
60.3289983
0
LINE
8
DEFAULT_255_1_234
10
21.6987791
20
60.3289983
11
21.6987791
21
60.2029
0
LINE
8
DEFAULT_255_1_234
10
21.6987791
20
60.2029
11
20.9895766
21
60.2029
0
LINE
8
DEFAULT_255_1_234
10
20.9895766
20
60.2029
11
20.9895766
21
61.3723211
0
LINE
8
DEFAULT_255_1_234
10
20.9895766
20
61.3723211
11
21.1445892
21
61.3723211
0
LINE
8
DEFAULT_255_1_234
10
21.8746742
20
61.3723211
11
22.0738613
21
61.3723211
0
LINE
8
DEFAULT_255_1_234
10
22.0738613
20
61.3723211
11
22.456172
21
60.4181506
0
LINE
8
DEFAULT_255_1_234
10
22.456172
20
60.4181506
11
22.8384828
21
61.3723211
0
LINE
8
DEFAULT_255_1_234
10
22.8384828
20
61.3723211
11
23.038473
21
61.3723211
0
LINE
8
DEFAULT_255_1_234
10
23.038473
20
61.3723211
11
23.038473
21
60.2029
0
LINE
8
DEFAULT_255_1_234
10
23.038473
20
60.2029
11
22.8842637
21
60.2029
0
LINE
8
DEFAULT_255_1_234
10
22.8842637
20
60.2029
11
22.8842637
21
60.6582996
0
LINE
8
DEFAULT_255_1_234
10
22.8842637
20
60.6582996
11
22.8987208
21
61.1498419
0
LINE
8
DEFAULT_255_1_234
10
22.8987208
20
61.1498419
11
22.5148037
21
60.2029
0
LINE
8
DEFAULT_255_1_234
10
22.5148037
20
60.2029
11
22.3967372
21
60.2029
0
LINE
8
DEFAULT_255_1_234
10
22.3967372
20
60.2029
11
22.0136232
21
61.1474324
0
LINE
8
DEFAULT_255_1_234
10
22.0136232
20
61.1474324
11
22.0288835
21
60.6582996
0
LINE
8
DEFAULT_255_1_234
10
22.0288835
20
60.6582996
11
22.0288835
21
60.2029
0
LINE
8
DEFAULT_255_1_234
10
22.0288835
20
60.2029
11
21.8746742
21
60.2029
0
LINE
8
DEFAULT_255_1_234
10
21.8746742
20
60.2029
11
21.8746742
21
61.3723211
0
LINE
8
DEFAULT_255_1_234
10
23.7605263
20
61.3779433
11
23.7605263
21
60.2029
0
LINE
8
DEFAULT_255_1_234
10
23.7605263
20
60.2029
11
23.611136
21
60.2029
0
LINE
8
DEFAULT_255_1_234
10
23.611136
20
60.2029
11
23.611136
21
61.1932133
0
LINE
8
DEFAULT_255_1_234
10
23.611136
20
61.1932133
11
23.3115521
21
61.0831785
0
LINE
8
DEFAULT_255_1_234
10
23.3115521
20
61.0831785
11
23.3115521
21
61.2181117
0
LINE
8
DEFAULT_255_1_234
10
23.3115521
20
61.2181117
11
23.7372343
21
61.3779433
0
LINE
8
DEFAULT_255_1_234
10
23.7372343
20
61.3779433
11
23.7605263
21
61.3779433
0
ENDSEC
0
EOF