0
SECTION
2
HEADER
9
$MEASUREMENT
70
1
0
ENDSEC
0
SECTION
2
TABLES
0
TABLE
2
LTYPE
0
LTYPE
72
65
70
64
2
CONTINUOUS
3
______
73
0
40
0
0
ENDTAB
0
TABLE
2
LAYER
0
LAYER
2
DEFAULT_255_2_778
70
0
62
255
6
CONTINUOUS
0
LAYER
2
DEFAULT_255_1_388
70
0
62
255
6
CONTINUOUS
0
LAYER
2
DEFAULT_255_2_778_1
70
0
62
255
6
CONTINUOUS
0
ENDTAB
0
ENDSEC
0
SECTION
2
ENTITIES
0
ARC
8
DEFAULT_255_2_778
10
3.5700693
20
75.805203
40
0.7914215
50
129.1312896
51
180.1450914
0
ARC
8
DEFAULT_255_2_778
10
3.5703345
20
75.8056901
40
0.7912112
50
89.854026
51
129.1684493
0
ARC
8
DEFAULT_255_2_778
10
25.7993937
20
75.8053767
40
0.7915249
50
39.4792447
51
90.147911
0
ARC
8
DEFAULT_255_2_778
10
25.7999935
20
75.8052233
40
0.7911595
50
359.8533901
51
39.5154338
0
ARC
8
DEFAULT_255_2_778
10
25.7996693
20
-1.9863492
40
0.7914836
50
309.4761667
51
0.1482649
0
ARC
8
DEFAULT_255_2_778
10
25.799398
20
-1.9867803
40
0.7913235
50
269.8517415
51
309.511178
0
ARC
8
DEFAULT_255_2_778
10
3.570342
20
-1.9867221
40
0.7913815
50
219.1282118
51
270.1454017
0
ARC
8
DEFAULT_255_2_778
10
3.5700247
20
-1.9863397
40
0.7913769
50
179.8524075
51
219.1641908
0
LINE
8
DEFAULT_255_2_778
10
3.5723503
20
76.5968989
11
25.7973503
21
76.5968989
0
LINE
8
DEFAULT_255_2_778
10
26.5911503
20
75.8031989
11
26.5911503
21
-1.9843011
0
LINE
8
DEFAULT_255_2_778
10
25.7973503
20
-2.7781011
11
3.5723503
21
-2.7781011
0
LINE
8
DEFAULT_255_2_778
10
2.7786503
20
-1.9843011
11
2.7786503
21
75.8031989
0
LINE
8
DEFAULT_255_1_388
10
9.705032
20
-0.2223532
11
9.8794199
21
-0.2223532
0
LINE
8
DEFAULT_255_1_388
10
8.8665242
20
-0.0434475
11
8.8665242
21
0.0830516
0
LINE
8
DEFAULT_255_1_388
10
9.8794199
20
0.2529217
11
9.705032
21
0.2529217
0
LINE
8
DEFAULT_255_1_388
10
9.0409121
20
0.0785337
11
9.0409121
21
-0.0488688
0
ARC
8
DEFAULT_255_1_388
10
9.2628433
20
-0.1551671
40
0.6202263
50
340.1774904
51
353.7812217
0
ARC
8
DEFAULT_255_1_388
10
9.4396286
20
-0.2210107
40
0.4315926
50
311.4560052
51
340.4420756
0
ARC
8
DEFAULT_255_1_388
10
9.4358826
20
-0.2085335
40
0.4434573
50
282.4332229
51
310.7514507
0
ARC
8
DEFAULT_255_1_388
10
9.3864644
20
-0.0043297
40
0.6535262
50
269.9358869
51
282.8096729
0
ARC
8
DEFAULT_255_1_388
10
9.3806583
20
0.1469329
40
0.8048043
50
269.9995752
51
270.3612856
0
ARC
8
DEFAULT_255_1_388
10
9.3747073
20
-0.1329219
40
0.5249831
50
250.7885263
51
270.6488451
0
ARC
8
DEFAULT_255_1_388
10
9.3557898
20
-0.2046147
40
0.4510942
50
219.3628377
51
250.0611024
0
ARC
8
DEFAULT_255_1_388
10
9.4490772
20
-0.1253347
40
0.5735046
50
193.5480293
51
219.5755675
0
ARC
8
DEFAULT_255_1_388
10
9.7158981
20
-0.056048
40
0.849146
50
181.1220183
51
193.8754971
0
ARC
8
DEFAULT_255_1_388
10
9.9482214
20
-0.0436086
40
1.0816971
50
179.9914644
51
181.5398227
0
ARC
8
DEFAULT_255_1_388
10
9.7405525
20
0.0872586
40
0.8740384
50
169.5837606
51
180.275782
0
ARC
8
DEFAULT_255_1_388
10
9.5338873
20
0.1254439
40
0.6638751
50
155.0367033
51
169.6002779
0
ARC
8
DEFAULT_255_1_388
10
9.4061331
20
0.1870336
40
0.5220662
50
136.7831557
51
155.2472983
0
ARC
8
DEFAULT_255_1_388
10
9.3623122
20
0.2242577
40
0.4646502
50
121.7633063
51
136.4281161
0
ARC
8
DEFAULT_255_1_388
10
9.3774962
20
0.1962049
40
0.4964979
50
95.6460018
51
121.5489589
0
ARC
8
DEFAULT_255_1_388
10
9.3951936
20
0.0714704
40
0.6223912
50
89.9245727
51
96.1375919
0
ARC
8
DEFAULT_255_1_388
10
9.4008641
20
0.0848721
40
0.6090084
50
76.6779212
51
90.456405
0
ARC
8
DEFAULT_255_1_388
10
9.4451454
20
0.263806
40
0.42469
50
47.4858803
51
76.9287069
0
ARC
8
DEFAULT_255_1_388
10
9.4286068
20
0.2525623
40
0.4441778
50
16.5424081
51
46.8934505
0
ARC
8
DEFAULT_255_1_388
10
9.2477118
20
0.1931265
40
0.6345318
50
5.4072971
51
17.0363711
0
ARC
8
DEFAULT_255_1_388
10
9.0858843
20
0.1671304
40
0.6250632
50
7.8888693
51
15.9242022
0
ARC
8
DEFAULT_255_1_388
10
9.3093828
20
0.2320309
40
0.3923364
50
15.7650676
51
27.9410069
0
ARC
8
DEFAULT_255_1_388
10
9.4335997
20
0.2985317
40
0.2514401
50
27.8167196
51
46.4007942
0
ARC
8
DEFAULT_255_1_388
10
9.4391839
20
0.2978882
40
0.2480958
50
47.4372362
51
75.0695672
0
ARC
8
DEFAULT_255_1_388
10
9.4044675
20
0.1770277
40
0.3738281
50
74.7009379
51
87.8124314
0
ARC
8
DEFAULT_255_1_388
10
9.3962292
20
0.0586659
40
0.4924321
50
87.3802571
51
90.0251599
0
ARC
8
DEFAULT_255_1_388
10
9.3918939
20
0.1906997
40
0.3604218
50
89.3451886
51
108.5744412
0
ARC
8
DEFAULT_255_1_388
10
9.3764931
20
0.2484836
40
0.3007661
50
109.2998307
51
143.3037387
0
ARC
8
DEFAULT_255_1_388
10
9.4622221
20
0.1825584
40
0.4089031
50
143.075267
51
163.1918576
0
ARC
8
DEFAULT_255_1_388
10
9.6818055
20
0.1132652
40
0.6391492
50
162.9375929
51
174.6208776
0
ARC
8
DEFAULT_255_1_388
10
9.9772437
20
0.0808711
40
0.9363344
50
174.342123
51
180.1430283
0
ARC
8
DEFAULT_255_1_388
10
9.8724978
20
-0.0534883
40
0.8315986
50
179.6817261
51
189.150555
0
ARC
8
DEFAULT_255_1_388
10
9.5911727
20
-0.1003441
40
0.5464044
50
188.9911061
51
203.5772363
0
ARC
8
DEFAULT_255_1_388
10
9.4697019
20
-0.1507461
40
0.4149206
50
203.9075402
51
215.1312435
0
ARC
8
DEFAULT_255_1_388
10
9.3658817
20
-0.2312093
40
0.2837747
50
213.9071511
51
263.8848919
0
ARC
8
DEFAULT_255_1_388
10
9.379981
20
-0.1429481
40
0.3730641
50
263.1757928
51
270.1031044
0
ARC
8
DEFAULT_255_1_388
10
9.383589
20
-0.0026489
40
0.5133712
50
269.6722503
51
279.0606936
0
ARC
8
DEFAULT_255_1_388
10
9.4136045
20
-0.184085
40
0.3294739
50
278.8749101
51
293.6349581
0
ARC
8
DEFAULT_255_1_388
10
9.4496249
20
-0.2686749
40
0.2375405
50
293.8553806
51
310.0518171
0
ARC
8
DEFAULT_255_1_388
10
9.4501758
20
-0.2756979
40
0.2318463
50
311.0644687
51
332.0111037
0
ARC
8
DEFAULT_255_1_388
10
9.3160431
20
-0.2017298
40
0.3850112
50
331.6586806
51
343.2877423
0
ARC
8
DEFAULT_255_1_388
10
9.0839896
20
-0.1304194
40
0.6277712
50
343.1446576
51
351.0103568
0
ARC
8
DEFAULT_255_1_388
10
8.920722
20
-0.1004127
40
0.7937327
50
350.71248
51
351.1626997
0
LINE
8
DEFAULT_255_1_388
10
10.6673281
20
-0.2584958
11
10.6673281
21
0.6757898
0
LINE
8
DEFAULT_255_1_388
10
10.6673281
20
0.6757898
11
10.8417161
21
0.6757898
0
LINE
8
DEFAULT_255_1_388
10
10.8417161
20
0.6757898
11
10.8417161
21
-0.2557851
0
LINE
8
DEFAULT_255_1_388
10
10.0113403
20
-0.2765671
11
10.1848247
21
-0.2765671
0
ARC
8
DEFAULT_255_1_388
10
10.3364883
20
-0.2601042
40
0.5052462
50
346.3132364
51
0.4897996
0
ARC
8
DEFAULT_255_1_388
10
10.4904416
20
-0.2995208
40
0.3463431
50
313.3793278
51
346.6225662
0
ARC
8
DEFAULT_255_1_388
10
10.46785
20
-0.2710814
40
0.3825426
50
281.1587645
51
312.9130978
0
ARC
8
DEFAULT_255_1_388
10
10.4295405
20
-0.1029393
40
0.5549427
50
269.6423454
51
281.6796473
0
ARC
8
DEFAULT_255_1_388
10
10.4218184
20
-0.0411501
40
0.6167359
50
258.9989698
51
270.3955842
0
ARC
8
DEFAULT_255_1_388
10
10.3796642
20
-0.2491208
40
0.4045461
50
239.625581
51
259.2387746
0
ARC
8
DEFAULT_255_1_388
10
10.3471635
20
-0.3104362
40
0.3352261
50
227.4961805
51
239.1189042
0
ARC
8
DEFAULT_255_1_388
10
10.3429519
20
-0.3172991
40
0.3273245
50
191.3396895
51
227.2280349
0
ARC
8
DEFAULT_255_1_388
10
10.5009841
20
-0.2799104
40
0.4896551
50
179.6087821
51
191.9932937
0
ARC
8
DEFAULT_255_1_388
10
10.5160585
20
-0.2790784
40
0.3312434
50
179.565607
51
192.0702314
0
ARC
8
DEFAULT_255_1_388
10
10.4067538
20
-0.303644
40
0.2192212
50
191.7655537
51
215.6462731
0
ARC
8
DEFAULT_255_1_388
10
10.3866779
20
-0.3157371
40
0.1958682
50
216.1940686
51
224.3931249
0
ARC
8
DEFAULT_255_1_388
10
10.3874475
20
-0.3127138
40
0.1985399
50
224.861176
51
254.3628599
0
ARC
8
DEFAULT_255_1_388
10
10.4179018
20
-0.2120865
40
0.3036595
50
253.9470645
51
267.395327
0
ARC
8
DEFAULT_255_1_388
10
10.4258318
20
-0.1081654
40
0.4078462
50
266.9458957
51
270.0343693
0
ARC
8
DEFAULT_255_1_388
10
10.4286898
20
-0.2388156
40
0.2772084
50
269.4598277
51
286.1819188
0
ARC
8
DEFAULT_255_1_388
10
10.4445871
20
-0.2971235
40
0.2167824
50
286.4415261
51
315.8045035
0
ARC
8
DEFAULT_255_1_388
10
10.4384904
20
-0.2923799
40
0.2244619
50
316.0212602
51
345.479585
0
ARC
8
DEFAULT_255_1_388
10
10.3293062
20
-0.2616247
40
0.3378781
50
345.0729937
51
358.3249855
0
ARC
8
DEFAULT_255_1_388
10
10.2317508
20
-0.2553491
40
0.4355887
50
357.8749464
51
359.5860856
0
LINE
8
DEFAULT_255_1_388
10
11.6431777
20
0.6821148
11
11.6431777
21
-0.6398
0
LINE
8
DEFAULT_255_1_388
10
11.6431777
20
-0.6398
11
11.4751147
21
-0.6398
0
LINE
8
DEFAULT_255_1_388
10
11.4751147
20
-0.6398
11
11.4751147
21
0.474295
0
LINE
8
DEFAULT_255_1_388
10
11.4751147
20
0.474295
11
11.1380852
21
0.3505066
0
LINE
8
DEFAULT_255_1_388
10
11.1380852
20
0.3505066
11
11.1380852
21
0.5023055
0
LINE
8
DEFAULT_255_1_388
10
11.1380852
20
0.5023055
11
11.6169744
21
0.6821148
0
LINE
8
DEFAULT_255_1_388
10
11.6169744
20
0.6821148
11
11.6431777
21
0.6821148
0
LINE
8
DEFAULT_255_1_388
10
12.2521802
20
0.6757898
11
12.46
21
-0.2250639
0
LINE
8
DEFAULT_255_1_388
10
12.46
20
-0.2250639
11
12.4852998
21
-0.3985483
0
LINE
8
DEFAULT_255_1_388
10
12.4852998
20
-0.3985483
11
12.5223459
21
-0.2422316
0
LINE
8
DEFAULT_255_1_388
10
12.5223459
20
-0.2422316
11
12.7825725
21
0.6757898
0
LINE
8
DEFAULT_255_1_388
10
12.7825725
20
0.6757898
11
12.92895
21
0.6757898
0
LINE
8
DEFAULT_255_1_388
10
12.92895
20
0.6757898
11
13.1828516
21
-0.2422316
0
LINE
8
DEFAULT_255_1_388
10
13.1828516
20
-0.2422316
11
13.2189941
21
-0.401259
0
LINE
8
DEFAULT_255_1_388
10
13.2189941
20
-0.401259
11
13.2470046
21
-0.2241604
0
LINE
8
DEFAULT_255_1_388
10
13.2470046
20
-0.2241604
11
13.4512102
21
0.6757898
0
LINE
8
DEFAULT_255_1_388
10
13.4512102
20
0.6757898
11
13.6255981
21
0.6757898
0
LINE
8
DEFAULT_255_1_388
10
13.6255981
20
0.6757898
11
13.3066399
21
-0.6398
0
LINE
8
DEFAULT_255_1_388
10
13.3066399
20
-0.6398
11
13.1485161
21
-0.6398
0
LINE
8
DEFAULT_255_1_388
10
13.1485161
20
-0.6398
11
12.8774468
21
0.3188819
0
LINE
8
DEFAULT_255_1_388
10
12.8774468
20
0.3188819
11
12.8566648
21
0.4191775
0
LINE
8
DEFAULT_255_1_388
10
12.8566648
20
0.4191775
11
12.8358828
21
0.3188819
0
LINE
8
DEFAULT_255_1_388
10
12.8358828
20
0.3188819
11
12.5548743
21
-0.6398
0
LINE
8
DEFAULT_255_1_388
10
12.5548743
20
-0.6398
11
12.3967505
21
-0.6398
0
LINE
8
DEFAULT_255_1_388
10
12.3967505
20
-0.6398
11
12.0786958
21
0.6757898
0
LINE
8
DEFAULT_255_1_388
10
12.0786958
20
0.6757898
11
12.2521802
21
0.6757898
0
LINE
8
DEFAULT_255_1_388
10
14.0855125
20
-0.0127263
11
14.0855125
21
-0.1491645
0
LINE
8
DEFAULT_255_1_388
10
14.0855125
20
-0.1491645
11
13.644573
21
-0.1491645
0
LINE
8
DEFAULT_255_1_388
10
13.644573
20
-0.1491645
11
13.644573
21
-0.0127263
0
LINE
8
DEFAULT_255_1_388
10
13.644573
20
-0.0127263
11
14.0855125
21
-0.0127263
0
LINE
8
DEFAULT_255_1_388
10
14.7577644
20
-0.1247683
11
14.4478418
21
-0.1247683
0
LINE
8
DEFAULT_255_1_388
10
14.4478418
20
-0.1247683
11
14.4478418
21
-0.6398
0
LINE
8
DEFAULT_255_1_388
10
14.4478418
20
-0.6398
11
14.2743574
21
-0.6398
0
LINE
8
DEFAULT_255_1_388
10
14.2743574
20
-0.6398
11
14.2743574
21
0.6757898
0
LINE
8
DEFAULT_255_1_388
10
14.2743574
20
0.6757898
11
14.7595715
21
0.6757898
0
LINE
8
DEFAULT_255_1_388
10
14.4478418
20
0.5330267
11
14.4478418
21
0.0170914
0
LINE
8
DEFAULT_255_1_388
10
14.4478418
20
0.0170914
11
14.7595715
21
0.0170914
0
LINE
8
DEFAULT_255_1_388
10
14.7695107
20
0.5330267
11
14.4478418
21
0.5330267
0
ARC
8
DEFAULT_255_1_388
10
14.7643089
20
-0.0058666
40
0.6816729
50
78.8380084
51
90.398184
0
ARC
8
DEFAULT_255_1_388
10
14.8111119
20
0.2214796
40
0.449571
50
58.9633273
51
79.0810717
0
ARC
8
DEFAULT_255_1_388
10
14.8450504
20
0.2844823
40
0.3781049
50
48.0194715
51
58.4475592
0
ARC
8
DEFAULT_255_1_388
10
14.8550324
20
0.2940818
40
0.3642936
50
3.3374546
51
48.1766642
0
ARC
8
DEFAULT_255_1_388
10
14.716513
20
0.2741581
40
0.5038766
50
359.9483251
51
4.6822857
0
ARC
8
DEFAULT_255_1_388
10
14.7305054
20
0.2693779
40
0.4899031
50
346.1879032
51
0.5059221
0
ARC
8
DEFAULT_255_1_388
10
14.8833845
20
0.2296763
40
0.3319729
50
310.8832219
51
346.5426612
0
ARC
8
DEFAULT_255_1_388
10
14.8486693
20
0.2765853
40
0.3901853
50
286.6925305
51
310.228778
0
ARC
8
DEFAULT_255_1_388
10
14.7846423
20
0.4779585
40
0.6014737
50
274.6848219
51
287.0247342
0
ARC
8
DEFAULT_255_1_388
10
14.7592972
20
0.7264088
40
0.8511785
50
269.8968222
51
275.0192639
0
ARC
8
DEFAULT_255_1_388
10
14.7623965
20
0.4926144
40
0.4755314
50
269.6596206
51
279.4150542
0
ARC
8
DEFAULT_255_1_388
10
14.7913423
20
0.3248945
40
0.3053379
50
279.2050006
51
294.9901776
0
ARC
8
DEFAULT_255_1_388
10
14.8240058
20
0.2520353
40
0.2255036
50
295.2886769
51
311.2912669
0
ARC
8
DEFAULT_255_1_388
10
14.8319799
20
0.2401938
40
0.2113522
50
311.7853512
51
347.2860549
0
ARC
8
DEFAULT_255_1_388
10
14.7212961
20
0.268643
40
0.3256011
50
346.6891629
51
0.1057086
0
ARC
8
DEFAULT_255_1_388
10
14.629042
20
0.2719247
40
0.417863
50
359.63239
51
359.9961329
0
ARC
8
DEFAULT_255_1_388
10
14.7455026
20
0.2746987
40
0.3014155
50
359.4673371
51
15.5931159
0
ARC
8
DEFAULT_255_1_388
10
14.8158088
20
0.2936937
40
0.2285918
50
15.7441779
51
46.620186
0
ARC
8
DEFAULT_255_1_388
10
14.7991848
20
0.2745361
40
0.2539359
50
46.8628482
51
75.6676625
0
ARC
8
DEFAULT_255_1_388
10
14.7660905
20
0.1554243
40
0.3775415
50
75.2763152
51
88.2916439
0
ARC
8
DEFAULT_255_1_388
10
14.7594904
20
0.0552097
40
0.4779221
50
87.8589087
51
88.7986197
0
LINE
8
DEFAULT_255_1_388
10
16.3507485
20
0.6757898
11
16.3507485
21
0.5330267
0
LINE
8
DEFAULT_255_1_388
10
16.3507485
20
0.5330267
11
15.9278804
21
0.5330267
0
LINE
8
DEFAULT_255_1_388
10
15.9278804
20
0.5330267
11
15.9278804
21
-0.6398
0
LINE
8
DEFAULT_255_1_388
10
15.9278804
20
-0.6398
11
15.7552996
21
-0.6398
0
LINE
8
DEFAULT_255_1_388
10
15.7552996
20
-0.6398
11
15.7552996
21
0.5330267
0
LINE
8
DEFAULT_255_1_388
10
15.7552996
20
0.5330267
11
15.333335
21
0.5330267
0
LINE
8
DEFAULT_255_1_388
10
15.333335
20
0.5330267
11
15.333335
21
0.6757898
0
LINE
8
DEFAULT_255_1_388
10
15.333335
20
0.6757898
11
16.3507485
21
0.6757898
0
LINE
8
DEFAULT_255_1_388
10
17.4043047
20
0.2953892
11
17.2299167
21
0.2953892
0
LINE
8
DEFAULT_255_1_388
10
16.4510442
20
-0.2584958
11
16.6254321
21
-0.2584958
0
ARC
8
DEFAULT_255_1_388
10
17.3039895
20
1.3017821
40
1.4087688
50
248.9196578
51
254.1442424
0
ARC
8
DEFAULT_255_1_388
10
17.1149775
20
0.8151805
40
0.8867498
50
241.6337352
51
249.0064643
0
ARC
8
DEFAULT_255_1_388
10
16.9430088
20
0.5000764
40
0.5277799
50
230.4982261
51
241.8087583
0
ARC
8
DEFAULT_255_1_388
10
16.8547859
20
0.3876686
40
0.3849419
50
227.4062979
51
229.9877433
0
ARC
8
DEFAULT_255_1_388
10
16.7999205
20
0.3341155
40
0.3084129
50
200.6782127
51
228.1765252
0
ARC
8
DEFAULT_255_1_388
10
16.8080574
20
0.3324277
40
0.315461
50
179.506278
51
199.8695278
0
ARC
8
DEFAULT_255_1_388
10
16.8070163
20
0.3407671
40
0.3144584
50
132.4834401
51
181.0242352
0
ARC
8
DEFAULT_255_1_388
10
16.8739368
20
0.2775788
40
0.4063094
50
129.2526113
51
133.4249077
0
ARC
8
DEFAULT_255_1_388
10
16.890496
20
0.2527619
40
0.436014
50
101.9878945
51
128.8741833
0
ARC
8
DEFAULT_255_1_388
10
16.9353375
20
0.059136
40
0.6347415
50
89.5906376
51
102.3170567
0
ARC
8
DEFAULT_255_1_388
10
16.9432687
20
0.0949586
40
0.5989122
50
77.2359491
51
90.3248968
0
ARC
8
DEFAULT_255_1_388
10
16.9665618
20
0.2037554
40
0.4876594
50
63.8379856
51
77.0808925
0
ARC
8
DEFAULT_255_1_388
10
16.9978152
20
0.2619882
40
0.4216191
50
45.9863127
51
64.1608798
0
ARC
8
DEFAULT_255_1_388
10
17.0271545
20
0.295499
40
0.3771394
50
32.2747934
51
45.6544796
0
ARC
8
DEFAULT_255_1_388
10
17.0346351
20
0.2976426
40
0.3696765
50
359.6507495
51
32.6129943
0
ARC
8
DEFAULT_255_1_388
10
16.9285534
20
0.2981788
40
0.3013762
50
359.469654
51
14.983205
0
ARC
8
DEFAULT_255_1_388
10
17.0078786
20
0.3194288
40
0.2192542
50
14.9781954
51
48.2004799
0
ARC
8
DEFAULT_255_1_388
10
16.9893897
20
0.2961937
40
0.2489048
50
48.5926661
51
74.1242559
0
ARC
8
DEFAULT_255_1_388
10
16.95187
20
0.1723607
40
0.3782845
50
73.7889321
51
86.6653996
0
ARC
8
DEFAULT_255_1_388
10
16.9403514
20
0.0365955
40
0.5145025
50
86.2642725
51
90.0533288
0
ARC
8
DEFAULT_255_1_388
10
16.9371607
20
0.0810376
40
0.4700681
50
89.669455
51
99.2313411
0
ARC
8
DEFAULT_255_1_388
10
16.9098767
20
0.2435401
40
0.3052945
50
99.0695987
51
113.7659242
0
ARC
8
DEFAULT_255_1_388
10
16.8790761
20
0.3161772
40
0.226407
50
114.0402885
51
127.9848946
0
ARC
8
DEFAULT_255_1_388
10
16.8520237
20
0.3494884
40
0.1835045
50
127.7287217
51
176.7106493
0
ARC
8
DEFAULT_255_1_388
10
16.9283903
20
0.338121
40
0.2604907
50
175.1780759
51
180.0581213
0
ARC
8
DEFAULT_255_1_388
10
16.8335246
20
0.3367411
40
0.1656287
50
179.6140658
51
228.124674
0
ARC
8
DEFAULT_255_1_388
10
16.8832604
20
0.382794
40
0.2332038
50
226.5785315
51
230.8792476
0
ARC
8
DEFAULT_255_1_388
10
16.936209
20
0.4530908
40
0.3211664
50
231.4636401
51
241.9261664
0
ARC
8
DEFAULT_255_1_388
10
17.0708874
20
0.7009349
40
0.6032345
50
241.7177136
51
248.3259138
0
ARC
8
DEFAULT_255_1_388
10
17.2267468
20
1.0870771
40
1.0196417
50
248.2007377
51
252.4527713
0
ARC
8
DEFAULT_255_1_388
10
17.3620995
20
1.5055092
40
1.4594143
50
252.3388938
51
254.347037
0
ARC
8
DEFAULT_255_1_388
10
16.5136295
20
-1.5292905
40
1.6917621
50
71.0197462
51
74.4085467
0
ARC
8
DEFAULT_255_1_388
10
16.7043383
20
-0.9787856
40
1.1091618
50
66.1845203
51
71.086519
0
ARC
8
DEFAULT_255_1_388
10
16.8793932
20
-0.5846561
40
0.6779073
50
59.3537334
51
66.269255
0
ARC
8
DEFAULT_255_1_388
10
16.9793658
20
-0.4155223
40
0.4814366
50
49.1021732
51
59.3294421
0
ARC
8
DEFAULT_255_1_388
10
17.0714647
20
-0.3105425
40
0.3417875
50
32.7924183
51
49.2503526
0
ARC
8
DEFAULT_255_1_388
10
17.1064261
20
-0.2855689
40
0.2988789
50
31.121225
51
32.3977355
0
ARC
8
DEFAULT_255_1_388
10
17.0976439
20
-0.2888272
40
0.3080861
50
8.1116803
51
30.7958224
0
ARC
8
DEFAULT_255_1_388
10
17.0064784
20
-0.3043563
40
0.4005385
50
359.8390945
51
8.4707348
0
ARC
8
DEFAULT_255_1_388
10
17.0768832
20
-0.3098249
40
0.3301608
50
337.4732479
51
0.7538283
0
ARC
8
DEFAULT_255_1_388
10
17.0969857
20
-0.3120446
40
0.3107929
50
307.5917028
51
336.4313755
0
ARC
8
DEFAULT_255_1_388
10
17.0458915
20
-0.2552491
40
0.3870096
50
307.6560665
51
308.4561779
0
ARC
8
DEFAULT_255_1_388
10
17.0193131
20
-0.2144168
40
0.435591
50
284.3733666
51
307.1426212
0
ARC
8
DEFAULT_255_1_388
10
16.9636026
20
-0.0094609
40
0.6479685
50
272.4384566
51
284.6464689
0
ARC
8
DEFAULT_255_1_388
10
16.949341
20
0.1929434
40
0.8508149
50
269.9708517
51
272.8180721
0
ARC
8
DEFAULT_255_1_388
10
16.9445093
20
-0.0362717
40
0.6216151
50
248.2707343
51
270.4054609
0
ARC
8
DEFAULT_255_1_388
10
16.9383965
20
-0.0577327
40
0.5994203
50
246.1380358
51
248.054058
0
ARC
8
DEFAULT_255_1_388
10
16.8913107
20
-0.1566295
40
0.4899388
50
233.1671897
51
246.4951656
0
ARC
8
DEFAULT_255_1_388
10
16.8289742
20
-0.2407863
40
0.3852115
50
215.3403381
51
233.084328
0
ARC
8
DEFAULT_255_1_388
10
16.7983106
20
-0.2630907
40
0.3472969
50
179.2419235
51
215.2648426
0
ARC
8
DEFAULT_255_1_388
10
16.8846657
20
-0.2615021
40
0.259251
50
179.3355796
51
199.1045873
0
ARC
8
DEFAULT_255_1_388
10
16.8472799
20
-0.2712777
40
0.2207454
50
199.8830064
51
232.7061328
0
ARC
8
DEFAULT_255_1_388
10
16.9004073
20
-0.2044544
40
0.306101
50
232.3736206
51
255.5136621
0
ARC
8
DEFAULT_255_1_388
10
16.9387579
20
-0.0644823
40
0.4512213
50
255.2447928
51
267.5318292
0
ARC
8
DEFAULT_255_1_388
10
16.9486046
20
0.0741709
40
0.5901825
50
267.1564563
51
270.0294721
0
ARC
8
DEFAULT_255_1_388
10
16.9517371
20
0.0242623
40
0.5402814
50
269.6999944
51
278.1662446
0
ARC
8
DEFAULT_255_1_388
10
16.9805399
20
-0.1704026
40
0.3435003
50
278.0229022
51
290.6255326
0
ARC
8
DEFAULT_255_1_388
10
17.0196566
20
-0.2747453
40
0.2320666
50
290.6616368
51
307.0374127
0
ARC
8
DEFAULT_255_1_388
10
17.0534466
20
-0.316196
40
0.1786372
50
306.3942078
51
355.303191
0
ARC
8
DEFAULT_255_1_388
10
16.9958759
20
-0.3075814
40
0.2367516
50
354.3662092
51
0.0709489
0
ARC
8
DEFAULT_255_1_388
10
17.0118627
20
-0.3050439
40
0.2207761
50
359.4175379
51
16.1975911
0
ARC
8
DEFAULT_255_1_388
10
17.0630745
20
-0.2910046
40
0.1676828
50
16.4721294
51
52.6261798
0
ARC
8
DEFAULT_255_1_388
10
16.9707253
20
-0.4129394
40
0.3206412
50
52.7381828
51
62.4979144
0
ARC
8
DEFAULT_255_1_388
10
16.8149005
20
-0.7061764
40
0.6527035
50
62.2517425
51
68.1219454
0
ARC
8
DEFAULT_255_1_388
10
16.6214493
20
-1.1816049
40
1.1659797
50
68.006043
51
71.8055127
0
ARC
8
DEFAULT_255_1_388
10
16.4194401
20
-1.7874277
40
1.8045908
50
71.718361
51
73.9260743
0
LINE
8
DEFAULT_255_1_388
10
18.1352883
20
0.6821148
11
18.1352883
21
-0.6398
0
LINE
8
DEFAULT_255_1_388
10
18.1352883
20
-0.6398
11
17.9672253
21
-0.6398
0
LINE
8
DEFAULT_255_1_388
10
17.9672253
20
-0.6398
11
17.9672253
21
0.474295
0
LINE
8
DEFAULT_255_1_388
10
17.9672253
20
0.474295
11
17.6301958
21
0.3505066
0
LINE
8
DEFAULT_255_1_388
10
17.6301958
20
0.3505066
11
17.6301958
21
0.5023055
0
LINE
8
DEFAULT_255_1_388
10
17.6301958
20
0.5023055
11
18.109085
21
0.6821148
0
LINE
8
DEFAULT_255_1_388
10
18.109085
20
0.6821148
11
18.1352883
21
0.6821148
0
LINE
8
DEFAULT_255_1_388
10
18.8355508
20
-0.0145334
11
18.7018232
21
0.0198021
0
LINE
8
DEFAULT_255_1_388
10
18.7018232
20
0.0198021
11
18.768687
21
0.6757898
0
LINE
8
DEFAULT_255_1_388
10
18.768687
20
0.6757898
11
19.4427461
21
0.6757898
0
LINE
8
DEFAULT_255_1_388
10
19.4427461
20
0.6757898
11
19.4427461
21
0.5212803
0
LINE
8
DEFAULT_255_1_388
10
19.4427461
20
0.5212803
11
18.9105466
21
0.5212803
0
LINE
8
DEFAULT_255_1_388
10
18.9105466
20
0.5212803
11
18.8707898
21
0.1625652
0
LINE
8
DEFAULT_255_1_388
10
18.6548379
20
-0.2937348
11
18.8129617
21
-0.2937348
0
LINE
8
DEFAULT_255_1_388
10
18.8798254
20
0.0216092
11
18.8355508
21
-0.0145334
0
ARC
8
DEFAULT_255_1_388
10
19.0794511
20
-0.1951759
40
0.4141476
50
93.7181681
51
120.253934
0
ARC
8
DEFAULT_255_1_388
10
19.0900564
20
-0.2860716
40
0.5055616
50
89.9660471
51
94.2495185
0
ARC
8
DEFAULT_255_1_388
10
19.0946386
20
-0.2197846
40
0.4392953
50
73.8045384
51
90.5585736
0
ARC
8
DEFAULT_255_1_388
10
19.1210643
20
-0.123248
40
0.3392225
50
41.3071072
51
73.543002
0
ARC
8
DEFAULT_255_1_388
10
19.0742463
20
-0.1635539
40
0.4009977
50
13.5075837
51
41.2174839
0
ARC
8
DEFAULT_255_1_388
10
18.8895561
20
-0.2119093
40
0.5918864
50
1.1330171
51
13.8830737
0
ARC
8
DEFAULT_255_1_388
10
18.7299206
20
-0.2204478
40
0.7516787
50
359.9925091
51
1.5431298
0
ARC
8
DEFAULT_255_1_388
10
18.8743821
20
-0.2250973
40
0.6072343
50
347.8572712
51
0.4294349
0
ARC
8
DEFAULT_255_1_388
10
19.0712956
20
-0.2697102
40
0.4053482
50
323.6727442
51
348.1674594
0
ARC
8
DEFAULT_255_1_388
10
19.1043921
20
-0.2898825
40
0.3667495
50
316.8171818
51
323.1486802
0
ARC
8
DEFAULT_255_1_388
10
19.1113044
20
-0.2940388
40
0.358869
50
281.839603
51
316.5458142
0
ARC
8
DEFAULT_255_1_388
10
19.0690332
20
-0.1190637
40
0.5388223
50
269.5770964
51
282.4214641
0
ARC
8
DEFAULT_255_1_388
10
19.0610253
20
-0.143107
40
0.5147801
50
256.2425863
51
270.4486481
0
ARC
8
DEFAULT_255_1_388
10
19.027378
20
-0.2780876
40
0.3756708
50
228.9024379
51
256.33135
0
ARC
8
DEFAULT_255_1_388
10
19.0190761
20
-0.2911946
40
0.360344
50
193.7536029
51
228.5272638
0
ARC
8
DEFAULT_255_1_388
10
19.1583326
20
-0.2503537
40
0.5053599
50
184.9244437
51
194.4976052
0
ARC
8
DEFAULT_255_1_388
10
19.1799967
20
-0.2463278
40
0.3700839
50
187.3596909
51
198.6733728
0
ARC
8
DEFAULT_255_1_388
10
19.061921
20
-0.2872627
40
0.2451195
50
198.4453795
51
217.7945479
0
ARC
8
DEFAULT_255_1_388
10
19.0286383
20
-0.3108437
40
0.2043754
50
218.2887146
51
228.5613203
0
ARC
8
DEFAULT_255_1_388
10
19.039639
20
-0.2960098
40
0.2227819
50
228.9652423
51
258.1237049
0
ARC
8
DEFAULT_255_1_388
10
19.0627827
20
-0.1969036
40
0.3245374
50
257.7260585
51
270.4013717
0
ARC
8
DEFAULT_255_1_388
10
19.0678325
20
-0.2469745
40
0.2744726
50
269.4204315
51
286.420998
0
ARC
8
DEFAULT_255_1_388
10
19.0845381
20
-0.3076295
40
0.2115721
50
286.7250065
51
320.6004665
0
ARC
8
DEFAULT_255_1_388
10
19.0414296
20
-0.2726473
40
0.2670878
50
320.6712228
51
344.5440474
0
ARC
8
DEFAULT_255_1_388
10
18.911301
20
-0.2344606
40
0.4026927
50
344.241448
51
356.735803
0
ARC
8
DEFAULT_255_1_388
10
18.7709317
20
-0.2228344
40
0.5435085
50
356.3547471
51
0.0507222
0
ARC
8
DEFAULT_255_1_388
10
18.9211582
20
-0.2193188
40
0.3932934
50
359.5579289
51
12.9534322
0
ARC
8
DEFAULT_255_1_388
10
19.0398422
20
-0.1905414
40
0.2711827
50
12.6489751
51
41.608121
0
ARC
8
DEFAULT_255_1_388
10
19.0657582
20
-0.1685054
40
0.2371737
50
41.7851122
51
85.9892156
0
ARC
8
DEFAULT_255_1_388
10
19.0518892
20
-0.2600262
40
0.3295244
50
84.6965848
51
90.0672125
0
ARC
8
DEFAULT_255_1_388
10
19.049246
20
-0.3351882
40
0.4046926
50
89.6804991
51
99.161352
0
ARC
8
DEFAULT_255_1_388
10
19.0261469
20
-0.1971152
40
0.2647044
50
98.9836248
51
113.8905702
0
ARC
8
DEFAULT_255_1_388
10
19.0003144
20
-0.1361882
40
0.1985386
50
114.195234
51
127.3641866
0
ARC
8
DEFAULT_255_2_778
10
15.0734646
20
74.3616567
40
0.3782009
50
0.4397807
51
91.3045231
0
ARC
8
DEFAULT_255_2_778
10
15.0713202
20
74.3593741
40
0.3803695
50
269.0259909
51
0.7811192
0
ARC
8
DEFAULT_255_2_778
10
15.2304616
20
74.3469321
40
0.7639615
50
290.7362057
51
357.8000295
0
ARC
8
DEFAULT_255_2_778
10
15.1452354
20
74.3644912
40
0.8499188
50
356.8376875
51
0.0046095
0
ARC
8
DEFAULT_255_2_778
10
15.1438766
20
74.3645425
40
0.8512778
50
0.0011515
51
85.3589632
0
ARC
8
DEFAULT_255_2_778
10
15.1438694
20
74.3454769
40
0.8702827
50
85.4600549
51
90.0075769
0
ARC
8
DEFAULT_255_2_778
10
19.9750173
20
74.3552104
40
0.3845507
50
1.3931151
51
90.158378
0
ARC
8
DEFAULT_255_2_778
10
20.0342419
20
74.3488312
40
0.8684198
50
359.7643557
51
42.1181505
0
ARC
8
DEFAULT_255_2_778
10
20.0366479
20
74.3492609
40
0.866348
50
42.2037872
51
87.9292218
0
ARC
8
DEFAULT_255_2_778
10
20.0318949
20
74.3079775
40
0.9077821
50
87.7235759
51
90.0025578
0
ARC
8
DEFAULT_255_2_778
10
12.7284028
20
74.3620796
40
0.3777595
50
0.3761505
51
91.175317
0
ARC
8
DEFAULT_255_2_778
10
12.7825419
20
74.3488312
40
0.8684198
50
359.7643557
51
42.1181505
0
ARC
8
DEFAULT_255_2_778
10
12.7849479
20
74.3492609
40
0.866348
50
42.2037872
51
87.9292218
0
ARC
8
DEFAULT_255_2_778
10
12.7801949
20
74.3079775
40
0.9077821
50
87.7235759
51
90.0025578
0
ARC
8
DEFAULT_255_2_778
10
17.3606743
20
73.9570535
40
1.2841942
50
233.3100129
51
270.0348017
0
ARC
8
DEFAULT_255_2_778
10
17.3727456
20
73.9774299
40
1.3077482
50
187.7860459
51
233.4193197
0
ARC
8
DEFAULT_255_2_778
10
17.3909911
20
73.9789862
40
1.3260368
50
179.9838663
51
187.7458681
0
ARC
8
DEFAULT_255_2_778
10
17.3494846
20
73.9796052
40
1.2845303
50
143.7084173
51
180.0109545
0
ARC
8
DEFAULT_255_2_778
10
17.3645561
20
73.9745576
40
1.2996747
50
94.9692901
51
143.9223324
0
ARC
8
DEFAULT_255_2_778
10
17.3613355
20
73.9752024
40
1.2987573
50
89.9947559
51
94.8302073
0
ARC
8
DEFAULT_255_2_778
10
17.3636379
20
73.9691107
40
1.3048507
50
58.145411
51
90.0958788
0
ARC
8
DEFAULT_255_2_778
10
17.3721873
20
73.9754171
40
1.294988
50
3.2655211
51
58.3194462
0
ARC
8
DEFAULT_255_2_778
10
17.3727016
20
73.9794162
40
1.2942527
50
359.997494
51
3.0900664
0
ARC
8
DEFAULT_255_2_778
10
17.1842403
20
73.977316
40
1.4827154
50
0.006083
51
0.0789681
0
ARC
8
DEFAULT_255_2_778
10
17.3622257
20
73.9773976
40
1.30473
50
315.0276525
51
0.0033284
0
ARC
8
DEFAULT_255_2_778
10
17.36257
20
73.9772198
40
1.3043608
50
270.000667
51
315.0224921
0
LINE
8
DEFAULT_255_2_778
10
17.3625852
20
72.6728591
11
17.3614543
21
72.6728596
0
ARC
8
DEFAULT_255_2_778
10
17.3657135
20
73.9753789
40
0.7580313
50
269.6780691
51
315.5292436
0
ARC
8
DEFAULT_255_2_778
10
17.362643
20
73.9746555
40
0.7597205
50
315.7303962
51
0.2857903
0
ARC
8
DEFAULT_255_2_778
10
17.6503699
20
73.9789059
40
0.4719845
50
359.944048
51
0.0186519
0
ARC
8
DEFAULT_255_2_778
10
17.3704095
20
73.9779282
40
0.7519457
50
0.086204
51
85.4319233
0
ARC
8
DEFAULT_255_2_778
10
17.3615932
20
73.9355015
40
0.7949581
50
85.0420495
51
90.0100075
0
ARC
8
DEFAULT_255_2_778
10
17.3595718
20
73.9922196
40
0.7382424
50
89.8538973
51
89.9999976
0
ARC
8
DEFAULT_255_2_778
10
17.3597093
20
73.9792721
40
0.7511899
50
90.01048
51
134.9443097
0
ARC
8
DEFAULT_255_2_778
10
17.359927
20
73.9790899
40
0.7514726
50
134.9462486
51
180.0023145
0
ARC
8
DEFAULT_255_2_778
10
17.3724947
20
73.9751552
40
0.7640503
50
179.7072119
51
222.5790813
0
ARC
8
DEFAULT_255_2_778
10
17.3595619
20
73.9641152
40
0.7470579
50
222.6267201
51
270.1451401
0
ARC
8
DEFAULT_255_2_778
10
9.3660743
20
73.9570535
40
1.2841942
50
233.3100129
51
270.0348017
0
ARC
8
DEFAULT_255_2_778
10
9.3781456
20
73.9774299
40
1.3077482
50
187.7860459
51
233.4193197
0
ARC
8
DEFAULT_255_2_778
10
9.3963911
20
73.9789862
40
1.3260368
50
179.9838663
51
187.7458681
0
ARC
8
DEFAULT_255_2_778
10
9.3551452
20
73.9794638
40
1.2847909
50
143.1940819
51
180.0046489
0
ARC
8
DEFAULT_255_2_778
10
9.36994
20
73.9747683
40
1.2994598
50
94.9233187
51
143.4191345
0
ARC
8
DEFAULT_255_2_778
10
9.3667331
20
73.9754797
40
1.2984798
50
89.9946509
51
94.7850278
0
ARC
8
DEFAULT_255_2_778
10
9.3690225
20
73.9693118
40
1.3046496
50
58.1428905
51
90.0952196
0
ARC
8
DEFAULT_255_2_778
10
9.37745
20
73.975413
40
1.2950254
50
3.2656058
51
58.3171105
0
ARC
8
DEFAULT_255_2_778
10
9.3780016
20
73.9794162
40
1.2942527
50
359.997494
51
3.0900664
0
ARC
8
DEFAULT_255_2_778
10
9.3953041
20
73.9772125
40
1.276952
50
359.9949307
51
0.0963391
0
ARC
8
DEFAULT_255_2_778
10
9.3679416
20
73.9772263
40
1.3043147
50
315.0200668
51
359.994431
0
ARC
8
DEFAULT_255_2_778
10
9.3679661
20
73.9769877
40
1.3041287
50
270.0008363
51
315.026719
0
LINE
8
DEFAULT_255_2_778
10
9.3679852
20
72.6728591
11
9.3668543
21
72.6728596
0
ARC
8
DEFAULT_255_2_778
10
9.3710735
20
73.9753812
40
0.7580334
50
269.6810953
51
315.6152252
0
ARC
8
DEFAULT_255_2_778
10
9.3680162
20
73.9747058
40
0.7597504
50
315.8129036
51
0.3254485
0
ARC
8
DEFAULT_255_2_778
10
9.3754499
20
73.9776242
40
0.7523058
50
0.1093155
51
85.7820321
0
ARC
8
DEFAULT_255_2_778
10
9.3669704
20
73.936094
40
0.7943655
50
85.3923987
51
90.0083732
0
ARC
8
DEFAULT_255_2_778
10
9.3649708
20
73.9913025
40
0.7391595
50
89.8539942
51
89.9999859
0
ARC
8
DEFAULT_255_2_778
10
9.3650373
20
73.979446
40
0.7510159
50
90.0050654
51
134.9497993
0
ARC
8
DEFAULT_255_2_778
10
9.3649069
20
73.979264
40
0.7510526
50
134.9329452
51
180.0155944
0
ARC
8
DEFAULT_255_2_778
10
9.3779268
20
73.9751289
40
0.7640826
50
179.7052536
51
222.5741919
0
ARC
8
DEFAULT_255_2_778
10
9.3649128
20
73.964084
40
0.7470269
50
222.6256588
51
270.1489141
0
LINE
8
DEFAULT_255_2_778
10
13.8784543
20
75.1951596
11
13.8784543
21
72.7323596
0
LINE
8
DEFAULT_255_2_778
10
13.8784543
20
72.7323596
11
14.4219543
21
72.7323596
0
LINE
8
DEFAULT_255_2_778
10
14.4219543
20
72.7323596
11
14.4219543
21
74.7397596
0
LINE
8
DEFAULT_255_2_778
10
14.4219543
20
74.7397596
11
15.0648543
21
74.7397596
0
LINE
8
DEFAULT_255_2_778
10
15.0648543
20
73.9790596
11
14.6002543
21
73.9790596
0
LINE
8
DEFAULT_255_2_778
10
14.6002543
20
73.9790596
11
15.4413543
21
72.7320596
0
LINE
8
DEFAULT_255_2_778
10
15.4413543
20
72.7320596
11
16.1142543
21
72.7320596
0
LINE
8
DEFAULT_255_2_778
10
16.1142543
20
72.7320596
11
15.5009543
21
73.6324596
0
LINE
8
DEFAULT_255_2_778
10
15.1437543
20
75.2157596
11
14.4216543
21
75.2157596
0
LINE
8
DEFAULT_255_2_778
10
14.4216543
20
75.2157596
11
13.8782543
21
75.1951596
0
LINE
8
DEFAULT_255_2_778
10
13.8782543
20
75.1951596
11
13.8784543
21
75.1951596
0
LINE
8
DEFAULT_255_2_778
10
18.8158543
20
75.1951596
11
18.8158543
21
72.7323596
0
LINE
8
DEFAULT_255_2_778
10
18.8158543
20
72.7323596
11
19.3593543
21
72.7323596
0
LINE
8
DEFAULT_255_2_778
10
19.3593543
20
72.7323596
11
19.3593543
21
74.7397596
0
LINE
8
DEFAULT_255_2_778
10
19.3593543
20
74.7397596
11
19.9739543
21
74.7397596
0
LINE
8
DEFAULT_255_2_778
10
20.3594543
20
74.3645596
11
20.3594543
21
72.7323596
0
LINE
8
DEFAULT_255_2_778
10
20.3594543
20
72.7323596
11
20.9026543
21
72.7323596
0
LINE
8
DEFAULT_255_2_778
10
20.9026543
20
72.7323596
11
20.9026543
21
74.3452596
0
LINE
8
DEFAULT_255_2_778
10
20.0318543
20
75.2157596
11
19.3590543
21
75.2157596
0
LINE
8
DEFAULT_255_2_778
10
19.3590543
20
75.2157596
11
18.8156543
21
75.1951596
0
LINE
8
DEFAULT_255_2_778
10
18.8156543
20
75.1951596
11
18.8158543
21
75.1951596
0
LINE
8
DEFAULT_255_2_778
10
10.8212543
20
75.1951596
11
10.8212543
21
72.7323596
0
LINE
8
DEFAULT_255_2_778
10
10.8212543
20
72.7323596
11
11.3646543
21
72.7323596
0
LINE
8
DEFAULT_255_2_778
10
11.3646543
20
72.7323596
11
11.3646543
21
74.7397596
0
LINE
8
DEFAULT_255_2_778
10
11.3646543
20
74.7397596
11
11.9689543
21
74.7397596
0
LINE
8
DEFAULT_255_2_778
10
11.9689543
20
74.7397596
11
11.9689543
21
72.7323596
0
LINE
8
DEFAULT_255_2_778
10
11.9689543
20
72.7323596
11
12.5124543
21
72.7323596
0
LINE
8
DEFAULT_255_2_778
10
12.5124543
20
72.7323596
11
12.5124543
21
74.7397596
0
LINE
8
DEFAULT_255_2_778
10
12.5124543
20
74.7397596
11
12.7206543
21
74.7397596
0
LINE
8
DEFAULT_255_2_778
10
13.1061543
20
74.3645596
11
13.1061543
21
72.7323596
0
LINE
8
DEFAULT_255_2_778
10
13.1061543
20
72.7323596
11
13.6509543
21
72.7323596
0
LINE
8
DEFAULT_255_2_778
10
13.6509543
20
72.7323596
11
13.6509543
21
74.3452596
0
LINE
8
DEFAULT_255_2_778
10
12.7801543
20
75.2157596
11
11.3749543
21
75.2157596
0
LINE
8
DEFAULT_255_2_778
10
11.3749543
20
75.2157596
11
10.8212543
21
75.1951596
0
LINE
8
DEFAULT_255_2_778
10
10.8212543
20
75.1951596
11
10.8212543
21
75.1951596
0
LINE
8
DEFAULT_255_2_778
10
17.3614543
20
72.6728596
11
17.3614543
21
72.6728596
0
LINE
8
DEFAULT_255_2_778
10
9.3668543
20
72.6728596
11
9.3668543
21
72.6728596
0
LINE
8
DEFAULT_255_1_388
10
11.189832
20
70.5537468
11
11.3642199
21
70.5537468
0
LINE
8
DEFAULT_255_1_388
10
10.3513242
20
70.7326525
11
10.3513242
21
70.8591516
0
LINE
8
DEFAULT_255_1_388
10
11.3642199
20
71.0290217
11
11.189832
21
71.0290217
0
LINE
8
DEFAULT_255_1_388
10
10.5257121
20
70.8546337
11
10.5257121
21
70.7272312
0
ARC
8
DEFAULT_255_1_388
10
10.7476433
20
70.6209329
40
0.6202263
50
340.1774904
51
353.7812217
0
ARC
8
DEFAULT_255_1_388
10
10.9244286
20
70.5550893
40
0.4315926
50
311.4560052
51
340.4420756
0
ARC
8
DEFAULT_255_1_388
10
10.9206826
20
70.5675665
40
0.4434573
50
282.4332229
51
310.7514507
0
ARC
8
DEFAULT_255_1_388
10
10.8712644
20
70.7717703
40
0.6535262
50
269.9358869
51
282.8096729
0
ARC
8
DEFAULT_255_1_388
10
10.8654583
20
70.9230329
40
0.8048043
50
269.9995752
51
270.3612856
0
ARC
8
DEFAULT_255_1_388
10
10.8595073
20
70.6431781
40
0.5249831
50
250.7885263
51
270.6488451
0
ARC
8
DEFAULT_255_1_388
10
10.8405898
20
70.5714853
40
0.4510942
50
219.3628377
51
250.0611024
0
ARC
8
DEFAULT_255_1_388
10
10.9338772
20
70.6507653
40
0.5735046
50
193.5480293
51
219.5755675
0
ARC
8
DEFAULT_255_1_388
10
11.2006981
20
70.720052
40
0.849146
50
181.1220183
51
193.8754971
0
ARC
8
DEFAULT_255_1_388
10
11.4330214
20
70.7324914
40
1.0816971
50
179.9914644
51
181.5398227
0
ARC
8
DEFAULT_255_1_388
10
11.2253525
20
70.8633586
40
0.8740384
50
169.5837606
51
180.275782
0
ARC
8
DEFAULT_255_1_388
10
11.0186873
20
70.9015439
40
0.6638751
50
155.0367033
51
169.6002779
0
ARC
8
DEFAULT_255_1_388
10
10.8909331
20
70.9631336
40
0.5220662
50
136.7831557
51
155.2472983
0
ARC
8
DEFAULT_255_1_388
10
10.8471122
20
71.0003577
40
0.4646502
50
121.7633063
51
136.4281161
0
ARC
8
DEFAULT_255_1_388
10
10.8622962
20
70.9723049
40
0.4964979
50
95.6460018
51
121.5489589
0
ARC
8
DEFAULT_255_1_388
10
10.8799936
20
70.8475704
40
0.6223912
50
89.9245727
51
96.1375919
0
ARC
8
DEFAULT_255_1_388
10
10.8856641
20
70.8609721
40
0.6090084
50
76.6779212
51
90.456405
0
ARC
8
DEFAULT_255_1_388
10
10.9299454
20
71.039906
40
0.42469
50
47.4858803
51
76.9287069
0
ARC
8
DEFAULT_255_1_388
10
10.9134068
20
71.0286623
40
0.4441778
50
16.5424081
51
46.8934505
0
ARC
8
DEFAULT_255_1_388
10
10.7325118
20
70.9692265
40
0.6345318
50
5.4072971
51
17.0363711
0
ARC
8
DEFAULT_255_1_388
10
10.5706843
20
70.9432304
40
0.6250632
50
7.8888693
51
15.9242022
0
ARC
8
DEFAULT_255_1_388
10
10.7941828
20
71.0081309
40
0.3923364
50
15.7650676
51
27.9410069
0
ARC
8
DEFAULT_255_1_388
10
10.9183997
20
71.0746317
40
0.2514401
50
27.8167196
51
46.4007942
0
ARC
8
DEFAULT_255_1_388
10
10.9239839
20
71.0739882
40
0.2480958
50
47.4372362
51
75.0695672
0
ARC
8
DEFAULT_255_1_388
10
10.8892675
20
70.9531277
40
0.3738281
50
74.7009379
51
87.8124314
0
ARC
8
DEFAULT_255_1_388
10
10.8810292
20
70.8347659
40
0.4924321
50
87.3802571
51
90.0251599
0
ARC
8
DEFAULT_255_1_388
10
10.8766939
20
70.9667997
40
0.3604218
50
89.3451886
51
108.5744412
0
ARC
8
DEFAULT_255_1_388
10
10.8612931
20
71.0245836
40
0.3007661
50
109.2998307
51
143.3037387
0
ARC
8
DEFAULT_255_1_388
10
10.9470221
20
70.9586584
40
0.4089031
50
143.075267
51
163.1918576
0
ARC
8
DEFAULT_255_1_388
10
11.1666055
20
70.8893652
40
0.6391492
50
162.9375929
51
174.6208776
0
ARC
8
DEFAULT_255_1_388
10
11.4620437
20
70.8569711
40
0.9363344
50
174.342123
51
180.1430283
0
ARC
8
DEFAULT_255_1_388
10
11.3572978
20
70.7226117
40
0.8315986
50
179.6817261
51
189.150555
0
ARC
8
DEFAULT_255_1_388
10
11.0759727
20
70.6757559
40
0.5464044
50
188.9911061
51
203.5772363
0
ARC
8
DEFAULT_255_1_388
10
10.9545019
20
70.6253539
40
0.4149206
50
203.9075402
51
215.1312435
0
ARC
8
DEFAULT_255_1_388
10
10.8506817
20
70.5448907
40
0.2837747
50
213.9071511
51
263.8848919
0
ARC
8
DEFAULT_255_1_388
10
10.864781
20
70.6331519
40
0.3730641
50
263.1757928
51
270.1031044
0
ARC
8
DEFAULT_255_1_388
10
10.868389
20
70.7734511
40
0.5133712
50
269.6722503
51
279.0606936
0
ARC
8
DEFAULT_255_1_388
10
10.8984045
20
70.592015
40
0.3294739
50
278.8749101
51
293.6349581
0
ARC
8
DEFAULT_255_1_388
10
10.9344249
20
70.5074251
40
0.2375405
50
293.8553806
51
310.0518171
0
ARC
8
DEFAULT_255_1_388
10
10.9349758
20
70.5004021
40
0.2318463
50
311.0644687
51
332.0111037
0
ARC
8
DEFAULT_255_1_388
10
10.8008431
20
70.5743702
40
0.3850112
50
331.6586806
51
343.2877423
0
ARC
8
DEFAULT_255_1_388
10
10.5687896
20
70.6456806
40
0.6277712
50
343.1446576
51
351.0103568
0
ARC
8
DEFAULT_255_1_388
10
10.405522
20
70.6756873
40
0.7937327
50
350.71248
51
351.1626997
0
LINE
8
DEFAULT_255_1_388
10
12.1521281
20
70.5176042
11
12.1521281
21
71.4518898
0
LINE
8
DEFAULT_255_1_388
10
12.1521281
20
71.4518898
11
12.3265161
21
71.4518898
0
LINE
8
DEFAULT_255_1_388
10
12.3265161
20
71.4518898
11
12.3265161
21
70.5203149
0
LINE
8
DEFAULT_255_1_388
10
11.4961403
20
70.4995329
11
11.6696247
21
70.4995329
0
ARC
8
DEFAULT_255_1_388
10
11.8212883
20
70.5159958
40
0.5052462
50
346.3132364
51
0.4897996
0
ARC
8
DEFAULT_255_1_388
10
11.9752416
20
70.4765792
40
0.3463431
50
313.3793278
51
346.6225662
0
ARC
8
DEFAULT_255_1_388
10
11.95265
20
70.5050186
40
0.3825426
50
281.1587645
51
312.9130978
0
ARC
8
DEFAULT_255_1_388
10
11.9143405
20
70.6731607
40
0.5549427
50
269.6423454
51
281.6796473
0
ARC
8
DEFAULT_255_1_388
10
11.9066184
20
70.7349499
40
0.6167359
50
258.9989698
51
270.3955842
0
ARC
8
DEFAULT_255_1_388
10
11.8644642
20
70.5269792
40
0.4045461
50
239.625581
51
259.2387746
0
ARC
8
DEFAULT_255_1_388
10
11.8319635
20
70.4656638
40
0.3352261
50
227.4961805
51
239.1189042
0
ARC
8
DEFAULT_255_1_388
10
11.8277519
20
70.4588009
40
0.3273245
50
191.3396895
51
227.2280349
0
ARC
8
DEFAULT_255_1_388
10
11.9857841
20
70.4961896
40
0.4896551
50
179.6087821
51
191.9932937
0
ARC
8
DEFAULT_255_1_388
10
12.0008585
20
70.4970216
40
0.3312434
50
179.565607
51
192.0702314
0
ARC
8
DEFAULT_255_1_388
10
11.8915538
20
70.472456
40
0.2192212
50
191.7655537
51
215.6462731
0
ARC
8
DEFAULT_255_1_388
10
11.8714779
20
70.4603629
40
0.1958682
50
216.1940686
51
224.3931249
0
ARC
8
DEFAULT_255_1_388
10
11.8722475
20
70.4633862
40
0.1985399
50
224.861176
51
254.3628599
0
ARC
8
DEFAULT_255_1_388
10
11.9027018
20
70.5640135
40
0.3036595
50
253.9470645
51
267.395327
0
ARC
8
DEFAULT_255_1_388
10
11.9106318
20
70.6679346
40
0.4078462
50
266.9458957
51
270.0343693
0
ARC
8
DEFAULT_255_1_388
10
11.9134898
20
70.5372844
40
0.2772084
50
269.4598277
51
286.1819188
0
ARC
8
DEFAULT_255_1_388
10
11.9293871
20
70.4789765
40
0.2167824
50
286.4415261
51
315.8045035
0
ARC
8
DEFAULT_255_1_388
10
11.9232904
20
70.4837201
40
0.2244619
50
316.0212602
51
345.479585
0
ARC
8
DEFAULT_255_1_388
10
11.8141062
20
70.5144753
40
0.3378781
50
345.0729937
51
358.3249855
0
ARC
8
DEFAULT_255_1_388
10
11.7165508
20
70.5207509
40
0.4355887
50
357.8749464
51
359.5860856
0
LINE
8
DEFAULT_255_1_388
10
12.9436506
20
70.7633737
11
12.9436506
21
70.6269355
0
LINE
8
DEFAULT_255_1_388
10
12.9436506
20
70.6269355
11
12.5027111
21
70.6269355
0
LINE
8
DEFAULT_255_1_388
10
12.5027111
20
70.6269355
11
12.5027111
21
70.7633737
0
LINE
8
DEFAULT_255_1_388
10
12.5027111
20
70.7633737
11
12.9436506
21
70.7633737
0
LINE
8
DEFAULT_255_1_388
10
14.0053388
20
71.0714892
11
13.8309509
21
71.0714892
0
LINE
8
DEFAULT_255_1_388
10
13.0520783
20
70.5176042
11
13.2264663
21
70.5176042
0
ARC
8
DEFAULT_255_1_388
10
13.9050236
20
72.0778821
40
1.4087688
50
248.9196578
51
254.1442424
0
ARC
8
DEFAULT_255_1_388
10
13.7160116
20
71.5912805
40
0.8867498
50
241.6337352
51
249.0064643
0
ARC
8
DEFAULT_255_1_388
10
13.5440429
20
71.2761764
40
0.5277799
50
230.4982261
51
241.8087583
0
ARC
8
DEFAULT_255_1_388
10
13.45582
20
71.1637686
40
0.3849419
50
227.4062979
51
229.9877433
0
ARC
8
DEFAULT_255_1_388
10
13.4009547
20
71.1102155
40
0.3084129
50
200.6782127
51
228.1765252
0
ARC
8
DEFAULT_255_1_388
10
13.4090916
20
71.1085277
40
0.315461
50
179.506278
51
199.8695278
0
ARC
8
DEFAULT_255_1_388
10
13.4080505
20
71.1168671
40
0.3144584
50
132.4834401
51
181.0242352
0
ARC
8
DEFAULT_255_1_388
10
13.4749709
20
71.0536788
40
0.4063094
50
129.2526113
51
133.4249077
0
ARC
8
DEFAULT_255_1_388
10
13.4915301
20
71.0288619
40
0.436014
50
101.9878945
51
128.8741833
0
ARC
8
DEFAULT_255_1_388
10
13.5363717
20
70.835236
40
0.6347415
50
89.5906376
51
102.3170567
0
ARC
8
DEFAULT_255_1_388
10
13.5443028
20
70.8710586
40
0.5989122
50
77.2359491
51
90.3248968
0
ARC
8
DEFAULT_255_1_388
10
13.5675959
20
70.9798554
40
0.4876594
50
63.8379856
51
77.0808925
0
ARC
8
DEFAULT_255_1_388
10
13.5988493
20
71.0380882
40
0.4216191
50
45.9863127
51
64.1608798
0
ARC
8
DEFAULT_255_1_388
10
13.6281886
20
71.071599
40
0.3771394
50
32.2747934
51
45.6544796
0
ARC
8
DEFAULT_255_1_388
10
13.6356693
20
71.0737426
40
0.3696765
50
359.6507495
51
32.6129943
0
ARC
8
DEFAULT_255_1_388
10
13.5295876
20
71.0742788
40
0.3013762
50
359.469654
51
14.983205
0
ARC
8
DEFAULT_255_1_388
10
13.6089128
20
71.0955288
40
0.2192542
50
14.9781954
51
48.2004799
0
ARC
8
DEFAULT_255_1_388
10
13.5904239
20
71.0722937
40
0.2489048
50
48.5926661
51
74.1242559
0
ARC
8
DEFAULT_255_1_388
10
13.5529041
20
70.9484607
40
0.3782845
50
73.7889321
51
86.6653996
0
ARC
8
DEFAULT_255_1_388
10
13.5413856
20
70.8126955
40
0.5145025
50
86.2642725
51
90.0533288
0
ARC
8
DEFAULT_255_1_388
10
13.5381948
20
70.8571376
40
0.4700681
50
89.669455
51
99.2313411
0
ARC
8
DEFAULT_255_1_388
10
13.5109108
20
71.0196401
40
0.3052945
50
99.0695987
51
113.7659242
0
ARC
8
DEFAULT_255_1_388
10
13.4801103
20
71.0922772
40
0.226407
50
114.0402885
51
127.9848946
0
ARC
8
DEFAULT_255_1_388
10
13.4530579
20
71.1255884
40
0.1835045
50
127.7287217
51
176.7106493
0
ARC
8
DEFAULT_255_1_388
10
13.5294244
20
71.114221
40
0.2604907
50
175.1780759
51
180.0581213
0
ARC
8
DEFAULT_255_1_388
10
13.4345587
20
71.1128411
40
0.1656287
50
179.6140658
51
228.124674
0
ARC
8
DEFAULT_255_1_388
10
13.4842945
20
71.158894
40
0.2332038
50
226.5785315
51
230.8792476
0
ARC
8
DEFAULT_255_1_388
10
13.5372431
20
71.2291908
40
0.3211664
50
231.4636401
51
241.9261664
0
ARC
8
DEFAULT_255_1_388
10
13.6719215
20
71.4770349
40
0.6032345
50
241.7177136
51
248.3259138
0
ARC
8
DEFAULT_255_1_388
10
13.827781
20
71.8631771
40
1.0196417
50
248.2007377
51
252.4527713
0
ARC
8
DEFAULT_255_1_388
10
13.9631336
20
72.2816092
40
1.4594143
50
252.3388938
51
254.347037
0
ARC
8
DEFAULT_255_1_388
10
13.1146637
20
69.2468095
40
1.6917621
50
71.0197462
51
74.4085467
0
ARC
8
DEFAULT_255_1_388
10
13.3053725
20
69.7973144
40
1.1091618
50
66.1845203
51
71.086519
0
ARC
8
DEFAULT_255_1_388
10
13.4804274
20
70.1914439
40
0.6779073
50
59.3537334
51
66.269255
0
ARC
8
DEFAULT_255_1_388
10
13.5804
20
70.3605777
40
0.4814366
50
49.1021732
51
59.3294421
0
ARC
8
DEFAULT_255_1_388
10
13.6724988
20
70.4655575
40
0.3417875
50
32.7924183
51
49.2503526
0
ARC
8
DEFAULT_255_1_388
10
13.7074602
20
70.4905311
40
0.2988789
50
31.121225
51
32.3977355
0
ARC
8
DEFAULT_255_1_388
10
13.698678
20
70.4872728
40
0.3080861
50
8.1116803
51
30.7958224
0
ARC
8
DEFAULT_255_1_388
10
13.6075126
20
70.4717437
40
0.4005385
50
359.8390945
51
8.4707348
0
ARC
8
DEFAULT_255_1_388
10
13.6779173
20
70.4662751
40
0.3301608
50
337.4732479
51
0.7538283
0
ARC
8
DEFAULT_255_1_388
10
13.6980198
20
70.4640554
40
0.3107929
50
307.5917028
51
336.4313755
0
ARC
8
DEFAULT_255_1_388
10
13.6469256
20
70.5208509
40
0.3870096
50
307.6560665
51
308.4561779
0
ARC
8
DEFAULT_255_1_388
10
13.6203473
20
70.5616832
40
0.435591
50
284.3733666
51
307.1426212
0
ARC
8
DEFAULT_255_1_388
10
13.5646367
20
70.7666391
40
0.6479685
50
272.4384566
51
284.6464689
0
ARC
8
DEFAULT_255_1_388
10
13.5503752
20
70.9690434
40
0.8508149
50
269.9708517
51
272.8180721
0
ARC
8
DEFAULT_255_1_388
10
13.5455434
20
70.7398283
40
0.6216151
50
248.2707343
51
270.4054609
0
ARC
8
DEFAULT_255_1_388
10
13.5394306
20
70.7183673
40
0.5994203
50
246.1380358
51
248.054058
0
ARC
8
DEFAULT_255_1_388
10
13.4923448
20
70.6194705
40
0.4899388
50
233.1671897
51
246.4951656
0
ARC
8
DEFAULT_255_1_388
10
13.4300084
20
70.5353137
40
0.3852115
50
215.3403381
51
233.084328
0
ARC
8
DEFAULT_255_1_388
10
13.3993448
20
70.5130093
40
0.3472969
50
179.2419235
51
215.2648426
0
ARC
8
DEFAULT_255_1_388
10
13.4856999
20
70.5145979
40
0.259251
50
179.3355796
51
199.1045873
0
ARC
8
DEFAULT_255_1_388
10
13.448314
20
70.5048223
40
0.2207454
50
199.8830064
51
232.7061328
0
ARC
8
DEFAULT_255_1_388
10
13.5014415
20
70.5716456
40
0.306101
50
232.3736206
51
255.5136621
0
ARC
8
DEFAULT_255_1_388
10
13.5397921
20
70.7116177
40
0.4512213
50
255.2447928
51
267.5318292
0
ARC
8
DEFAULT_255_1_388
10
13.5496388
20
70.8502709
40
0.5901825
50
267.1564563
51
270.0294721
0
ARC
8
DEFAULT_255_1_388
10
13.5527713
20
70.8003623
40
0.5402814
50
269.6999944
51
278.1662446
0
ARC
8
DEFAULT_255_1_388
10
13.581574
20
70.6056974
40
0.3435003
50
278.0229022
51
290.6255326
0
ARC
8
DEFAULT_255_1_388
10
13.6206907
20
70.5013547
40
0.2320666
50
290.6616368
51
307.0374127
0
ARC
8
DEFAULT_255_1_388
10
13.6544807
20
70.459904
40
0.1786372
50
306.3942078
51
355.303191
0
ARC
8
DEFAULT_255_1_388
10
13.59691
20
70.4685186
40
0.2367516
50
354.3662092
51
0.0709489
0
ARC
8
DEFAULT_255_1_388
10
13.6128969
20
70.4710561
40
0.2207761
50
359.4175379
51
16.1975911
0
ARC
8
DEFAULT_255_1_388
10
13.6641086
20
70.4850954
40
0.1676828
50
16.4721294
51
52.6261798
0
ARC
8
DEFAULT_255_1_388
10
13.5717594
20
70.3631606
40
0.3206412
50
52.7381828
51
62.4979144
0
ARC
8
DEFAULT_255_1_388
10
13.4159347
20
70.0699236
40
0.6527035
50
62.2517425
51
68.1219454
0
ARC
8
DEFAULT_255_1_388
10
13.2224835
20
69.5944951
40
1.1659797
50
68.006043
51
71.8055127
0
ARC
8
DEFAULT_255_1_388
10
13.0204743
20
68.9886723
40
1.8045908
50
71.718361
51
73.9260743
0
LINE
8
DEFAULT_255_1_388
10
14.1616555
20
70.5980214
11
14.1616555
21
70.6287426
0
LINE
8
DEFAULT_255_1_388
10
14.9911276
20
70.6468139
11
14.9911276
21
70.5772395
0
LINE
8
DEFAULT_255_1_388
10
14.9911276
20
70.5772395
11
14.3288149
21
70.5772395
0
LINE
8
DEFAULT_255_1_388
10
14.876375
20
70.3865874
11
14.9784777
21
70.3070737
0
LINE
8
DEFAULT_255_1_388
10
14.3342363
20
70.7145813
11
14.8239682
21
70.7145813
0
LINE
8
DEFAULT_255_1_388
10
14.8239682
20
70.7145813
11
14.8239682
21
70.7272312
0
ARC
8
DEFAULT_255_1_388
10
14.6048316
20
70.610521
40
0.4923176
50
252.326534
51
270.5809615
0
ARC
8
DEFAULT_255_1_388
10
14.581778
20
70.527194
40
0.4059384
50
223.3000488
51
251.8562489
0
ARC
8
DEFAULT_255_1_388
10
14.605556
20
70.5502898
40
0.4390832
50
190.9374369
51
223.3654369
0
ARC
8
DEFAULT_255_1_388
10
14.7996238
20
70.5941598
40
0.63798
50
179.6531919
51
191.4988561
0
ARC
8
DEFAULT_255_1_388
10
14.8133265
20
70.6323571
40
0.6516811
50
167.4005523
51
180.3177836
0
ARC
8
DEFAULT_255_1_388
10
14.6949936
20
70.6573853
40
0.5307402
50
154.1835149
51
167.2508278
0
ARC
8
DEFAULT_255_1_388
10
14.6239527
20
70.6947925
40
0.4505076
50
134.3150225
51
154.5315008
0
ARC
8
DEFAULT_255_1_388
10
14.5994862
20
70.716255
40
0.4180662
50
122.8617482
51
133.9707159
0
ARC
8
DEFAULT_255_1_388
10
14.587847
20
70.7412882
40
0.3907416
50
89.8248474
51
123.4199325
0
ARC
8
DEFAULT_255_1_388
10
14.5934768
20
70.6685352
40
0.4635141
50
74.7874349
51
90.5482648
0
ARC
8
DEFAULT_255_1_388
10
14.6265231
20
70.7905987
40
0.3370565
50
39.8178888
51
74.7634383
0
ARC
8
DEFAULT_255_1_388
10
14.5688474
20
70.7456356
40
0.4101553
50
16.8990848
51
39.4830125
0
ARC
8
DEFAULT_255_1_388
10
14.3557088
20
70.6773711
40
0.6339427
50
4.9634768
51
17.2027767
0
ARC
8
DEFAULT_255_1_388
10
14.0836493
20
70.64866
40
0.9074803
50
359.8834402
51
5.2832409
0
ARC
8
DEFAULT_255_1_388
10
14.7628851
20
70.5846981
40
0.4341343
50
180.9844233
51
194.9402766
0
ARC
8
DEFAULT_255_1_388
10
14.6448016
20
70.552417
40
0.3117211
50
194.8030557
51
222.0412897
0
ARC
8
DEFAULT_255_1_388
10
14.6105889
20
70.5184715
40
0.2635903
50
221.541578
51
268.8616004
0
ARC
8
DEFAULT_255_1_388
10
14.6188009
20
70.594528
40
0.3398611
50
267.7321071
51
270.009808
0
ARC
8
DEFAULT_255_1_388
10
14.6208073
20
70.6172178
40
0.3625561
50
269.6921218
51
280.4122297
0
ARC
8
DEFAULT_255_1_388
10
14.6406484
20
70.5138767
40
0.2573323
50
280.2257165
51
298.633539
0
ARC
8
DEFAULT_255_1_388
10
14.6531898
20
70.4874578
40
0.2281403
50
299.0485543
51
300.4624141
0
ARC
8
DEFAULT_255_1_388
10
14.5772878
20
70.6139796
40
0.3756797
50
300.6578578
51
322.037749
0
ARC
8
DEFAULT_255_1_388
10
14.54024
20
70.6463266
40
0.4247956
50
321.671786
51
322.3059078
0
ARC
8
DEFAULT_255_1_388
10
14.6425963
20
70.5169267
40
0.3960488
50
276.9729088
51
328.0035579
0
ARC
8
DEFAULT_255_1_388
10
14.6114433
20
70.6834609
40
0.5652345
50
269.8358003
51
278.0581296
0
ARC
8
DEFAULT_255_1_388
10
14.5858732
20
70.767282
40
0.2274263
50
89.2017936
51
117.2852353
0
ARC
8
DEFAULT_255_1_388
10
14.5918483
20
70.7625637
40
0.2343798
50
118.0546404
51
137.4544511
0
ARC
8
DEFAULT_255_1_388
10
14.6340126
20
70.7242556
40
0.2913471
50
137.5109688
51
158.8516701
0
ARC
8
DEFAULT_255_1_388
10
14.7620227
20
70.6725902
40
0.4293804
50
158.5845496
51
170.1719753
0
ARC
8
DEFAULT_255_1_388
10
14.8936563
20
70.6464519
40
0.5635533
50
169.8378964
51
173.0563877
0
ARC
8
DEFAULT_255_1_388
10
14.3651846
20
70.7039187
40
0.4593755
50
2.9089079
51
12.88469
0
ARC
8
DEFAULT_255_1_388
10
14.5193766
20
70.7402082
40
0.3009753
50
12.6957404
51
28.6405841
0
ARC
8
DEFAULT_255_1_388
10
14.5803263
20
70.7717577
40
0.232366
50
29.016559
51
41.1492981
0
ARC
8
DEFAULT_255_1_388
10
14.6031242
20
70.791608
40
0.2021373
50
41.1646967
51
85.001362
0
ARC
8
DEFAULT_255_1_388
10
14.5895246
20
70.7089775
40
0.2857091
50
83.728216
51
90.0968824
0
LINE
8
DEFAULT_255_1_388
10
15.6570546
20
71.1193781
11
15.6570546
21
70.963965
0
LINE
8
DEFAULT_255_1_388
10
15.3516499
20
70.8302375
11
15.3516499
21
70.1363
0
LINE
8
DEFAULT_255_1_388
10
15.3516499
20
70.1363
11
15.1844904
21
70.1363
0
LINE
8
DEFAULT_255_1_388
10
15.1844904
20
70.1363
11
15.1844904
21
71.1139567
0
LINE
8
DEFAULT_255_1_388
10
15.1844904
20
71.1139567
11
15.347132
21
71.1139567
0
LINE
8
DEFAULT_255_1_388
10
15.347132
20
71.1139567
11
15.3498427
21
71.0010112
0
ARC
8
DEFAULT_255_1_388
10
15.5820706
20
70.5073068
40
0.4627735
50
80.6751522
51
86.893806
0
ARC
8
DEFAULT_255_1_388
10
15.5752536
20
70.3981103
40
0.5721798
50
86.8046851
51
90.0423898
0
ARC
8
DEFAULT_255_1_388
10
15.5710956
20
70.6748197
40
0.2954939
50
89.2758283
51
106.6212906
0
ARC
8
DEFAULT_255_1_388
10
15.548098
20
70.7584009
40
0.2088351
50
107.1347109
51
157.6456887
0
ARC
8
DEFAULT_255_1_388
10
15.6249043
20
70.7156908
40
0.296292
50
155.6557383
51
157.256838
0
ARC
8
DEFAULT_255_1_388
10
15.6028657
20
70.8467472
40
0.296341
50
127.8167201
51
148.6300223
0
ARC
8
DEFAULT_255_1_388
10
15.5743404
20
70.8760066
40
0.2557782
50
91.3329934
51
126.7875218
0
ARC
8
DEFAULT_255_1_388
10
15.5828791
20
70.7956718
40
0.3363561
50
89.9858247
51
92.4688453
0
ARC
8
DEFAULT_255_1_388
10
15.5838284
20
70.8265114
40
0.3055179
50
85.3587643
51
90.1624243
0
ARC
8
DEFAULT_255_1_388
10
15.593335
20
70.9394458
40
0.1921848
50
78.4019195
51
85.4592653
0
ARC
8
DEFAULT_255_1_388
10
15.609641
20
71.0172142
40
0.1127267
50
67.7849217
51
78.573798
0
ARC
8
DEFAULT_255_1_388
10
15.6218045
20
71.0487374
40
0.0789473
50
63.4805074
51
67.3074739
0
LINE
8
DEFAULT_255_1_388
10
15.9922771
20
71.1139567
11
15.9922771
21
70.1363
0
LINE
8
DEFAULT_255_1_388
10
15.9922771
20
70.1363
11
15.8251176
21
70.1363
0
LINE
8
DEFAULT_255_1_388
10
15.8251176
20
70.1363
11
15.8251176
21
71.1139567
0
LINE
8
DEFAULT_255_1_388
10
15.8251176
20
71.1139567
11
15.9922771
21
71.1139567
0
ARC
8
DEFAULT_255_1_388
10
15.9216539
20
71.3743428
40
0.1100948
50
161.4148232
51
180.5532607
0
ARC
8
DEFAULT_255_1_388
10
15.9076848
20
71.3781875
40
0.0956324
50
138.1830164
51
160.9307633
0
ARC
8
DEFAULT_255_1_388
10
15.8953036
20
71.3889313
40
0.0792417
50
104.6371663
51
138.0036136
0
ARC
8
DEFAULT_255_1_388
10
15.9073574
20
71.3476963
40
0.1221906
50
92.0601206
51
105.2198859
0
ARC
8
DEFAULT_255_1_388
10
15.9099938
20
71.3088583
40
0.161103
50
89.9790681
51
92.5006086
0
ARC
8
DEFAULT_255_1_388
10
15.9111114
20
71.3344998
40
0.1354654
50
78.0234649
51
90.4478111
0
ARC
8
DEFAULT_255_1_388
10
15.9214699
20
71.3810203
40
0.0878096
50
55.0521508
51
78.336297
0
ARC
8
DEFAULT_255_1_388
10
15.9271233
20
71.3905168
40
0.0767913
50
42.0506198
51
54.4508489
0
ARC
8
DEFAULT_255_1_388
10
15.9119266
20
71.3765821
40
0.0974091
50
1.7493657
51
42.1498724
0
ARC
8
DEFAULT_255_1_388
10
15.8833172
20
71.3733166
40
0.1261276
50
359.9832635
51
2.8353994
0
ARC
8
DEFAULT_255_1_388
10
15.9019582
20
71.3722412
40
0.1074916
50
342.1062453
51
0.5535864
0
ARC
8
DEFAULT_255_1_388
10
15.9180006
20
71.3678197
40
0.0908695
50
316.7110111
51
341.6513114
0
ARC
8
DEFAULT_255_1_388
10
15.9255438
20
71.3610607
40
0.0807447
50
285.4398289
51
316.5320129
0
ARC
8
DEFAULT_255_1_388
10
15.9131608
20
71.4022023
40
0.1237022
50
272.3543902
51
285.8951677
0
ARC
8
DEFAULT_255_1_388
10
15.9101318
20
71.4437742
40
0.1653687
50
269.9725761
51
272.8112722
0
ARC
8
DEFAULT_255_1_388
10
15.909037
20
71.4186727
40
0.1402709
50
258.8433431
51
270.4148607
0
ARC
8
DEFAULT_255_1_388
10
15.898915
20
71.3696739
40
0.0902407
50
238.54281
51
259.1289544
0
ARC
8
DEFAULT_255_1_388
10
15.8912472
20
71.3557694
40
0.0743817
50
222.5056676
51
237.9918132
0
ARC
8
DEFAULT_255_1_388
10
15.9056065
20
71.3688295
40
0.0937918
50
184.1070774
51
222.4604165
0
ARC
8
DEFAULT_255_1_388
10
15.9358479
20
71.3731538
40
0.1242838
50
179.9419581
51
185.0970785
0
LINE
8
DEFAULT_255_1_388
10
16.2172646
20
70.5980214
11
16.2172646
21
70.6287426
0
LINE
8
DEFAULT_255_1_388
10
17.0467368
20
70.6468139
11
17.0467368
21
70.5772395
0
LINE
8
DEFAULT_255_1_388
10
17.0467368
20
70.5772395
11
16.384424
21
70.5772395
0
LINE
8
DEFAULT_255_1_388
10
16.9319841
20
70.3865874
11
17.0340869
21
70.3070737
0
LINE
8
DEFAULT_255_1_388
10
16.3898454
20
70.7145813
11
16.8795773
21
70.7145813
0
LINE
8
DEFAULT_255_1_388
10
16.8795773
20
70.7145813
11
16.8795773
21
70.7272312
0
ARC
8
DEFAULT_255_1_388
10
16.6604407
20
70.610521
40
0.4923176
50
252.326534
51
270.5809615
0
ARC
8
DEFAULT_255_1_388
10
16.6373871
20
70.527194
40
0.4059384
50
223.3000488
51
251.8562489
0
ARC
8
DEFAULT_255_1_388
10
16.6611651
20
70.5502898
40
0.4390832
50
190.9374369
51
223.3654369
0
ARC
8
DEFAULT_255_1_388
10
16.8552329
20
70.5941598
40
0.63798
50
179.6531919
51
191.4988561
0
ARC
8
DEFAULT_255_1_388
10
16.8689356
20
70.6323571
40
0.6516811
50
167.4005523
51
180.3177836
0
ARC
8
DEFAULT_255_1_388
10
16.7506028
20
70.6573853
40
0.5307402
50
154.1835149
51
167.2508278
0
ARC
8
DEFAULT_255_1_388
10
16.6795619
20
70.6947925
40
0.4505076
50
134.3150225
51
154.5315008
0
ARC
8
DEFAULT_255_1_388
10
16.6550954
20
70.716255
40
0.4180662
50
122.8617482
51
133.9707159
0
ARC
8
DEFAULT_255_1_388
10
16.6434561
20
70.7412882
40
0.3907416
50
89.8248474
51
123.4199325
0
ARC
8
DEFAULT_255_1_388
10
16.6490859
20
70.6685352
40
0.4635141
50
74.7874349
51
90.5482648
0
ARC
8
DEFAULT_255_1_388
10
16.6821323
20
70.7905987
40
0.3370565
50
39.8178888
51
74.7634383
0
ARC
8
DEFAULT_255_1_388
10
16.6244565
20
70.7456356
40
0.4101553
50
16.8990848
51
39.4830125
0
ARC
8
DEFAULT_255_1_388
10
16.4113179
20
70.6773711
40
0.6339427
50
4.9634768
51
17.2027767
0
ARC
8
DEFAULT_255_1_388
10
16.1392584
20
70.64866
40
0.9074803
50
359.8834402
51
5.2832409
0
ARC
8
DEFAULT_255_1_388
10
16.8184942
20
70.5846981
40
0.4341343
50
180.9844233
51
194.9402766
0
ARC
8
DEFAULT_255_1_388
10
16.7004108
20
70.552417
40
0.3117211
50
194.8030557
51
222.0412897
0
ARC
8
DEFAULT_255_1_388
10
16.666198
20
70.5184715
40
0.2635903
50
221.541578
51
268.8616004
0
ARC
8
DEFAULT_255_1_388
10
16.67441
20
70.594528
40
0.3398611
50
267.7321071
51
270.009808
0
ARC
8
DEFAULT_255_1_388
10
16.6764164
20
70.6172178
40
0.3625561
50
269.6921218
51
280.4122297
0
ARC
8
DEFAULT_255_1_388
10
16.6962575
20
70.5138767
40
0.2573323
50
280.2257165
51
298.633539
0
ARC
8
DEFAULT_255_1_388
10
16.7087989
20
70.4874578
40
0.2281403
50
299.0485543
51
300.4624141
0
ARC
8
DEFAULT_255_1_388
10
16.6328969
20
70.6139796
40
0.3756797
50
300.6578578
51
322.037749
0
ARC
8
DEFAULT_255_1_388
10
16.5958491
20
70.6463266
40
0.4247956
50
321.671786
51
322.3059078
0
ARC
8
DEFAULT_255_1_388
10
16.6982054
20
70.5169267
40
0.3960488
50
276.9729088
51
328.0035579
0
ARC
8
DEFAULT_255_1_388
10
16.6670524
20
70.6834609
40
0.5652345
50
269.8358003
51
278.0581296
0
ARC
8
DEFAULT_255_1_388
10
16.6414823
20
70.767282
40
0.2274263
50
89.2017936
51
117.2852353
0
ARC
8
DEFAULT_255_1_388
10
16.6474574
20
70.7625637
40
0.2343798
50
118.0546404
51
137.4544511
0
ARC
8
DEFAULT_255_1_388
10
16.6896218
20
70.7242556
40
0.2913471
50
137.5109688
51
158.8516701
0
ARC
8
DEFAULT_255_1_388
10
16.8176318
20
70.6725902
40
0.4293804
50
158.5845496
51
170.1719753
0
ARC
8
DEFAULT_255_1_388
10
16.9492654
20
70.6464519
40
0.5635533
50
169.8378964
51
173.0563877
0
ARC
8
DEFAULT_255_1_388
10
16.4207938
20
70.7039187
40
0.4593755
50
2.9089079
51
12.88469
0
ARC
8
DEFAULT_255_1_388
10
16.5749857
20
70.7402082
40
0.3009753
50
12.6957404
51
28.6405841
0
ARC
8
DEFAULT_255_1_388
10
16.6359354
20
70.7717577
40
0.232366
50
29.016559
51
41.1492981
0
ARC
8
DEFAULT_255_1_388
10
16.6587333
20
70.791608
40
0.2021373
50
41.1646967
51
85.001362
0
ARC
8
DEFAULT_255_1_388
10
16.6451337
20
70.7089775
40
0.2857091
50
83.728216
51
90.0968824
0
LINE
8
DEFAULT_255_1_388
10
17.9674689
20
70.8266232
11
17.799406
21
70.8266232
0
LINE
8
DEFAULT_255_1_388
10
17.1994392
20
70.437187
11
17.3665986
21
70.437187
0
ARC
8
DEFAULT_255_1_388
10
17.665735
20
70.3972935
40
0.1436198
50
359.3335374
51
18.5869869
0
ARC
8
DEFAULT_255_1_388
10
17.689209
20
70.4035015
40
0.1194022
50
19.3538149
51
54.6486387
0
ARC
8
DEFAULT_255_1_388
10
17.6325077
20
70.3253077
40
0.2159877
50
54.3821575
51
65.0627557
0
ARC
8
DEFAULT_255_1_388
10
17.5460424
20
70.1434032
40
0.4173927
50
64.8282172
51
71.4204388
0
ARC
8
DEFAULT_255_1_388
10
17.444532
20
69.8455782
40
0.7320403
50
71.3166092
51
75.8005927
0
ARC
8
DEFAULT_255_1_388
10
17.3499206
20
69.4810881
40
1.108605
50
75.6810806
51
78.0063886
0
ARC
8
DEFAULT_255_1_388
10
17.8503794
20
71.841253
40
1.3040363
50
254.69024
51
258.0465557
0
ARC
8
DEFAULT_255_1_388
10
17.7335663
20
71.4182742
40
0.8652254
50
249.9010634
51
254.7555005
0
ARC
8
DEFAULT_255_1_388
10
17.6206715
20
71.111668
40
0.5384962
50
243.3097375
51
249.970939
0
ARC
8
DEFAULT_255_1_388
10
17.549913
20
70.9705721
40
0.380652
50
234.4047808
51
243.2861752
0
ARC
8
DEFAULT_255_1_388
10
17.4798765
20
70.8738645
40
0.2612502
50
220.8665526
51
234.5497192
0
ARC
8
DEFAULT_255_1_388
10
17.4413764
20
70.8388203
40
0.2092097
50
214.3063391
51
220.5075055
0
ARC
8
DEFAULT_255_1_388
10
17.4384878
20
70.8353577
40
0.2048755
50
186.9131438
51
213.9617385
0
ARC
8
DEFAULT_255_1_388
10
17.4983268
20
70.8450431
40
0.2654563
50
179.8802037
51
187.4338578
0
ARC
8
DEFAULT_255_1_388
10
17.4809232
20
70.8473049
40
0.2480581
50
132.0053393
51
180.3942351
0
ARC
8
DEFAULT_255_1_388
10
17.5548145
20
70.7790997
40
0.3483116
50
129.2317021
51
133.5294826
0
ARC
8
DEFAULT_255_1_388
10
17.5608114
20
70.7685383
40
0.360291
50
100.440976
51
128.9081567
0
ARC
8
DEFAULT_255_1_388
10
17.5916232
20
70.6239357
40
0.5080996
50
89.6985063
51
100.9029043
0
ARC
8
DEFAULT_255_1_388
10
17.5980387
20
70.6058739
40
0.5261675
50
77.6967144
51
90.4074623
0
ARC
8
DEFAULT_255_1_388
10
17.6352739
20
70.7664503
40
0.3613511
50
50.7278431
51
78.0397473
0
ARC
8
DEFAULT_255_1_388
10
17.6852782
20
70.8247173
40
0.2845966
50
25.754382
51
51.0957456
0
ARC
8
DEFAULT_255_1_388
10
17.6854149
20
70.8303311
40
0.2820785
50
359.2468358
51
24.7393861
0
ARC
8
DEFAULT_255_1_388
10
17.6534036
20
70.8271204
40
0.1460032
50
359.8048924
51
45.1543866
0
ARC
8
DEFAULT_255_1_388
10
17.607577
20
70.7879291
40
0.2061641
50
43.8053172
51
49.625485
0
ARC
8
DEFAULT_255_1_388
10
17.6085213
20
70.7880849
40
0.2054344
50
49.7979696
51
82.121802
0
ARC
8
DEFAULT_255_1_388
10
17.5951295
20
70.7153473
40
0.2793404
50
81.4458692
51
90.1707936
0
ARC
8
DEFAULT_255_1_388
10
17.5923872
20
70.6561478
40
0.3385438
50
89.6768097
51
99.1267111
0
ARC
8
DEFAULT_255_1_388
10
17.5730854
20
70.7724405
40
0.2206627
50
98.9679878
51
113.4573418
0
ARC
8
DEFAULT_255_1_388
10
17.5510534
20
70.8251193
40
0.1635691
50
113.7230234
51
127.4758155
0
ARC
8
DEFAULT_255_1_388
10
17.5321117
20
70.8476433
40
0.1341757
50
126.9086647
51
150.3160891
0
ARC
8
DEFAULT_255_1_388
10
17.5267448
20
70.853368
40
0.1266992
50
151.363328
51
180.0701537
0
ARC
8
DEFAULT_255_1_388
10
17.5577668
20
70.851023
40
0.1577364
50
179.2045432
51
180.0012892
0
ARC
8
DEFAULT_255_1_388
10
17.520878
20
70.8495515
40
0.1208564
50
179.3040542
51
198.4225767
0
ARC
8
DEFAULT_255_1_388
10
17.4992921
20
70.8439337
40
0.0986126
50
199.2893055
51
238.6036855
0
ARC
8
DEFAULT_255_1_388
10
17.5671014
20
70.9503752
40
0.2248082
50
237.9844191
51
246.8751643
0
ARC
8
DEFAULT_255_1_388
10
17.6635874
20
71.1710861
40
0.4656832
50
246.6226408
51
251.8174794
0
ARC
8
DEFAULT_255_1_388
10
17.7796342
20
71.5195909
40
0.8329993
50
251.7140983
51
255.0775146
0
ARC
8
DEFAULT_255_1_388
10
17.9145866
20
72.0222708
40
1.3534786
50
255.0370864
51
257.4701577
0
ARC
8
DEFAULT_255_1_388
10
17.3398411
20
69.4328535
40
1.298957
50
73.6835762
51
77.5015749
0
ARC
8
DEFAULT_255_1_388
10
17.4623325
20
69.8490699
40
0.8650912
50
68.7042835
51
73.7249997
0
ARC
8
DEFAULT_255_1_388
10
17.5638889
20
70.1107853
40
0.584363
50
63.5907059
51
68.6622978
0
ARC
8
DEFAULT_255_1_388
10
17.650663
20
70.2838157
40
0.3907955
50
54.7106507
51
63.7018033
0
ARC
8
DEFAULT_255_1_388
10
17.7209018
20
70.3819287
40
0.2701345
50
41.0624597
51
54.8488532
0
ARC
8
DEFAULT_255_1_388
10
17.7592796
20
70.4171439
40
0.2180695
50
34.4952722
51
40.7097584
0
ARC
8
DEFAULT_255_1_388
10
17.7645761
20
70.4226204
40
0.2106083
50
9.3761233
51
34.0834046
0
ARC
8
DEFAULT_255_1_388
10
17.691089
20
70.4085174
40
0.2854177
50
359.7695264
51
9.7660556
0
ARC
8
DEFAULT_255_1_388
10
17.7133183
20
70.4036841
40
0.2632121
50
335.8653103
51
0.8022272
0
ARC
8
DEFAULT_255_1_388
10
17.7217588
20
70.4051951
40
0.2561728
50
307.7357819
51
334.7849324
0
ARC
8
DEFAULT_255_1_388
10
17.6772229
20
70.4551553
40
0.3229737
50
307.0217048
51
308.5596894
0
ARC
8
DEFAULT_255_1_388
10
17.6476814
20
70.4993063
40
0.3760237
50
282.9361285
51
306.5649033
0
ARC
8
DEFAULT_255_1_388
10
17.6069876
20
70.6643871
40
0.5460314
50
271.1026197
51
283.2199962
0
ARC
8
DEFAULT_255_1_388
10
17.5998064
20
70.8044744
40
0.6862456
50
269.9926344
51
271.4770056
0
ARC
8
DEFAULT_255_1_388
10
17.5968635
20
70.6827633
40
0.5645418
50
259.0723633
51
270.2897324
0
ARC
8
DEFAULT_255_1_388
10
17.5729859
20
70.5570887
40
0.4366198
50
245.4965026
51
259.0225745
0
ARC
8
DEFAULT_255_1_388
10
17.5417076
20
70.4916491
40
0.3641037
50
228.9686619
51
245.7042678
0
ARC
8
DEFAULT_255_1_388
10
17.511835
20
70.4548573
40
0.3167435
50
214.4015391
51
228.6759028
0
ARC
8
DEFAULT_255_1_388
10
17.4792848
20
70.4370429
40
0.2798456
50
179.9704983
51
215.1574389
0
ARC
8
DEFAULT_255_1_388
10
17.558106
20
70.4453148
40
0.1916798
50
182.430239
51
203.0329751
0
ARC
8
DEFAULT_255_1_388
10
17.5373656
20
70.4389675
40
0.1701248
50
203.7987464
51
232.5483345
0
ARC
8
DEFAULT_255_1_388
10
17.568474
20
70.4785049
40
0.2204299
50
232.3784541
51
256.3934343
0
ARC
8
DEFAULT_255_1_388
10
17.5943888
20
70.5786359
40
0.3238512
50
256.1048329
51
268.4627478
0
ARC
8
DEFAULT_255_1_388
10
17.5996307
20
70.6690297
40
0.4143627
50
268.0734924
51
270.0121004
0
ARC
8
DEFAULT_255_1_388
10
17.6017025
20
70.6376191
40
0.3829573
50
269.7031202
51
278.8338867
0
ARC
8
DEFAULT_255_1_388
10
17.6221889
20
70.5104553
40
0.2541568
50
278.6727378
51
292.82331
0
ARC
8
DEFAULT_255_1_388
10
17.6447436
20
70.4540546
40
0.1934264
50
293.1457581
51
303.6656964
0
ARC
8
DEFAULT_255_1_388
10
17.6745509
20
70.4117159
40
0.1416713
50
303.1245849
51
321.7434683
0
ARC
8
DEFAULT_255_1_388
10
17.6954591
20
70.393378
40
0.1139081
50
322.4747616
51
1.1293039
0
LINE
8
DEFAULT_255_2_778
10
9.3932417
20
60.7218492
11
10.7161417
21
60.7218492
0
LINE
8
DEFAULT_255_2_778
10
10.7161417
20
60.7218492
11
10.7161417
21
35.5864492
0
LINE
8
DEFAULT_255_2_778
10
10.7161417
20
30.2947492
11
10.7161417
21
5.1593492
0
LINE
8
DEFAULT_255_2_778
10
10.7161417
20
5.1593492
11
9.3932417
21
5.1593492
0
LINE
8
DEFAULT_255_2_778
10
9.3932834
20
35.5864333
11
12.0390834
21
35.5864333
0
LINE
8
DEFAULT_255_2_778
10
12.0390834
20
35.5864333
11
12.0390834
21
30.2947333
0
LINE
8
DEFAULT_255_2_778
10
12.0390834
20
30.2947333
11
9.3932834
21
30.2947333
0
LINE
8
DEFAULT_255_2_778
10
9.3932834
20
30.2947333
11
9.3932834
21
35.5864333
0
ARC
8
DEFAULT_255_2_778_1
10
13.1928591
20
30.397177
40
4.816461
50
120.9442904
51
122.351755
0
ARC
8
DEFAULT_255_2_778_1
10
12.7462523
20
31.1008039
40
3.9830657
50
122.3407904
51
124.1946752
0
ARC
8
DEFAULT_255_2_778_1
10
12.3063464
20
31.7473306
40
3.2010724
50
124.1855758
51
126.4338849
0
ARC
8
DEFAULT_255_2_778_1
10
11.9204129
20
32.2700611
40
2.5513094
50
126.4326926
51
128.8877368
0
ARC
8
DEFAULT_255_2_778_1
10
11.5855968
20
32.6844658
40
2.0185498
50
128.8749205
51
131.8726567
0
ARC
8
DEFAULT_255_2_778_1
10
11.2884677
20
33.0154854
40
1.5737356
50
131.8616166
51
135.4168838
0
ARC
8
DEFAULT_255_2_778_1
10
11.025668
20
33.2736765
40
1.2053256
50
135.3893975
51
139.9687014
0
ARC
8
DEFAULT_255_2_778_1
10
10.7927889
20
33.4685102
40
0.9016937
50
139.9301659
51
145.9260426
0
ARC
8
DEFAULT_255_2_778_1
10
10.596654
20
33.6005104
40
0.6652776
50
145.8787362
51
153.8146208
0
ARC
8
DEFAULT_255_2_778_1
10
10.4445553
20
33.6748797
40
0.4959714
50
153.770634
51
164.3484794
0
ARC
8
DEFAULT_255_2_778_1
10
10.3432387
20
33.7030786
40
0.3908039
50
164.3220276
51
179.8083066
0
ARC
8
DEFAULT_255_2_778_1
10
10.3642789
20
33.711215
40
0.4118985
50
180.9499449
51
213.8111542
0
ARC
8
DEFAULT_255_2_778_1
10
10.6401828
20
33.8807896
40
0.73561
50
212.8271214
51
224.258472
0
ARC
8
DEFAULT_255_2_778_1
10
11.0230335
20
34.2501236
40
1.267567
50
224.1376218
51
231.4508261
0
ARC
8
DEFAULT_255_2_778_1
10
11.6657195
20
35.0531168
40
2.2960809
50
231.3955893
51
236.1256478
0
ARC
8
DEFAULT_255_2_778_1
10
13.4980223
20
37.7996293
40
5.5976905
50
236.2233172
51
239.1314682
0
ARC
8
DEFAULT_255_2_778_1
10
25.447927
20
57.5273568
40
28.6623793
50
238.8606853
51
239.0711101
0
ARC
8
DEFAULT_255_2_778_1
10
6.2757281
20
25.4302653
40
8.7248518
50
57.2420924
51
59.4062964
0
ARC
8
DEFAULT_255_2_778_1
10
9.5034241
20
30.4612102
40
2.747542
50
52.8289294
51
57.079028
0
ARC
8
DEFAULT_255_2_778_1
10
10.2780783
20
31.4815488
40
1.466457
50
46.3041868
51
52.8596521
0
ARC
8
DEFAULT_255_2_778_1
10
10.7103073
20
31.9316842
40
0.8424061
50
36.2174211
51
46.4090895
0
ARC
8
DEFAULT_255_2_778_1
10
10.9948088
20
32.1365128
40
0.4918609
50
17.400375
51
36.5489745
0
ARC
8
DEFAULT_255_2_778_1
10
11.1088994
20
32.1763754
40
0.3710912
50
0.0676858
51
16.7951297
0
ARC
8
DEFAULT_255_2_778_1
10
11.0878613
20
32.1782428
40
0.3921317
50
343.8035191
51
359.7912046
0
ARC
8
DEFAULT_255_2_778_1
10
10.9815912
20
32.2087167
40
0.5026844
50
333.2506233
51
343.8465691
0
ARC
8
DEFAULT_255_2_778_1
10
10.8277757
20
32.2854313
40
0.6745679
50
325.6600948
51
333.3122657
0
ARC
8
DEFAULT_255_2_778_1
10
10.6323344
20
32.4182296
40
0.9108568
50
319.7560915
51
325.6976089
0
ARC
8
DEFAULT_255_2_778_1
10
10.404199
20
32.6100002
40
1.2088854
50
315.4577584
51
319.8037947
0
ARC
8
DEFAULT_255_2_778_1
10
10.1408127
20
32.8688507
40
1.5781764
50
311.7298824
51
315.4670864
0
ARC
8
DEFAULT_255_2_778_1
10
9.8317879
20
33.2144074
40
2.0417554
50
308.723055
51
311.7470879
0
ARC
8
DEFAULT_255_2_778_1
10
9.477589
20
33.6556492
40
2.6075745
50
306.1165163
51
308.7300151
0
ARC
8
DEFAULT_255_2_778_1
10
9.0746091
20
34.2069523
40
3.2904564
50
303.9559446
51
306.1266333
0
ARC
8
DEFAULT_255_2_778_1
10
8.6630432
20
34.816215
40
4.0257023
50
302.3733397
51
303.9712246
0
ARC
8
DEFAULT_255_2_778_1
10
8.2434347
20
35.4777058
40
4.8090549
50
300.9434827
51
302.3758078
0
LINE
8
DEFAULT_255_1_388
10
4.8809318
20
68.2883382
11
4.8809318
21
68.1519
0
LINE
8
DEFAULT_255_1_388
10
4.8809318
20
68.1519
11
4.0189313
21
68.1519
0
LINE
8
DEFAULT_255_1_388
10
4.0189313
20
68.1519
11
4.0189313
21
68.2720741
0
LINE
8
DEFAULT_255_1_388
10
4.0189313
20
68.2720741
11
4.4743278
21
68.7780702
0
LINE
8
DEFAULT_255_1_388
10
4.1607909
20
69.0798607
11
3.9936315
21
69.0798607
0
LINE
8
DEFAULT_255_1_388
10
4.5728163
20
68.670546
11
4.2204262
21
68.2883382
0
LINE
8
DEFAULT_255_1_388
10
4.2204262
20
68.2883382
11
4.8809318
21
68.2883382
0
ARC
8
DEFAULT_255_1_388
10
2.9567337
20
70.1200983
40
2.0258655
50
318.5132526
51
320.7829045
0
ARC
8
DEFAULT_255_1_388
10
3.5515294
20
69.6359929
40
1.2589638
50
320.7372878
51
323.9739031
0
ARC
8
DEFAULT_255_1_388
10
3.9924226
20
69.3165554
40
0.7145141
50
323.8962701
51
328.64194
0
ARC
8
DEFAULT_255_1_388
10
4.2226484
20
69.1745545
40
0.4440242
50
328.8294576
51
331.7891185
0
ARC
8
DEFAULT_255_1_388
10
4.3348804
20
69.1166374
40
0.3177517
50
331.4254512
51
352.9365785
0
ARC
8
DEFAULT_255_1_388
10
4.3501804
20
69.113205
40
0.3021496
50
353.2257659
51
0.0166158
0
ARC
8
DEFAULT_255_1_388
10
4.3738564
20
69.1157894
40
0.2784847
50
359.486299
51
15.9343185
0
ARC
8
DEFAULT_255_1_388
10
4.4308831
20
69.1311269
40
0.2194403
50
16.1712913
51
43.5286088
0
ARC
8
DEFAULT_255_1_388
10
4.4395776
20
69.1398191
40
0.2071504
50
43.4417391
51
83.1661095
0
ARC
8
DEFAULT_255_1_388
10
4.4244937
20
69.0569316
40
0.2912888
50
82.160179
51
90.1505708
0
ARC
8
DEFAULT_255_1_388
10
4.4209418
20
68.9965279
40
0.3517025
50
89.5460741
51
102.5418361
0
ARC
8
DEFAULT_255_1_388
10
4.3936138
20
69.1124933
40
0.2325748
50
102.1738499
51
129.206123
0
ARC
8
DEFAULT_255_1_388
10
4.3847592
20
69.1264664
40
0.2161591
50
129.72865
51
135.753947
0
ARC
8
DEFAULT_255_1_388
10
4.3984074
20
69.1155728
40
0.2335433
50
136.1757367
51
166.3673339
0
ARC
8
DEFAULT_255_1_388
10
4.5116762
20
69.0852148
40
0.3507873
50
165.9090694
51
178.8684636
0
ARC
8
DEFAULT_255_1_388
10
4.6092534
20
69.0799263
40
0.4484624
50
178.4391136
51
180.0083808
0
ARC
8
DEFAULT_255_1_388
10
4.4513235
20
69.0843197
40
0.4577138
50
163.2878482
51
180.5581842
0
ARC
8
DEFAULT_255_1_388
10
4.3611276
20
69.1091393
40
0.3641968
50
133.4540601
51
162.947111
0
ARC
8
DEFAULT_255_1_388
10
4.3812158
20
69.0877789
40
0.3935189
50
100.7869829
51
133.4382499
0
ARC
8
DEFAULT_255_1_388
10
4.4203403
20
68.9135399
40
0.5720313
50
89.660664
51
101.3702276
0
ARC
8
DEFAULT_255_1_388
10
4.4278012
20
68.9204263
40
0.5651495
50
78.2172678
51
90.412935
0
ARC
8
DEFAULT_255_1_388
10
4.4677478
20
69.1031511
40
0.378122
50
55.9269121
51
78.4888449
0
ARC
8
DEFAULT_255_1_388
10
4.4898193
20
69.1412187
40
0.3342379
50
47.929771
51
55.4049217
0
ARC
8
DEFAULT_255_1_388
10
4.5012723
20
69.1528618
40
0.3179217
50
4.334829
51
48.0560205
0
ARC
8
DEFAULT_255_1_388
10
4.3780525
20
69.1337487
40
0.442341
50
359.9251713
51
5.5971671
0
ARC
8
DEFAULT_255_1_388
10
4.426268
20
69.1400728
40
0.3941854
50
337.8914027
51
358.9967534
0
ARC
8
DEFAULT_255_1_388
10
4.121025
20
69.2578295
40
0.7213271
50
326.9132501
51
338.3508308
0
ARC
8
DEFAULT_255_1_388
10
3.6726362
20
69.5452105
40
1.2538973
50
319.6471833
51
327.0959558
0
ARC
8
DEFAULT_255_1_388
10
3.241302
20
69.901005
40
1.8129975
50
317.2588228
51
319.9045804
0
LINE
8
DEFAULT_255_1_388
10
5.7637143
20
69.4674898
11
5.7637143
21
68.593743
0
LINE
8
DEFAULT_255_1_388
10
5.7637143
20
68.593743
11
5.9462343
21
68.593743
0
LINE
8
DEFAULT_255_1_388
10
5.9462343
20
68.593743
11
5.9462343
21
68.4573048
0
LINE
8
DEFAULT_255_1_388
10
5.9462343
20
68.4573048
11
5.7637143
21
68.4573048
0
LINE
8
DEFAULT_255_1_388
10
5.7637143
20
68.4573048
11
5.7637143
21
68.1519
0
LINE
8
DEFAULT_255_1_388
10
5.7637143
20
68.1519
11
5.5956513
21
68.1519
0
LINE
8
DEFAULT_255_1_388
10
5.5956513
20
68.1519
11
5.5956513
21
68.4573048
0
LINE
8
DEFAULT_255_1_388
10
5.5956513
20
68.4573048
11
4.996588
21
68.4573048
0
LINE
8
DEFAULT_255_1_388
10
4.996588
20
68.4573048
11
4.996588
21
68.5557933
0
LINE
8
DEFAULT_255_1_388
10
4.996588
20
68.5557933
11
5.5857121
21
69.4674898
0
LINE
8
DEFAULT_255_1_388
10
5.5857121
20
69.4674898
11
5.7637143
21
69.4674898
0
LINE
8
DEFAULT_255_1_388
10
5.5757729
20
69.2027455
11
5.1863366
21
68.593743
0
LINE
8
DEFAULT_255_1_388
10
5.1863366
20
68.593743
11
5.5956513
21
68.593743
0
LINE
8
DEFAULT_255_1_388
10
5.5956513
20
68.593743
11
5.5956513
21
69.238888
0
LINE
8
DEFAULT_255_1_388
10
5.5956513
20
69.238888
11
5.5757729
21
69.2027455
0
LINE
8
DEFAULT_255_1_388
10
6.201943
20
69.4674898
11
6.5760187
21
68.3823089
0
LINE
8
DEFAULT_255_1_388
10
6.5760187
20
68.3823089
11
6.9519015
21
69.4674898
0
LINE
8
DEFAULT_255_1_388
10
6.9519015
20
69.4674898
11
7.14165
21
69.4674898
0
LINE
8
DEFAULT_255_1_388
10
7.14165
20
69.4674898
11
6.6537252
21
68.1519
0
LINE
8
DEFAULT_255_1_388
10
6.6537252
20
68.1519
11
6.5001193
21
68.1519
0
LINE
8
DEFAULT_255_1_388
10
6.5001193
20
68.1519
11
6.013098
21
69.4674898
0
LINE
8
DEFAULT_255_1_388
10
6.013098
20
69.4674898
11
6.201943
21
69.4674898
0
LINE
8
DEFAULT_255_1_388
10
4.924632
20
5.0693468
11
5.0990199
21
5.0693468
0
LINE
8
DEFAULT_255_1_388
10
4.0861242
20
5.2482525
11
4.0861242
21
5.3747516
0
LINE
8
DEFAULT_255_1_388
10
5.0990199
20
5.5446217
11
4.924632
21
5.5446217
0
LINE
8
DEFAULT_255_1_388
10
4.2605121
20
5.3702337
11
4.2605121
21
5.2428312
0
ARC
8
DEFAULT_255_1_388
10
4.4824433
20
5.1365329
40
0.6202263
50
340.1774904
51
353.7812217
0
ARC
8
DEFAULT_255_1_388
10
4.6592286
20
5.0706893
40
0.4315926
50
311.4560052
51
340.4420756
0
ARC
8
DEFAULT_255_1_388
10
4.6554826
20
5.0831665
40
0.4434573
50
282.4332229
51
310.7514507
0
ARC
8
DEFAULT_255_1_388
10
4.6060644
20
5.2873703
40
0.6535262
50
269.9358869
51
282.8096729
0
ARC
8
DEFAULT_255_1_388
10
4.6002583
20
5.4386329
40
0.8048043
50
269.9995752
51
270.3612856
0
ARC
8
DEFAULT_255_1_388
10
4.5943073
20
5.1587781
40
0.5249831
50
250.7885263
51
270.6488451
0
ARC
8
DEFAULT_255_1_388
10
4.5753898
20
5.0870853
40
0.4510942
50
219.3628377
51
250.0611024
0
ARC
8
DEFAULT_255_1_388
10
4.6686772
20
5.1663653
40
0.5735046
50
193.5480293
51
219.5755675
0
ARC
8
DEFAULT_255_1_388
10
4.9354981
20
5.235652
40
0.849146
50
181.1220183
51
193.8754971
0
ARC
8
DEFAULT_255_1_388
10
5.1678214
20
5.2480914
40
1.0816971
50
179.9914644
51
181.5398227
0
ARC
8
DEFAULT_255_1_388
10
4.9601525
20
5.3789586
40
0.8740384
50
169.5837606
51
180.275782
0
ARC
8
DEFAULT_255_1_388
10
4.7534873
20
5.4171439
40
0.6638751
50
155.0367033
51
169.6002779
0
ARC
8
DEFAULT_255_1_388
10
4.6257331
20
5.4787336
40
0.5220662
50
136.7831557
51
155.2472983
0
ARC
8
DEFAULT_255_1_388
10
4.5819122
20
5.5159577
40
0.4646502
50
121.7633063
51
136.4281161
0
ARC
8
DEFAULT_255_1_388
10
4.5970962
20
5.4879049
40
0.4964979
50
95.6460018
51
121.5489589
0
ARC
8
DEFAULT_255_1_388
10
4.6147936
20
5.3631704
40
0.6223912
50
89.9245727
51
96.1375919
0
ARC
8
DEFAULT_255_1_388
10
4.6204641
20
5.3765721
40
0.6090084
50
76.6779212
51
90.456405
0
ARC
8
DEFAULT_255_1_388
10
4.6647454
20
5.555506
40
0.42469
50
47.4858803
51
76.9287069
0
ARC
8
DEFAULT_255_1_388
10
4.6482068
20
5.5442623
40
0.4441778
50
16.5424081
51
46.8934505
0
ARC
8
DEFAULT_255_1_388
10
4.4673118
20
5.4848265
40
0.6345318
50
5.4072971
51
17.0363711
0
ARC
8
DEFAULT_255_1_388
10
4.3054843
20
5.4588304
40
0.6250632
50
7.8888693
51
15.9242022
0
ARC
8
DEFAULT_255_1_388
10
4.5289828
20
5.5237309
40
0.3923364
50
15.7650676
51
27.9410069
0
ARC
8
DEFAULT_255_1_388
10
4.6531997
20
5.5902317
40
0.2514401
50
27.8167196
51
46.4007942
0
ARC
8
DEFAULT_255_1_388
10
4.6587839
20
5.5895882
40
0.2480958
50
47.4372362
51
75.0695672
0
ARC
8
DEFAULT_255_1_388
10
4.6240675
20
5.4687277
40
0.3738281
50
74.7009379
51
87.8124314
0
ARC
8
DEFAULT_255_1_388
10
4.6158292
20
5.3503659
40
0.4924321
50
87.3802571
51
90.0251599
0
ARC
8
DEFAULT_255_1_388
10
4.6114939
20
5.4823997
40
0.3604218
50
89.3451886
51
108.5744412
0
ARC
8
DEFAULT_255_1_388
10
4.5960931
20
5.5401836
40
0.3007661
50
109.2998307
51
143.3037387
0
ARC
8
DEFAULT_255_1_388
10
4.6818221
20
5.4742584
40
0.4089031
50
143.075267
51
163.1918576
0
ARC
8
DEFAULT_255_1_388
10
4.9014055
20
5.4049652
40
0.6391492
50
162.9375929
51
174.6208776
0
ARC
8
DEFAULT_255_1_388
10
5.1968437
20
5.3725711
40
0.9363344
50
174.342123
51
180.1430283
0
ARC
8
DEFAULT_255_1_388
10
5.0920978
20
5.2382117
40
0.8315986
50
179.6817261
51
189.150555
0
ARC
8
DEFAULT_255_1_388
10
4.8107727
20
5.1913559
40
0.5464044
50
188.9911061
51
203.5772363
0
ARC
8
DEFAULT_255_1_388
10
4.6893019
20
5.1409539
40
0.4149206
50
203.9075402
51
215.1312435
0
ARC
8
DEFAULT_255_1_388
10
4.5854817
20
5.0604907
40
0.2837747
50
213.9071511
51
263.8848919
0
ARC
8
DEFAULT_255_1_388
10
4.599581
20
5.1487519
40
0.3730641
50
263.1757928
51
270.1031044
0
ARC
8
DEFAULT_255_1_388
10
4.603189
20
5.2890511
40
0.5133712
50
269.6722503
51
279.0606936
0
ARC
8
DEFAULT_255_1_388
10
4.6332045
20
5.107615
40
0.3294739
50
278.8749101
51
293.6349581
0
ARC
8
DEFAULT_255_1_388
10
4.6692249
20
5.0230251
40
0.2375405
50
293.8553806
51
310.0518171
0
ARC
8
DEFAULT_255_1_388
10
4.6697758
20
5.0160021
40
0.2318463
50
311.0644687
51
332.0111037
0
ARC
8
DEFAULT_255_1_388
10
4.5356431
20
5.0899702
40
0.3850112
50
331.6586806
51
343.2877423
0
ARC
8
DEFAULT_255_1_388
10
4.3035896
20
5.1612806
40
0.6277712
50
343.1446576
51
351.0103568
0
ARC
8
DEFAULT_255_1_388
10
4.140322
20
5.1912873
40
0.7937327
50
350.71248
51
351.1626997
0
LINE
8
DEFAULT_255_1_388
10
5.8869281
20
5.0332042
11
5.8869281
21
5.9674898
0
LINE
8
DEFAULT_255_1_388
10
5.8869281
20
5.9674898
11
6.0613161
21
5.9674898
0
LINE
8
DEFAULT_255_1_388
10
6.0613161
20
5.9674898
11
6.0613161
21
5.0359149
0
LINE
8
DEFAULT_255_1_388
10
5.2309403
20
5.0151329
11
5.4044247
21
5.0151329
0
ARC
8
DEFAULT_255_1_388
10
5.5560883
20
5.0315958
40
0.5052462
50
346.3132364
51
0.4897996
0
ARC
8
DEFAULT_255_1_388
10
5.7100416
20
4.9921792
40
0.3463431
50
313.3793278
51
346.6225662
0
ARC
8
DEFAULT_255_1_388
10
5.68745
20
5.0206186
40
0.3825426
50
281.1587645
51
312.9130978
0
ARC
8
DEFAULT_255_1_388
10
5.6491405
20
5.1887607
40
0.5549427
50
269.6423454
51
281.6796473
0
ARC
8
DEFAULT_255_1_388
10
5.6414184
20
5.2505499
40
0.6167359
50
258.9989698
51
270.3955842
0
ARC
8
DEFAULT_255_1_388
10
5.5992642
20
5.0425792
40
0.4045461
50
239.625581
51
259.2387746
0
ARC
8
DEFAULT_255_1_388
10
5.5667635
20
4.9812638
40
0.3352261
50
227.4961805
51
239.1189042
0
ARC
8
DEFAULT_255_1_388
10
5.5625519
20
4.9744009
40
0.3273245
50
191.3396895
51
227.2280349
0
ARC
8
DEFAULT_255_1_388
10
5.7205841
20
5.0117896
40
0.4896551
50
179.6087821
51
191.9932937
0
ARC
8
DEFAULT_255_1_388
10
5.7356585
20
5.0126216
40
0.3312434
50
179.565607
51
192.0702314
0
ARC
8
DEFAULT_255_1_388
10
5.6263538
20
4.988056
40
0.2192212
50
191.7655537
51
215.6462731
0
ARC
8
DEFAULT_255_1_388
10
5.6062779
20
4.9759629
40
0.1958682
50
216.1940686
51
224.3931249
0
ARC
8
DEFAULT_255_1_388
10
5.6070475
20
4.9789862
40
0.1985399
50
224.861176
51
254.3628599
0
ARC
8
DEFAULT_255_1_388
10
5.6375018
20
5.0796135
40
0.3036595
50
253.9470645
51
267.395327
0
ARC
8
DEFAULT_255_1_388
10
5.6454318
20
5.1835346
40
0.4078462
50
266.9458957
51
270.0343693
0
ARC
8
DEFAULT_255_1_388
10
5.6482898
20
5.0528844
40
0.2772084
50
269.4598277
51
286.1819188
0
ARC
8
DEFAULT_255_1_388
10
5.6641871
20
4.9945765
40
0.2167824
50
286.4415261
51
315.8045035
0
ARC
8
DEFAULT_255_1_388
10
5.6580904
20
4.9993201
40
0.2244619
50
316.0212602
51
345.479585
0
ARC
8
DEFAULT_255_1_388
10
5.5489062
20
5.0300753
40
0.3378781
50
345.0729937
51
358.3249855
0
ARC
8
DEFAULT_255_1_388
10
5.4513508
20
5.0363509
40
0.4355887
50
357.8749464
51
359.5860856
0
LINE
8
DEFAULT_255_1_388
10
7.175411
20
4.7883382
11
7.175411
21
4.6519
0
LINE
8
DEFAULT_255_1_388
10
7.175411
20
4.6519
11
6.3134105
21
4.6519
0
LINE
8
DEFAULT_255_1_388
10
6.3134105
20
4.6519
11
6.3134105
21
4.7720741
0
LINE
8
DEFAULT_255_1_388
10
6.3134105
20
4.7720741
11
6.768807
21
5.2780702
0
LINE
8
DEFAULT_255_1_388
10
6.4552702
20
5.5798607
11
6.2881107
21
5.5798607
0
LINE
8
DEFAULT_255_1_388
10
6.8672956
20
5.170546
11
6.5149054
21
4.7883382
0
LINE
8
DEFAULT_255_1_388
10
6.5149054
20
4.7883382
11
7.175411
21
4.7883382
0
ARC
8
DEFAULT_255_1_388
10
5.251213
20
6.6200983
40
2.0258655
50
318.5132526
51
320.7829045
0
ARC
8
DEFAULT_255_1_388
10
5.8460087
20
6.1359929
40
1.2589638
50
320.7372878
51
323.9739031
0
ARC
8
DEFAULT_255_1_388
10
6.2869018
20
5.8165554
40
0.7145141
50
323.8962701
51
328.64194
0
ARC
8
DEFAULT_255_1_388
10
6.5171276
20
5.6745545
40
0.4440242
50
328.8294576
51
331.7891185
0
ARC
8
DEFAULT_255_1_388
10
6.6293596
20
5.6166374
40
0.3177517
50
331.4254512
51
352.9365785
0
ARC
8
DEFAULT_255_1_388
10
6.6446596
20
5.613205
40
0.3021496
50
353.2257659
51
0.0166158
0
ARC
8
DEFAULT_255_1_388
10
6.6683357
20
5.6157894
40
0.2784847
50
359.486299
51
15.9343185
0
ARC
8
DEFAULT_255_1_388
10
6.7253623
20
5.6311269
40
0.2194403
50
16.1712913
51
43.5286088
0
ARC
8
DEFAULT_255_1_388
10
6.7340568
20
5.6398191
40
0.2071504
50
43.4417391
51
83.1661095
0
ARC
8
DEFAULT_255_1_388
10
6.7189729
20
5.5569316
40
0.2912888
50
82.160179
51
90.1505708
0
ARC
8
DEFAULT_255_1_388
10
6.7154211
20
5.4965279
40
0.3517025
50
89.5460741
51
102.5418361
0
ARC
8
DEFAULT_255_1_388
10
6.6880931
20
5.6124933
40
0.2325748
50
102.1738499
51
129.206123
0
ARC
8
DEFAULT_255_1_388
10
6.6792384
20
5.6264664
40
0.2161591
50
129.72865
51
135.753947
0
ARC
8
DEFAULT_255_1_388
10
6.6928866
20
5.6155728
40
0.2335433
50
136.1757367
51
166.3673339
0
ARC
8
DEFAULT_255_1_388
10
6.8061555
20
5.5852148
40
0.3507873
50
165.9090694
51
178.8684636
0
ARC
8
DEFAULT_255_1_388
10
6.9037326
20
5.5799263
40
0.4484624
50
178.4391136
51
180.0083808
0
ARC
8
DEFAULT_255_1_388
10
6.7458028
20
5.5843197
40
0.4577138
50
163.2878482
51
180.5581842
0
ARC
8
DEFAULT_255_1_388
10
6.6556069
20
5.6091393
40
0.3641968
50
133.4540601
51
162.947111
0
ARC
8
DEFAULT_255_1_388
10
6.6756951
20
5.5877789
40
0.3935189
50
100.7869829
51
133.4382499
0
ARC
8
DEFAULT_255_1_388
10
6.7148196
20
5.4135399
40
0.5720313
50
89.660664
51
101.3702276
0
ARC
8
DEFAULT_255_1_388
10
6.7222805
20
5.4204263
40
0.5651495
50
78.2172678
51
90.412935
0
ARC
8
DEFAULT_255_1_388
10
6.762227
20
5.6031511
40
0.378122
50
55.9269121
51
78.4888449
0
ARC
8
DEFAULT_255_1_388
10
6.7842985
20
5.6412187
40
0.3342379
50
47.929771
51
55.4049217
0
ARC
8
DEFAULT_255_1_388
10
6.7957516
20
5.6528618
40
0.3179217
50
4.334829
51
48.0560205
0
ARC
8
DEFAULT_255_1_388
10
6.6725317
20
5.6337487
40
0.442341
50
359.9251713
51
5.5971671
0
ARC
8
DEFAULT_255_1_388
10
6.7207472
20
5.6400728
40
0.3941854
50
337.8914027
51
358.9967534
0
ARC
8
DEFAULT_255_1_388
10
6.4155042
20
5.7578295
40
0.7213271
50
326.9132501
51
338.3508308
0
ARC
8
DEFAULT_255_1_388
10
5.9671154
20
6.0452105
40
1.2538973
50
319.6471833
51
327.0959558
0
ARC
8
DEFAULT_255_1_388
10
5.5357812
20
6.401005
40
1.8129975
50
317.2588228
51
319.9045804
0
LINE
8
DEFAULT_255_1_388
10
7.7175497
20
5.2789737
11
7.7175497
21
5.1425355
0
LINE
8
DEFAULT_255_1_388
10
7.7175497
20
5.1425355
11
7.2766103
21
5.1425355
0
LINE
8
DEFAULT_255_1_388
10
7.2766103
20
5.1425355
11
7.2766103
21
5.2789737
0
LINE
8
DEFAULT_255_1_388
10
7.2766103
20
5.2789737
11
7.7175497
21
5.2789737
0
LINE
8
DEFAULT_255_1_388
10
4.788232
20
13.0068468
11
4.9626199
21
13.0068468
0
LINE
8
DEFAULT_255_1_388
10
3.9497242
20
13.1857525
11
3.9497242
21
13.3122516
0
LINE
8
DEFAULT_255_1_388
10
4.9626199
20
13.4821217
11
4.788232
21
13.4821217
0
LINE
8
DEFAULT_255_1_388
10
4.1241121
20
13.3077337
11
4.1241121
21
13.1803312
0
ARC
8
DEFAULT_255_1_388
10
4.3460433
20
13.0740329
40
0.6202263
50
340.1774904
51
353.7812217
0
ARC
8
DEFAULT_255_1_388
10
4.5228286
20
13.0081893
40
0.4315926
50
311.4560052
51
340.4420756
0
ARC
8
DEFAULT_255_1_388
10
4.5190826
20
13.0206665
40
0.4434573
50
282.4332229
51
310.7514507
0
ARC
8
DEFAULT_255_1_388
10
4.4696644
20
13.2248703
40
0.6535262
50
269.9358869
51
282.8096729
0
ARC
8
DEFAULT_255_1_388
10
4.4638583
20
13.3761329
40
0.8048043
50
269.9995752
51
270.3612856
0
ARC
8
DEFAULT_255_1_388
10
4.4579073
20
13.0962781
40
0.5249831
50
250.7885263
51
270.6488451
0
ARC
8
DEFAULT_255_1_388
10
4.4389898
20
13.0245853
40
0.4510942
50
219.3628377
51
250.0611024
0
ARC
8
DEFAULT_255_1_388
10
4.5322772
20
13.1038653
40
0.5735046
50
193.5480293
51
219.5755675
0
ARC
8
DEFAULT_255_1_388
10
4.7990981
20
13.173152
40
0.849146
50
181.1220183
51
193.8754971
0
ARC
8
DEFAULT_255_1_388
10
5.0314214
20
13.1855914
40
1.0816971
50
179.9914644
51
181.5398227
0
ARC
8
DEFAULT_255_1_388
10
4.8237525
20
13.3164586
40
0.8740384
50
169.5837606
51
180.275782
0
ARC
8
DEFAULT_255_1_388
10
4.6170873
20
13.3546439
40
0.6638751
50
155.0367033
51
169.6002779
0
ARC
8
DEFAULT_255_1_388
10
4.4893331
20
13.4162336
40
0.5220662
50
136.7831557
51
155.2472983
0
ARC
8
DEFAULT_255_1_388
10
4.4455122
20
13.4534577
40
0.4646502
50
121.7633063
51
136.4281161
0
ARC
8
DEFAULT_255_1_388
10
4.4606962
20
13.4254049
40
0.4964979
50
95.6460018
51
121.5489589
0
ARC
8
DEFAULT_255_1_388
10
4.4783936
20
13.3006704
40
0.6223912
50
89.9245727
51
96.1375919
0
ARC
8
DEFAULT_255_1_388
10
4.4840641
20
13.3140721
40
0.6090084
50
76.6779212
51
90.456405
0
ARC
8
DEFAULT_255_1_388
10
4.5283454
20
13.493006
40
0.42469
50
47.4858803
51
76.9287069
0
ARC
8
DEFAULT_255_1_388
10
4.5118068
20
13.4817623
40
0.4441778
50
16.5424081
51
46.8934505
0
ARC
8
DEFAULT_255_1_388
10
4.3309118
20
13.4223265
40
0.6345318
50
5.4072971
51
17.0363711
0
ARC
8
DEFAULT_255_1_388
10
4.1690843
20
13.3963304
40
0.6250632
50
7.8888693
51
15.9242022
0
ARC
8
DEFAULT_255_1_388
10
4.3925828
20
13.4612309
40
0.3923364
50
15.7650676
51
27.9410069
0
ARC
8
DEFAULT_255_1_388
10
4.5167997
20
13.5277317
40
0.2514401
50
27.8167196
51
46.4007942
0
ARC
8
DEFAULT_255_1_388
10
4.5223839
20
13.5270882
40
0.2480958
50
47.4372362
51
75.0695672
0
ARC
8
DEFAULT_255_1_388
10
4.4876675
20
13.4062277
40
0.3738281
50
74.7009379
51
87.8124314
0
ARC
8
DEFAULT_255_1_388
10
4.4794292
20
13.2878659
40
0.4924321
50
87.3802571
51
90.0251599
0
ARC
8
DEFAULT_255_1_388
10
4.4750939
20
13.4198997
40
0.3604218
50
89.3451886
51
108.5744412
0
ARC
8
DEFAULT_255_1_388
10
4.4596931
20
13.4776836
40
0.3007661
50
109.2998307
51
143.3037387
0
ARC
8
DEFAULT_255_1_388
10
4.5454221
20
13.4117584
40
0.4089031
50
143.075267
51
163.1918576
0
ARC
8
DEFAULT_255_1_388
10
4.7650055
20
13.3424652
40
0.6391492
50
162.9375929
51
174.6208776
0
ARC
8
DEFAULT_255_1_388
10
5.0604437
20
13.3100711
40
0.9363344
50
174.342123
51
180.1430283
0
ARC
8
DEFAULT_255_1_388
10
4.9556978
20
13.1757117
40
0.8315986
50
179.6817261
51
189.150555
0
ARC
8
DEFAULT_255_1_388
10
4.6743727
20
13.1288559
40
0.5464044
50
188.9911061
51
203.5772363
0
ARC
8
DEFAULT_255_1_388
10
4.5529019
20
13.0784539
40
0.4149206
50
203.9075402
51
215.1312435
0
ARC
8
DEFAULT_255_1_388
10
4.4490817
20
12.9979907
40
0.2837747
50
213.9071511
51
263.8848919
0
ARC
8
DEFAULT_255_1_388
10
4.463181
20
13.0862519
40
0.3730641
50
263.1757928
51
270.1031044
0
ARC
8
DEFAULT_255_1_388
10
4.466789
20
13.2265511
40
0.5133712
50
269.6722503
51
279.0606936
0
ARC
8
DEFAULT_255_1_388
10
4.4968045
20
13.045115
40
0.3294739
50
278.8749101
51
293.6349581
0
ARC
8
DEFAULT_255_1_388
10
4.5328249
20
12.9605251
40
0.2375405
50
293.8553806
51
310.0518171
0
ARC
8
DEFAULT_255_1_388
10
4.5333758
20
12.9535021
40
0.2318463
50
311.0644687
51
332.0111037
0
ARC
8
DEFAULT_255_1_388
10
4.3992431
20
13.0274702
40
0.3850112
50
331.6586806
51
343.2877423
0
ARC
8
DEFAULT_255_1_388
10
4.1671896
20
13.0987806
40
0.6277712
50
343.1446576
51
351.0103568
0
ARC
8
DEFAULT_255_1_388
10
4.003922
20
13.1287873
40
0.7937327
50
350.71248
51
351.1626997
0
LINE
8
DEFAULT_255_1_388
10
5.7505281
20
12.9707042
11
5.7505281
21
13.9049898
0
LINE
8
DEFAULT_255_1_388
10
5.7505281
20
13.9049898
11
5.9249161
21
13.9049898
0
LINE
8
DEFAULT_255_1_388
10
5.9249161
20
13.9049898
11
5.9249161
21
12.9734149
0
LINE
8
DEFAULT_255_1_388
10
5.0945403
20
12.9526329
11
5.2680247
21
12.9526329
0
ARC
8
DEFAULT_255_1_388
10
5.4196883
20
12.9690958
40
0.5052462
50
346.3132364
51
0.4897996
0
ARC
8
DEFAULT_255_1_388
10
5.5736416
20
12.9296792
40
0.3463431
50
313.3793278
51
346.6225662
0
ARC
8
DEFAULT_255_1_388
10
5.55105
20
12.9581186
40
0.3825426
50
281.1587645
51
312.9130978
0
ARC
8
DEFAULT_255_1_388
10
5.5127405
20
13.1262607
40
0.5549427
50
269.6423454
51
281.6796473
0
ARC
8
DEFAULT_255_1_388
10
5.5050184
20
13.1880499
40
0.6167359
50
258.9989698
51
270.3955842
0
ARC
8
DEFAULT_255_1_388
10
5.4628642
20
12.9800792
40
0.4045461
50
239.625581
51
259.2387746
0
ARC
8
DEFAULT_255_1_388
10
5.4303635
20
12.9187638
40
0.3352261
50
227.4961805
51
239.1189042
0
ARC
8
DEFAULT_255_1_388
10
5.4261519
20
12.9119009
40
0.3273245
50
191.3396895
51
227.2280349
0
ARC
8
DEFAULT_255_1_388
10
5.5841841
20
12.9492896
40
0.4896551
50
179.6087821
51
191.9932937
0
ARC
8
DEFAULT_255_1_388
10
5.5992585
20
12.9501216
40
0.3312434
50
179.565607
51
192.0702314
0
ARC
8
DEFAULT_255_1_388
10
5.4899538
20
12.925556
40
0.2192212
50
191.7655537
51
215.6462731
0
ARC
8
DEFAULT_255_1_388
10
5.4698779
20
12.9134629
40
0.1958682
50
216.1940686
51
224.3931249
0
ARC
8
DEFAULT_255_1_388
10
5.4706475
20
12.9164862
40
0.1985399
50
224.861176
51
254.3628599
0
ARC
8
DEFAULT_255_1_388
10
5.5011018
20
13.0171135
40
0.3036595
50
253.9470645
51
267.395327
0
ARC
8
DEFAULT_255_1_388
10
5.5090318
20
13.1210346
40
0.4078462
50
266.9458957
51
270.0343693
0
ARC
8
DEFAULT_255_1_388
10
5.5118898
20
12.9903844
40
0.2772084
50
269.4598277
51
286.1819188
0
ARC
8
DEFAULT_255_1_388
10
5.5277871
20
12.9320765
40
0.2167824
50
286.4415261
51
315.8045035
0
ARC
8
DEFAULT_255_1_388
10
5.5216904
20
12.9368201
40
0.2244619
50
316.0212602
51
345.479585
0
ARC
8
DEFAULT_255_1_388
10
5.4125062
20
12.9675753
40
0.3378781
50
345.0729937
51
358.3249855
0
ARC
8
DEFAULT_255_1_388
10
5.3149508
20
12.9738509
40
0.4355887
50
357.8749464
51
359.5860856
0
LINE
8
DEFAULT_255_1_388
10
7.039011
20
12.7258382
11
7.039011
21
12.5894
0
LINE
8
DEFAULT_255_1_388
10
7.039011
20
12.5894
11
6.1770105
21
12.5894
0
LINE
8
DEFAULT_255_1_388
10
6.1770105
20
12.5894
11
6.1770105
21
12.7095741
0
LINE
8
DEFAULT_255_1_388
10
6.1770105
20
12.7095741
11
6.632407
21
13.2155702
0
LINE
8
DEFAULT_255_1_388
10
6.3188702
20
13.5173607
11
6.1517107
21
13.5173607
0
LINE
8
DEFAULT_255_1_388
10
6.7308956
20
13.108046
11
6.3785054
21
12.7258382
0
LINE
8
DEFAULT_255_1_388
10
6.3785054
20
12.7258382
11
7.039011
21
12.7258382
0
ARC
8
DEFAULT_255_1_388
10
5.114813
20
14.5575983
40
2.0258655
50
318.5132526
51
320.7829045
0
ARC
8
DEFAULT_255_1_388
10
5.7096087
20
14.0734929
40
1.2589638
50
320.7372878
51
323.9739031
0
ARC
8
DEFAULT_255_1_388
10
6.1505018
20
13.7540554
40
0.7145141
50
323.8962701
51
328.64194
0
ARC
8
DEFAULT_255_1_388
10
6.3807276
20
13.6120545
40
0.4440242
50
328.8294576
51
331.7891185
0
ARC
8
DEFAULT_255_1_388
10
6.4929596
20
13.5541374
40
0.3177517
50
331.4254512
51
352.9365785
0
ARC
8
DEFAULT_255_1_388
10
6.5082596
20
13.550705
40
0.3021496
50
353.2257659
51
0.0166158
0
ARC
8
DEFAULT_255_1_388
10
6.5319357
20
13.5532894
40
0.2784847
50
359.486299
51
15.9343185
0
ARC
8
DEFAULT_255_1_388
10
6.5889623
20
13.5686269
40
0.2194403
50
16.1712913
51
43.5286088
0
ARC
8
DEFAULT_255_1_388
10
6.5976568
20
13.5773191
40
0.2071504
50
43.4417391
51
83.1661095
0
ARC
8
DEFAULT_255_1_388
10
6.5825729
20
13.4944316
40
0.2912888
50
82.160179
51
90.1505708
0
ARC
8
DEFAULT_255_1_388
10
6.5790211
20
13.4340279
40
0.3517025
50
89.5460741
51
102.5418361
0
ARC
8
DEFAULT_255_1_388
10
6.5516931
20
13.5499933
40
0.2325748
50
102.1738499
51
129.206123
0
ARC
8
DEFAULT_255_1_388
10
6.5428384
20
13.5639664
40
0.2161591
50
129.72865
51
135.753947
0
ARC
8
DEFAULT_255_1_388
10
6.5564866
20
13.5530728
40
0.2335433
50
136.1757367
51
166.3673339
0
ARC
8
DEFAULT_255_1_388
10
6.6697555
20
13.5227148
40
0.3507873
50
165.9090694
51
178.8684636
0
ARC
8
DEFAULT_255_1_388
10
6.7673326
20
13.5174263
40
0.4484624
50
178.4391136
51
180.0083808
0
ARC
8
DEFAULT_255_1_388
10
6.6094028
20
13.5218197
40
0.4577138
50
163.2878482
51
180.5581842
0
ARC
8
DEFAULT_255_1_388
10
6.5192069
20
13.5466393
40
0.3641968
50
133.4540601
51
162.947111
0
ARC
8
DEFAULT_255_1_388
10
6.5392951
20
13.5252789
40
0.3935189
50
100.7869829
51
133.4382499
0
ARC
8
DEFAULT_255_1_388
10
6.5784196
20
13.3510399
40
0.5720313
50
89.660664
51
101.3702276
0
ARC
8
DEFAULT_255_1_388
10
6.5858805
20
13.3579263
40
0.5651495
50
78.2172678
51
90.412935
0
ARC
8
DEFAULT_255_1_388
10
6.625827
20
13.5406511
40
0.378122
50
55.9269121
51
78.4888449
0
ARC
8
DEFAULT_255_1_388
10
6.6478985
20
13.5787187
40
0.3342379
50
47.929771
51
55.4049217
0
ARC
8
DEFAULT_255_1_388
10
6.6593516
20
13.5903618
40
0.3179217
50
4.334829
51
48.0560205
0
ARC
8
DEFAULT_255_1_388
10
6.5361317
20
13.5712487
40
0.442341
50
359.9251713
51
5.5971671
0
ARC
8
DEFAULT_255_1_388
10
6.5843472
20
13.5775728
40
0.3941854
50
337.8914027
51
358.9967534
0
ARC
8
DEFAULT_255_1_388
10
6.2791042
20
13.6953295
40
0.7213271
50
326.9132501
51
338.3508308
0
ARC
8
DEFAULT_255_1_388
10
5.8307154
20
13.9827105
40
1.2538973
50
319.6471833
51
327.0959558
0
ARC
8
DEFAULT_255_1_388
10
5.3993812
20
14.338505
40
1.8129975
50
317.2588228
51
319.9045804
0
LINE
8
DEFAULT_255_1_388
10
7.7121666
20
13.6790987
11
7.7121666
21
13.2950838
0
LINE
8
DEFAULT_255_1_388
10
7.7121666
20
13.2950838
11
8.0790137
21
13.2950838
0
LINE
8
DEFAULT_255_1_388
10
8.0790137
20
13.2950838
11
8.0790137
21
13.1369601
0
LINE
8
DEFAULT_255_1_388
10
8.0790137
20
13.1369601
11
7.7121666
21
13.1369601
0
LINE
8
DEFAULT_255_1_388
10
7.7121666
20
13.1369601
11
7.7121666
21
12.7213204
0
LINE
8
DEFAULT_255_1_388
10
7.7121666
20
12.7213204
11
7.5441036
21
12.7213204
0
LINE
8
DEFAULT_255_1_388
10
7.5441036
20
12.7213204
11
7.5441036
21
13.1369601
0
LINE
8
DEFAULT_255_1_388
10
7.5441036
20
13.1369601
11
7.1772564
21
13.1369601
0
LINE
8
DEFAULT_255_1_388
10
7.1772564
20
13.1369601
11
7.1772564
21
13.2950838
0
LINE
8
DEFAULT_255_1_388
10
7.1772564
20
13.2950838
11
7.5441036
21
13.2950838
0
LINE
8
DEFAULT_255_1_388
10
7.5441036
20
13.2950838
11
7.5441036
21
13.6790987
0
LINE
8
DEFAULT_255_1_388
10
7.5441036
20
13.6790987
11
7.7121666
21
13.6790987
0
LINE
8
DEFAULT_255_1_388
10
4.924632
20
20.9443468
11
5.0990199
21
20.9443468
0
LINE
8
DEFAULT_255_1_388
10
4.0861242
20
21.1232525
11
4.0861242
21
21.2497516
0
LINE
8
DEFAULT_255_1_388
10
5.0990199
20
21.4196217
11
4.924632
21
21.4196217
0
LINE
8
DEFAULT_255_1_388
10
4.2605121
20
21.2452337
11
4.2605121
21
21.1178312
0
ARC
8
DEFAULT_255_1_388
10
4.4824433
20
21.0115329
40
0.6202263
50
340.1774904
51
353.7812217
0
ARC
8
DEFAULT_255_1_388
10
4.6592286
20
20.9456893
40
0.4315926
50
311.4560052
51
340.4420756
0
ARC
8
DEFAULT_255_1_388
10
4.6554826
20
20.9581665
40
0.4434573
50
282.4332229
51
310.7514507
0
ARC
8
DEFAULT_255_1_388
10
4.6060644
20
21.1623703
40
0.6535262
50
269.9358869
51
282.8096729
0
ARC
8
DEFAULT_255_1_388
10
4.6002583
20
21.3136329
40
0.8048043
50
269.9995752
51
270.3612856
0
ARC
8
DEFAULT_255_1_388
10
4.5943073
20
21.0337781
40
0.5249831
50
250.7885263
51
270.6488451
0
ARC
8
DEFAULT_255_1_388
10
4.5753898
20
20.9620853
40
0.4510942
50
219.3628377
51
250.0611024
0
ARC
8
DEFAULT_255_1_388
10
4.6686772
20
21.0413653
40
0.5735046
50
193.5480293
51
219.5755675
0
ARC
8
DEFAULT_255_1_388
10
4.9354981
20
21.110652
40
0.849146
50
181.1220183
51
193.8754971
0
ARC
8
DEFAULT_255_1_388
10
5.1678214
20
21.1230914
40
1.0816971
50
179.9914644
51
181.5398227
0
ARC
8
DEFAULT_255_1_388
10
4.9601525
20
21.2539586
40
0.8740384
50
169.5837606
51
180.275782
0
ARC
8
DEFAULT_255_1_388
10
4.7534873
20
21.2921439
40
0.6638751
50
155.0367033
51
169.6002779
0
ARC
8
DEFAULT_255_1_388
10
4.6257331
20
21.3537336
40
0.5220662
50
136.7831557
51
155.2472983
0
ARC
8
DEFAULT_255_1_388
10
4.5819122
20
21.3909577
40
0.4646502
50
121.7633063
51
136.4281161
0
ARC
8
DEFAULT_255_1_388
10
4.5970962
20
21.3629049
40
0.4964979
50
95.6460018
51
121.5489589
0
ARC
8
DEFAULT_255_1_388
10
4.6147936
20
21.2381704
40
0.6223912
50
89.9245727
51
96.1375919
0
ARC
8
DEFAULT_255_1_388
10
4.6204641
20
21.2515721
40
0.6090084
50
76.6779212
51
90.456405
0
ARC
8
DEFAULT_255_1_388
10
4.6647454
20
21.430506
40
0.42469
50
47.4858803
51
76.9287069
0
ARC
8
DEFAULT_255_1_388
10
4.6482068
20
21.4192623
40
0.4441778
50
16.5424081
51
46.8934505
0
ARC
8
DEFAULT_255_1_388
10
4.4673118
20
21.3598265
40
0.6345318
50
5.4072971
51
17.0363711
0
ARC
8
DEFAULT_255_1_388
10
4.3054843
20
21.3338304
40
0.6250632
50
7.8888693
51
15.9242022
0
ARC
8
DEFAULT_255_1_388
10
4.5289828
20
21.3987309
40
0.3923364
50
15.7650676
51
27.9410069
0
ARC
8
DEFAULT_255_1_388
10
4.6531997
20
21.4652317
40
0.2514401
50
27.8167196
51
46.4007942
0
ARC
8
DEFAULT_255_1_388
10
4.6587839
20
21.4645882
40
0.2480958
50
47.4372362
51
75.0695672
0
ARC
8
DEFAULT_255_1_388
10
4.6240675
20
21.3437277
40
0.3738281
50
74.7009379
51
87.8124314
0
ARC
8
DEFAULT_255_1_388
10
4.6158292
20
21.2253659
40
0.4924321
50
87.3802571
51
90.0251599
0
ARC
8
DEFAULT_255_1_388
10
4.6114939
20
21.3573997
40
0.3604218
50
89.3451886
51
108.5744412
0
ARC
8
DEFAULT_255_1_388
10
4.5960931
20
21.4151836
40
0.3007661
50
109.2998307
51
143.3037387
0
ARC
8
DEFAULT_255_1_388
10
4.6818221
20
21.3492584
40
0.4089031
50
143.075267
51
163.1918576
0
ARC
8
DEFAULT_255_1_388
10
4.9014055
20
21.2799652
40
0.6391492
50
162.9375929
51
174.6208776
0
ARC
8
DEFAULT_255_1_388
10
5.1968437
20
21.2475711
40
0.9363344
50
174.342123
51
180.1430283
0
ARC
8
DEFAULT_255_1_388
10
5.0920978
20
21.1132117
40
0.8315986
50
179.6817261
51
189.150555
0
ARC
8
DEFAULT_255_1_388
10
4.8107727
20
21.0663559
40
0.5464044
50
188.9911061
51
203.5772363
0
ARC
8
DEFAULT_255_1_388
10
4.6893019
20
21.0159539
40
0.4149206
50
203.9075402
51
215.1312435
0
ARC
8
DEFAULT_255_1_388
10
4.5854817
20
20.9354907
40
0.2837747
50
213.9071511
51
263.8848919
0
ARC
8
DEFAULT_255_1_388
10
4.599581
20
21.0237519
40
0.3730641
50
263.1757928
51
270.1031044
0
ARC
8
DEFAULT_255_1_388
10
4.603189
20
21.1640511
40
0.5133712
50
269.6722503
51
279.0606936
0
ARC
8
DEFAULT_255_1_388
10
4.6332045
20
20.982615
40
0.3294739
50
278.8749101
51
293.6349581
0
ARC
8
DEFAULT_255_1_388
10
4.6692249
20
20.8980251
40
0.2375405
50
293.8553806
51
310.0518171
0
ARC
8
DEFAULT_255_1_388
10
4.6697758
20
20.8910021
40
0.2318463
50
311.0644687
51
332.0111037
0
ARC
8
DEFAULT_255_1_388
10
4.5356431
20
20.9649702
40
0.3850112
50
331.6586806
51
343.2877423
0
ARC
8
DEFAULT_255_1_388
10
4.3035896
20
21.0362806
40
0.6277712
50
343.1446576
51
351.0103568
0
ARC
8
DEFAULT_255_1_388
10
4.140322
20
21.0662873
40
0.7937327
50
350.71248
51
351.1626997
0
LINE
8
DEFAULT_255_1_388
10
5.8869281
20
20.9082042
11
5.8869281
21
21.8424898
0
LINE
8
DEFAULT_255_1_388
10
5.8869281
20
21.8424898
11
6.0613161
21
21.8424898
0
LINE
8
DEFAULT_255_1_388
10
6.0613161
20
21.8424898
11
6.0613161
21
20.9109149
0
LINE
8
DEFAULT_255_1_388
10
5.2309403
20
20.8901329
11
5.4044247
21
20.8901329
0
ARC
8
DEFAULT_255_1_388
10
5.5560883
20
20.9065958
40
0.5052462
50
346.3132364
51
0.4897996
0
ARC
8
DEFAULT_255_1_388
10
5.7100416
20
20.8671792
40
0.3463431
50
313.3793278
51
346.6225662
0
ARC
8
DEFAULT_255_1_388
10
5.68745
20
20.8956186
40
0.3825426
50
281.1587645
51
312.9130978
0
ARC
8
DEFAULT_255_1_388
10
5.6491405
20
21.0637607
40
0.5549427
50
269.6423454
51
281.6796473
0
ARC
8
DEFAULT_255_1_388
10
5.6414184
20
21.1255499
40
0.6167359
50
258.9989698
51
270.3955842
0
ARC
8
DEFAULT_255_1_388
10
5.5992642
20
20.9175792
40
0.4045461
50
239.625581
51
259.2387746
0
ARC
8
DEFAULT_255_1_388
10
5.5667635
20
20.8562638
40
0.3352261
50
227.4961805
51
239.1189042
0
ARC
8
DEFAULT_255_1_388
10
5.5625519
20
20.8494009
40
0.3273245
50
191.3396895
51
227.2280349
0
ARC
8
DEFAULT_255_1_388
10
5.7205841
20
20.8867896
40
0.4896551
50
179.6087821
51
191.9932937
0
ARC
8
DEFAULT_255_1_388
10
5.7356585
20
20.8876216
40
0.3312434
50
179.565607
51
192.0702314
0
ARC
8
DEFAULT_255_1_388
10
5.6263538
20
20.863056
40
0.2192212
50
191.7655537
51
215.6462731
0
ARC
8
DEFAULT_255_1_388
10
5.6062779
20
20.8509629
40
0.1958682
50
216.1940686
51
224.3931249
0
ARC
8
DEFAULT_255_1_388
10
5.6070475
20
20.8539862
40
0.1985399
50
224.861176
51
254.3628599
0
ARC
8
DEFAULT_255_1_388
10
5.6375018
20
20.9546135
40
0.3036595
50
253.9470645
51
267.395327
0
ARC
8
DEFAULT_255_1_388
10
5.6454318
20
21.0585346
40
0.4078462
50
266.9458957
51
270.0343693
0
ARC
8
DEFAULT_255_1_388
10
5.6482898
20
20.9278844
40
0.2772084
50
269.4598277
51
286.1819188
0
ARC
8
DEFAULT_255_1_388
10
5.6641871
20
20.8695765
40
0.2167824
50
286.4415261
51
315.8045035
0
ARC
8
DEFAULT_255_1_388
10
5.6580904
20
20.8743201
40
0.2244619
50
316.0212602
51
345.479585
0
ARC
8
DEFAULT_255_1_388
10
5.5489062
20
20.9050753
40
0.3378781
50
345.0729937
51
358.3249855
0
ARC
8
DEFAULT_255_1_388
10
5.4513508
20
20.9113509
40
0.4355887
50
357.8749464
51
359.5860856
0
LINE
8
DEFAULT_255_1_388
10
6.8627777
20
21.8488148
11
6.8627777
21
20.5269
0
LINE
8
DEFAULT_255_1_388
10
6.8627777
20
20.5269
11
6.6947147
21
20.5269
0
LINE
8
DEFAULT_255_1_388
10
6.6947147
20
20.5269
11
6.6947147
21
21.640995
0
LINE
8
DEFAULT_255_1_388
10
6.6947147
20
21.640995
11
6.3576852
21
21.5172066
0
LINE
8
DEFAULT_255_1_388
10
6.3576852
20
21.5172066
11
6.3576852
21
21.6690055
0
LINE
8
DEFAULT_255_1_388
10
6.3576852
20
21.6690055
11
6.8365744
21
21.8488148
0
LINE
8
DEFAULT_255_1_388
10
6.8365744
20
21.8488148
11
6.8627777
21
21.8488148
0
LINE
8
DEFAULT_255_1_388
10
7.7175497
20
21.1539737
11
7.7175497
21
21.0175355
0
LINE
8
DEFAULT_255_1_388
10
7.7175497
20
21.0175355
11
7.2766103
21
21.0175355
0
LINE
8
DEFAULT_255_1_388
10
7.2766103
20
21.0175355
11
7.2766103
21
21.1539737
0
LINE
8
DEFAULT_255_1_388
10
7.2766103
20
21.1539737
11
7.7175497
21
21.1539737
0
LINE
8
DEFAULT_255_1_388
10
4.788232
20
28.8818468
11
4.9626199
21
28.8818468
0
LINE
8
DEFAULT_255_1_388
10
3.9497242
20
29.0607525
11
3.9497242
21
29.1872516
0
LINE
8
DEFAULT_255_1_388
10
4.9626199
20
29.3571217
11
4.788232
21
29.3571217
0
LINE
8
DEFAULT_255_1_388
10
4.1241121
20
29.1827337
11
4.1241121
21
29.0553312
0
ARC
8
DEFAULT_255_1_388
10
4.3460433
20
28.9490329
40
0.6202263
50
340.1774904
51
353.7812217
0
ARC
8
DEFAULT_255_1_388
10
4.5228286
20
28.8831893
40
0.4315926
50
311.4560052
51
340.4420756
0
ARC
8
DEFAULT_255_1_388
10
4.5190826
20
28.8956665
40
0.4434573
50
282.4332229
51
310.7514507
0
ARC
8
DEFAULT_255_1_388
10
4.4696644
20
29.0998703
40
0.6535262
50
269.9358869
51
282.8096729
0
ARC
8
DEFAULT_255_1_388
10
4.4638583
20
29.2511329
40
0.8048043
50
269.9995752
51
270.3612856
0
ARC
8
DEFAULT_255_1_388
10
4.4579073
20
28.9712781
40
0.5249831
50
250.7885263
51
270.6488451
0
ARC
8
DEFAULT_255_1_388
10
4.4389898
20
28.8995853
40
0.4510942
50
219.3628377
51
250.0611024
0
ARC
8
DEFAULT_255_1_388
10
4.5322772
20
28.9788653
40
0.5735046
50
193.5480293
51
219.5755675
0
ARC
8
DEFAULT_255_1_388
10
4.7990981
20
29.048152
40
0.849146
50
181.1220183
51
193.8754971
0
ARC
8
DEFAULT_255_1_388
10
5.0314214
20
29.0605914
40
1.0816971
50
179.9914644
51
181.5398227
0
ARC
8
DEFAULT_255_1_388
10
4.8237525
20
29.1914586
40
0.8740384
50
169.5837606
51
180.275782
0
ARC
8
DEFAULT_255_1_388
10
4.6170873
20
29.2296439
40
0.6638751
50
155.0367033
51
169.6002779
0
ARC
8
DEFAULT_255_1_388
10
4.4893331
20
29.2912336
40
0.5220662
50
136.7831557
51
155.2472983
0
ARC
8
DEFAULT_255_1_388
10
4.4455122
20
29.3284577
40
0.4646502
50
121.7633063
51
136.4281161
0
ARC
8
DEFAULT_255_1_388
10
4.4606962
20
29.3004049
40
0.4964979
50
95.6460018
51
121.5489589
0
ARC
8
DEFAULT_255_1_388
10
4.4783936
20
29.1756704
40
0.6223912
50
89.9245727
51
96.1375919
0
ARC
8
DEFAULT_255_1_388
10
4.4840641
20
29.1890721
40
0.6090084
50
76.6779212
51
90.456405
0
ARC
8
DEFAULT_255_1_388
10
4.5283454
20
29.368006
40
0.42469
50
47.4858803
51
76.9287069
0
ARC
8
DEFAULT_255_1_388
10
4.5118068
20
29.3567623
40
0.4441778
50
16.5424081
51
46.8934505
0
ARC
8
DEFAULT_255_1_388
10
4.3309118
20
29.2973265
40
0.6345318
50
5.4072971
51
17.0363711
0
ARC
8
DEFAULT_255_1_388
10
4.1690843
20
29.2713304
40
0.6250632
50
7.8888693
51
15.9242022
0
ARC
8
DEFAULT_255_1_388
10
4.3925828
20
29.3362309
40
0.3923364
50
15.7650676
51
27.9410069
0
ARC
8
DEFAULT_255_1_388
10
4.5167997
20
29.4027317
40
0.2514401
50
27.8167196
51
46.4007942
0
ARC
8
DEFAULT_255_1_388
10
4.5223839
20
29.4020882
40
0.2480958
50
47.4372362
51
75.0695672
0
ARC
8
DEFAULT_255_1_388
10
4.4876675
20
29.2812277
40
0.3738281
50
74.7009379
51
87.8124314
0
ARC
8
DEFAULT_255_1_388
10
4.4794292
20
29.1628659
40
0.4924321
50
87.3802571
51
90.0251599
0
ARC
8
DEFAULT_255_1_388
10
4.4750939
20
29.2948997
40
0.3604218
50
89.3451886
51
108.5744412
0
ARC
8
DEFAULT_255_1_388
10
4.4596931
20
29.3526836
40
0.3007661
50
109.2998307
51
143.3037387
0
ARC
8
DEFAULT_255_1_388
10
4.5454221
20
29.2867584
40
0.4089031
50
143.075267
51
163.1918576
0
ARC
8
DEFAULT_255_1_388
10
4.7650055
20
29.2174652
40
0.6391492
50
162.9375929
51
174.6208776
0
ARC
8
DEFAULT_255_1_388
10
5.0604437
20
29.1850711
40
0.9363344
50
174.342123
51
180.1430283
0
ARC
8
DEFAULT_255_1_388
10
4.9556978
20
29.0507117
40
0.8315986
50
179.6817261
51
189.150555
0
ARC
8
DEFAULT_255_1_388
10
4.6743727
20
29.0038559
40
0.5464044
50
188.9911061
51
203.5772363
0
ARC
8
DEFAULT_255_1_388
10
4.5529019
20
28.9534539
40
0.4149206
50
203.9075402
51
215.1312435
0
ARC
8
DEFAULT_255_1_388
10
4.4490817
20
28.8729907
40
0.2837747
50
213.9071511
51
263.8848919
0
ARC
8
DEFAULT_255_1_388
10
4.463181
20
28.9612519
40
0.3730641
50
263.1757928
51
270.1031044
0
ARC
8
DEFAULT_255_1_388
10
4.466789
20
29.1015511
40
0.5133712
50
269.6722503
51
279.0606936
0
ARC
8
DEFAULT_255_1_388
10
4.4968045
20
28.920115
40
0.3294739
50
278.8749101
51
293.6349581
0
ARC
8
DEFAULT_255_1_388
10
4.5328249
20
28.8355251
40
0.2375405
50
293.8553806
51
310.0518171
0
ARC
8
DEFAULT_255_1_388
10
4.5333758
20
28.8285021
40
0.2318463
50
311.0644687
51
332.0111037
0
ARC
8
DEFAULT_255_1_388
10
4.3992431
20
28.9024702
40
0.3850112
50
331.6586806
51
343.2877423
0
ARC
8
DEFAULT_255_1_388
10
4.1671896
20
28.9737806
40
0.6277712
50
343.1446576
51
351.0103568
0
ARC
8
DEFAULT_255_1_388
10
4.003922
20
29.0037873
40
0.7937327
50
350.71248
51
351.1626997
0
LINE
8
DEFAULT_255_1_388
10
5.7505281
20
28.8457042
11
5.7505281
21
29.7799898
0
LINE
8
DEFAULT_255_1_388
10
5.7505281
20
29.7799898
11
5.9249161
21
29.7799898
0
LINE
8
DEFAULT_255_1_388
10
5.9249161
20
29.7799898
11
5.9249161
21
28.8484149
0
LINE
8
DEFAULT_255_1_388
10
5.0945403
20
28.8276329
11
5.2680247
21
28.8276329
0
ARC
8
DEFAULT_255_1_388
10
5.4196883
20
28.8440958
40
0.5052462
50
346.3132364
51
0.4897996
0
ARC
8
DEFAULT_255_1_388
10
5.5736416
20
28.8046792
40
0.3463431
50
313.3793278
51
346.6225662
0
ARC
8
DEFAULT_255_1_388
10
5.55105
20
28.8331186
40
0.3825426
50
281.1587645
51
312.9130978
0
ARC
8
DEFAULT_255_1_388
10
5.5127405
20
29.0012607
40
0.5549427
50
269.6423454
51
281.6796473
0
ARC
8
DEFAULT_255_1_388
10
5.5050184
20
29.0630499
40
0.6167359
50
258.9989698
51
270.3955842
0
ARC
8
DEFAULT_255_1_388
10
5.4628642
20
28.8550792
40
0.4045461
50
239.625581
51
259.2387746
0
ARC
8
DEFAULT_255_1_388
10
5.4303635
20
28.7937638
40
0.3352261
50
227.4961805
51
239.1189042
0
ARC
8
DEFAULT_255_1_388
10
5.4261519
20
28.7869009
40
0.3273245
50
191.3396895
51
227.2280349
0
ARC
8
DEFAULT_255_1_388
10
5.5841841
20
28.8242896
40
0.4896551
50
179.6087821
51
191.9932937
0
ARC
8
DEFAULT_255_1_388
10
5.5992585
20
28.8251216
40
0.3312434
50
179.565607
51
192.0702314
0
ARC
8
DEFAULT_255_1_388
10
5.4899538
20
28.800556
40
0.2192212
50
191.7655537
51
215.6462731
0
ARC
8
DEFAULT_255_1_388
10
5.4698779
20
28.7884629
40
0.1958682
50
216.1940686
51
224.3931249
0
ARC
8
DEFAULT_255_1_388
10
5.4706475
20
28.7914862
40
0.1985399
50
224.861176
51
254.3628599
0
ARC
8
DEFAULT_255_1_388
10
5.5011018
20
28.8921135
40
0.3036595
50
253.9470645
51
267.395327
0
ARC
8
DEFAULT_255_1_388
10
5.5090318
20
28.9960346
40
0.4078462
50
266.9458957
51
270.0343693
0
ARC
8
DEFAULT_255_1_388
10
5.5118898
20
28.8653844
40
0.2772084
50
269.4598277
51
286.1819188
0
ARC
8
DEFAULT_255_1_388
10
5.5277871
20
28.8070765
40
0.2167824
50
286.4415261
51
315.8045035
0
ARC
8
DEFAULT_255_1_388
10
5.5216904
20
28.8118201
40
0.2244619
50
316.0212602
51
345.479585
0
ARC
8
DEFAULT_255_1_388
10
5.4125062
20
28.8425753
40
0.3378781
50
345.0729937
51
358.3249855
0
ARC
8
DEFAULT_255_1_388
10
5.3149508
20
28.8488509
40
0.4355887
50
357.8749464
51
359.5860856
0
LINE
8
DEFAULT_255_1_388
10
6.7263777
20
29.7863148
11
6.7263777
21
28.4644
0
LINE
8
DEFAULT_255_1_388
10
6.7263777
20
28.4644
11
6.5583147
21
28.4644
0
LINE
8
DEFAULT_255_1_388
10
6.5583147
20
28.4644
11
6.5583147
21
29.578495
0
LINE
8
DEFAULT_255_1_388
10
6.5583147
20
29.578495
11
6.2212852
21
29.4547066
0
LINE
8
DEFAULT_255_1_388
10
6.2212852
20
29.4547066
11
6.2212852
21
29.6065055
0
LINE
8
DEFAULT_255_1_388
10
6.2212852
20
29.6065055
11
6.7001744
21
29.7863148
0
LINE
8
DEFAULT_255_1_388
10
6.7001744
20
29.7863148
11
6.7263777
21
29.7863148
0
LINE
8
DEFAULT_255_1_388
10
7.7121666
20
29.5540987
11
7.7121666
21
29.1700838
0
LINE
8
DEFAULT_255_1_388
10
7.7121666
20
29.1700838
11
8.0790137
21
29.1700838
0
LINE
8
DEFAULT_255_1_388
10
8.0790137
20
29.1700838
11
8.0790137
21
29.0119601
0
LINE
8
DEFAULT_255_1_388
10
8.0790137
20
29.0119601
11
7.7121666
21
29.0119601
0
LINE
8
DEFAULT_255_1_388
10
7.7121666
20
29.0119601
11
7.7121666
21
28.5963204
0
LINE
8
DEFAULT_255_1_388
10
7.7121666
20
28.5963204
11
7.5441036
21
28.5963204
0
LINE
8
DEFAULT_255_1_388
10
7.5441036
20
28.5963204
11
7.5441036
21
29.0119601
0
LINE
8
DEFAULT_255_1_388
10
7.5441036
20
29.0119601
11
7.1772564
21
29.0119601
0
LINE
8
DEFAULT_255_1_388
10
7.1772564
20
29.0119601
11
7.1772564
21
29.1700838
0
LINE
8
DEFAULT_255_1_388
10
7.1772564
20
29.1700838
11
7.5441036
21
29.1700838
0
LINE
8
DEFAULT_255_1_388
10
7.5441036
20
29.1700838
11
7.5441036
21
29.5540987
0
LINE
8
DEFAULT_255_1_388
10
7.5441036
20
29.5540987
11
7.7121666
21
29.5540987
0
LINE
8
DEFAULT_255_1_388
10
4.9489318
20
36.5383382
11
4.9489318
21
36.4019
0
LINE
8
DEFAULT_255_1_388
10
4.9489318
20
36.4019
11
4.0869313
21
36.4019
0
LINE
8
DEFAULT_255_1_388
10
4.0869313
20
36.4019
11
4.0869313
21
36.5220741
0
LINE
8
DEFAULT_255_1_388
10
4.0869313
20
36.5220741
11
4.5423278
21
37.0280702
0
LINE
8
DEFAULT_255_1_388
10
4.2287909
20
37.3298607
11
4.0616315
21
37.3298607
0
LINE
8
DEFAULT_255_1_388
10
4.6408163
20
36.920546
11
4.2884262
21
36.5383382
0
LINE
8
DEFAULT_255_1_388
10
4.2884262
20
36.5383382
11
4.9489318
21
36.5383382
0
ARC
8
DEFAULT_255_1_388
10
3.0247337
20
38.3700983
40
2.0258655
50
318.5132526
51
320.7829045
0
ARC
8
DEFAULT_255_1_388
10
3.6195294
20
37.8859929
40
1.2589638
50
320.7372878
51
323.9739031
0
ARC
8
DEFAULT_255_1_388
10
4.0604226
20
37.5665554
40
0.7145141
50
323.8962701
51
328.64194
0
ARC
8
DEFAULT_255_1_388
10
4.2906484
20
37.4245545
40
0.4440242
50
328.8294576
51
331.7891185
0
ARC
8
DEFAULT_255_1_388
10
4.4028804
20
37.3666374
40
0.3177517
50
331.4254512
51
352.9365785
0
ARC
8
DEFAULT_255_1_388
10
4.4181804
20
37.363205
40
0.3021496
50
353.2257659
51
0.0166158
0
ARC
8
DEFAULT_255_1_388
10
4.4418564
20
37.3657894
40
0.2784847
50
359.486299
51
15.9343185
0
ARC
8
DEFAULT_255_1_388
10
4.4988831
20
37.3811269
40
0.2194403
50
16.1712913
51
43.5286088
0
ARC
8
DEFAULT_255_1_388
10
4.5075776
20
37.3898191
40
0.2071504
50
43.4417391
51
83.1661095
0
ARC
8
DEFAULT_255_1_388
10
4.4924937
20
37.3069316
40
0.2912888
50
82.160179
51
90.1505708
0
ARC
8
DEFAULT_255_1_388
10
4.4889418
20
37.2465279
40
0.3517025
50
89.5460741
51
102.5418361
0
ARC
8
DEFAULT_255_1_388
10
4.4616138
20
37.3624933
40
0.2325748
50
102.1738499
51
129.206123
0
ARC
8
DEFAULT_255_1_388
10
4.4527592
20
37.3764664
40
0.2161591
50
129.72865
51
135.753947
0
ARC
8
DEFAULT_255_1_388
10
4.4664074
20
37.3655728
40
0.2335433
50
136.1757367
51
166.3673339
0
ARC
8
DEFAULT_255_1_388
10
4.5796762
20
37.3352148
40
0.3507873
50
165.9090694
51
178.8684636
0
ARC
8
DEFAULT_255_1_388
10
4.6772534
20
37.3299263
40
0.4484624
50
178.4391136
51
180.0083808
0
ARC
8
DEFAULT_255_1_388
10
4.5193235
20
37.3343197
40
0.4577138
50
163.2878482
51
180.5581842
0
ARC
8
DEFAULT_255_1_388
10
4.4291276
20
37.3591393
40
0.3641968
50
133.4540601
51
162.947111
0
ARC
8
DEFAULT_255_1_388
10
4.4492158
20
37.3377789
40
0.3935189
50
100.7869829
51
133.4382499
0
ARC
8
DEFAULT_255_1_388
10
4.4883403
20
37.1635399
40
0.5720313
50
89.660664
51
101.3702276
0
ARC
8
DEFAULT_255_1_388
10
4.4958012
20
37.1704263
40
0.5651495
50
78.2172678
51
90.412935
0
ARC
8
DEFAULT_255_1_388
10
4.5357478
20
37.3531511
40
0.378122
50
55.9269121
51
78.4888449
0
ARC
8
DEFAULT_255_1_388
10
4.5578193
20
37.3912187
40
0.3342379
50
47.929771
51
55.4049217
0
ARC
8
DEFAULT_255_1_388
10
4.5692723
20
37.4028618
40
0.3179217
50
4.334829
51
48.0560205
0
ARC
8
DEFAULT_255_1_388
10
4.4460525
20
37.3837487
40
0.442341
50
359.9251713
51
5.5971671
0
ARC
8
DEFAULT_255_1_388
10
4.494268
20
37.3900728
40
0.3941854
50
337.8914027
51
358.9967534
0
ARC
8
DEFAULT_255_1_388
10
4.189025
20
37.5078295
40
0.7213271
50
326.9132501
51
338.3508308
0
ARC
8
DEFAULT_255_1_388
10
3.7406362
20
37.7952105
40
1.2538973
50
319.6471833
51
327.0959558
0
ARC
8
DEFAULT_255_1_388
10
3.309302
20
38.151005
40
1.8129975
50
317.2588228
51
319.9045804
0
LINE
8
DEFAULT_255_1_388
10
5.4910705
20
37.0289737
11
5.4910705
21
36.8925355
0
LINE
8
DEFAULT_255_1_388
10
5.4910705
20
36.8925355
11
5.050131
21
36.8925355
0
LINE
8
DEFAULT_255_1_388
10
5.050131
20
36.8925355
11
5.050131
21
37.0289737
0
LINE
8
DEFAULT_255_1_388
10
5.050131
20
37.0289737
11
5.4910705
21
37.0289737
0
LINE
8
DEFAULT_255_1_388
10
4.8125318
20
44.4758382
11
4.8125318
21
44.3394
0
LINE
8
DEFAULT_255_1_388
10
4.8125318
20
44.3394
11
3.9505313
21
44.3394
0
LINE
8
DEFAULT_255_1_388
10
3.9505313
20
44.3394
11
3.9505313
21
44.4595741
0
LINE
8
DEFAULT_255_1_388
10
3.9505313
20
44.4595741
11
4.4059278
21
44.9655702
0
LINE
8
DEFAULT_255_1_388
10
4.0923909
20
45.2673607
11
3.9252315
21
45.2673607
0
LINE
8
DEFAULT_255_1_388
10
4.5044163
20
44.858046
11
4.1520262
21
44.4758382
0
LINE
8
DEFAULT_255_1_388
10
4.1520262
20
44.4758382
11
4.8125318
21
44.4758382
0
ARC
8
DEFAULT_255_1_388
10
2.8883337
20
46.3075983
40
2.0258655
50
318.5132526
51
320.7829045
0
ARC
8
DEFAULT_255_1_388
10
3.4831294
20
45.8234929
40
1.2589638
50
320.7372878
51
323.9739031
0
ARC
8
DEFAULT_255_1_388
10
3.9240226
20
45.5040554
40
0.7145141
50
323.8962701
51
328.64194
0
ARC
8
DEFAULT_255_1_388
10
4.1542484
20
45.3620545
40
0.4440242
50
328.8294576
51
331.7891185
0
ARC
8
DEFAULT_255_1_388
10
4.2664804
20
45.3041374
40
0.3177517
50
331.4254512
51
352.9365785
0
ARC
8
DEFAULT_255_1_388
10
4.2817804
20
45.300705
40
0.3021496
50
353.2257659
51
0.0166158
0
ARC
8
DEFAULT_255_1_388
10
4.3054564
20
45.3032894
40
0.2784847
50
359.486299
51
15.9343185
0
ARC
8
DEFAULT_255_1_388
10
4.3624831
20
45.3186269
40
0.2194403
50
16.1712913
51
43.5286088
0
ARC
8
DEFAULT_255_1_388
10
4.3711776
20
45.3273191
40
0.2071504
50
43.4417391
51
83.1661095
0
ARC
8
DEFAULT_255_1_388
10
4.3560937
20
45.2444316
40
0.2912888
50
82.160179
51
90.1505708
0
ARC
8
DEFAULT_255_1_388
10
4.3525418
20
45.1840279
40
0.3517025
50
89.5460741
51
102.5418361
0
ARC
8
DEFAULT_255_1_388
10
4.3252138
20
45.2999933
40
0.2325748
50
102.1738499
51
129.206123
0
ARC
8
DEFAULT_255_1_388
10
4.3163592
20
45.3139664
40
0.2161591
50
129.72865
51
135.753947
0
ARC
8
DEFAULT_255_1_388
10
4.3300074
20
45.3030728
40
0.2335433
50
136.1757367
51
166.3673339
0
ARC
8
DEFAULT_255_1_388
10
4.4432762
20
45.2727148
40
0.3507873
50
165.9090694
51
178.8684636
0
ARC
8
DEFAULT_255_1_388
10
4.5408534
20
45.2674263
40
0.4484624
50
178.4391136
51
180.0083808
0
ARC
8
DEFAULT_255_1_388
10
4.3829235
20
45.2718197
40
0.4577138
50
163.2878482
51
180.5581842
0
ARC
8
DEFAULT_255_1_388
10
4.2927276
20
45.2966393
40
0.3641968
50
133.4540601
51
162.947111
0
ARC
8
DEFAULT_255_1_388
10
4.3128158
20
45.2752789
40
0.3935189
50
100.7869829
51
133.4382499
0
ARC
8
DEFAULT_255_1_388
10
4.3519403
20
45.1010399
40
0.5720313
50
89.660664
51
101.3702276
0
ARC
8
DEFAULT_255_1_388
10
4.3594012
20
45.1079263
40
0.5651495
50
78.2172678
51
90.412935
0
ARC
8
DEFAULT_255_1_388
10
4.3993478
20
45.2906511
40
0.378122
50
55.9269121
51
78.4888449
0
ARC
8
DEFAULT_255_1_388
10
4.4214193
20
45.3287187
40
0.3342379
50
47.929771
51
55.4049217
0
ARC
8
DEFAULT_255_1_388
10
4.4328723
20
45.3403618
40
0.3179217
50
4.334829
51
48.0560205
0
ARC
8
DEFAULT_255_1_388
10
4.3096525
20
45.3212487
40
0.442341
50
359.9251713
51
5.5971671
0
ARC
8
DEFAULT_255_1_388
10
4.357868
20
45.3275728
40
0.3941854
50
337.8914027
51
358.9967534
0
ARC
8
DEFAULT_255_1_388
10
4.052625
20
45.4453295
40
0.7213271
50
326.9132501
51
338.3508308
0
ARC
8
DEFAULT_255_1_388
10
3.6042362
20
45.7327105
40
1.2538973
50
319.6471833
51
327.0959558
0
ARC
8
DEFAULT_255_1_388
10
3.172902
20
46.088505
40
1.8129975
50
317.2588228
51
319.9045804
0
LINE
8
DEFAULT_255_1_388
10
5.4856873
20
45.4290987
11
5.4856873
21
45.0450838
0
LINE
8
DEFAULT_255_1_388
10
5.4856873
20
45.0450838
11
5.8525345
21
45.0450838
0
LINE
8
DEFAULT_255_1_388
10
5.8525345
20
45.0450838
11
5.8525345
21
44.8869601
0
LINE
8
DEFAULT_255_1_388
10
5.8525345
20
44.8869601
11
5.4856873
21
44.8869601
0
LINE
8
DEFAULT_255_1_388
10
5.4856873
20
44.8869601
11
5.4856873
21
44.4713204
0
LINE
8
DEFAULT_255_1_388
10
5.4856873
20
44.4713204
11
5.3176243
21
44.4713204
0
LINE
8
DEFAULT_255_1_388
10
5.3176243
20
44.4713204
11
5.3176243
21
44.8869601
0
LINE
8
DEFAULT_255_1_388
10
5.3176243
20
44.8869601
11
4.9507771
21
44.8869601
0
LINE
8
DEFAULT_255_1_388
10
4.9507771
20
44.8869601
11
4.9507771
21
45.0450838
0
LINE
8
DEFAULT_255_1_388
10
4.9507771
20
45.0450838
11
5.3176243
21
45.0450838
0
LINE
8
DEFAULT_255_1_388
10
5.3176243
20
45.0450838
11
5.3176243
21
45.4290987
0
LINE
8
DEFAULT_255_1_388
10
5.3176243
20
45.4290987
11
5.4856873
21
45.4290987
0
LINE
8
DEFAULT_255_1_388
10
4.6362985
20
53.5988148
11
4.6362985
21
52.2769
0
LINE
8
DEFAULT_255_1_388
10
4.6362985
20
52.2769
11
4.4682355
21
52.2769
0
LINE
8
DEFAULT_255_1_388
10
4.4682355
20
52.2769
11
4.4682355
21
53.390995
0
LINE
8
DEFAULT_255_1_388
10
4.4682355
20
53.390995
11
4.131206
21
53.2672066
0
LINE
8
DEFAULT_255_1_388
10
4.131206
20
53.2672066
11
4.131206
21
53.4190055
0
LINE
8
DEFAULT_255_1_388
10
4.131206
20
53.4190055
11
4.6100951
21
53.5988148
0
LINE
8
DEFAULT_255_1_388
10
4.6100951
20
53.5988148
11
4.6362985
21
53.5988148
0
LINE
8
DEFAULT_255_1_388
10
5.4910705
20
52.9039737
11
5.4910705
21
52.7675355
0
LINE
8
DEFAULT_255_1_388
10
5.4910705
20
52.7675355
11
5.050131
21
52.7675355
0
LINE
8
DEFAULT_255_1_388
10
5.050131
20
52.7675355
11
5.050131
21
52.9039737
0
LINE
8
DEFAULT_255_1_388
10
5.050131
20
52.9039737
11
5.4910705
21
52.9039737
0
LINE
8
DEFAULT_255_1_388
10
4.4998985
20
61.5363148
11
4.4998985
21
60.2144
0
LINE
8
DEFAULT_255_1_388
10
4.4998985
20
60.2144
11
4.3318355
21
60.2144
0
LINE
8
DEFAULT_255_1_388
10
4.3318355
20
60.2144
11
4.3318355
21
61.328495
0
LINE
8
DEFAULT_255_1_388
10
4.3318355
20
61.328495
11
3.994806
21
61.2047066
0
LINE
8
DEFAULT_255_1_388
10
3.994806
20
61.2047066
11
3.994806
21
61.3565055
0
LINE
8
DEFAULT_255_1_388
10
3.994806
20
61.3565055
11
4.4736951
21
61.5363148
0
LINE
8
DEFAULT_255_1_388
10
4.4736951
20
61.5363148
11
4.4998985
21
61.5363148
0
LINE
8
DEFAULT_255_1_388
10
5.4856873
20
61.3040987
11
5.4856873
21
60.9200838
0
LINE
8
DEFAULT_255_1_388
10
5.4856873
20
60.9200838
11
5.8525345
21
60.9200838
0
LINE
8
DEFAULT_255_1_388
10
5.8525345
20
60.9200838
11
5.8525345
21
60.7619601
0
LINE
8
DEFAULT_255_1_388
10
5.8525345
20
60.7619601
11
5.4856873
21
60.7619601
0
LINE
8
DEFAULT_255_1_388
10
5.4856873
20
60.7619601
11
5.4856873
21
60.3463204
0
LINE
8
DEFAULT_255_1_388
10
5.4856873
20
60.3463204
11
5.3176243
21
60.3463204
0
LINE
8
DEFAULT_255_1_388
10
5.3176243
20
60.3463204
11
5.3176243
21
60.7619601
0
LINE
8
DEFAULT_255_1_388
10
5.3176243
20
60.7619601
11
4.9507771
21
60.7619601
0
LINE
8
DEFAULT_255_1_388
10
4.9507771
20
60.7619601
11
4.9507771
21
60.9200838
0
LINE
8
DEFAULT_255_1_388
10
4.9507771
20
60.9200838
11
5.3176243
21
60.9200838
0
LINE
8
DEFAULT_255_1_388
10
5.3176243
20
60.9200838
11
5.3176243
21
61.3040987
0
LINE
8
DEFAULT_255_1_388
10
5.3176243
20
61.3040987
11
5.4856873
21
61.3040987
0
LINE
8
DEFAULT_255_1_388
10
23.1190856
20
68.929869
11
23.1190856
21
68.7130135
0
LINE
8
DEFAULT_255_1_388
10
22.2887099
20
68.6904244
11
22.2887099
21
68.9136048
0
LINE
8
DEFAULT_255_1_388
10
22.9519262
20
68.6678353
11
22.9519262
21
68.9416153
0
LINE
8
DEFAULT_255_1_388
10
22.4558693
20
68.9542652
11
22.4558693
21
68.6868102
0
ARC
8
DEFAULT_255_1_388
10
21.741319
20
68.7075118
40
1.3777776
50
353.8440855
51
0.2287917
0
ARC
8
DEFAULT_255_1_388
10
22.2632208
20
68.6492414
40
0.852639
50
344.4934746
51
353.9763743
0
ARC
8
DEFAULT_255_1_388
10
22.5999015
20
68.5535191
40
0.5026273
50
329.2803599
51
344.7473406
0
ARC
8
DEFAULT_255_1_388
10
22.7114511
20
68.4923038
40
0.3754848
50
324.9361395
51
328.6153007
0
ARC
8
DEFAULT_255_1_388
10
22.7540161
20
68.4625586
40
0.3235566
50
280.5801797
51
324.9173226
0
ARC
8
DEFAULT_255_1_388
10
22.7088789
20
68.6505236
40
0.5167077
50
269.5979457
51
281.6732777
0
ARC
8
DEFAULT_255_1_388
10
22.7007693
20
68.6370113
40
0.5032026
50
256.6228565
51
270.5105488
0
ARC
8
DEFAULT_255_1_388
10
22.6555435
20
68.4628345
40
0.3233092
50
215.8618351
51
257.2787793
0
ARC
8
DEFAULT_255_1_388
10
22.7704142
20
68.5399106
40
0.4615831
50
197.9695203
51
215.2622745
0
ARC
8
DEFAULT_255_1_388
10
23.0499818
20
68.6342641
40
0.7566307
50
187.8816486
51
198.2346584
0
ARC
8
DEFAULT_255_1_388
10
23.4953056
20
68.6985453
40
1.2065653
50
180.8977266
51
188.0054894
0
ARC
8
DEFAULT_255_1_388
10
23.800327
20
68.71004
40
1.5117443
50
180.7434591
51
181.152202
0
ARC
8
DEFAULT_255_1_388
10
23.6328266
20
68.9190371
40
1.3441277
50
173.7674302
51
180.2315596
0
ARC
8
DEFAULT_255_1_388
10
23.1246135
20
68.9764779
40
0.8326847
50
164.3058537
51
173.9000553
0
ARC
8
DEFAULT_255_1_388
10
22.7970135
20
69.0708652
40
0.4917711
50
148.7922028
51
164.5682288
0
ARC
8
DEFAULT_255_1_388
10
22.6900872
20
69.1305457
40
0.3694204
50
144.5883979
51
148.1161588
0
ARC
8
DEFAULT_255_1_388
10
22.6513618
20
69.1575667
40
0.322202
50
101.6440149
51
144.5142619
0
ARC
8
DEFAULT_255_1_388
10
22.699181
20
68.9675337
40
0.5180451
50
89.528284
51
102.5820197
0
ARC
8
DEFAULT_255_1_388
10
22.7080802
20
68.9631376
40
0.5224441
50
77.0437914
51
90.508231
0
ARC
8
DEFAULT_255_1_388
10
22.7533055
20
69.1479272
40
0.3322297
50
48.2777708
51
77.4996087
0
ARC
8
DEFAULT_255_1_388
10
22.7614795
20
69.1624557
40
0.315966
50
36.3141586
51
47.6307332
0
ARC
8
DEFAULT_255_1_388
10
22.6637518
20
69.0966159
40
0.4337313
50
18.2931065
51
35.6770203
0
ARC
8
DEFAULT_255_1_388
10
22.3776358
20
68.9984107
40
0.7362203
50
8.0246996
51
18.5605636
0
ARC
8
DEFAULT_255_1_388
10
21.9092714
20
68.9292432
40
1.2096583
50
1.127539
51
8.1718423
0
ARC
8
DEFAULT_255_1_388
10
21.5443847
20
68.9149374
40
1.5747719
50
0.5432713
51
1.38669
0
ARC
8
DEFAULT_255_1_388
10
21.7501226
20
68.9456163
40
1.2018103
50
359.8092569
51
4.9408001
0
ARC
8
DEFAULT_255_1_388
10
22.2237807
20
68.98789
40
0.7262727
50
4.8364937
51
12.2906017
0
ARC
8
DEFAULT_255_1_388
10
22.5337272
20
69.0569485
40
0.4087324
50
12.0806994
51
23.8171225
0
ARC
8
DEFAULT_255_1_388
10
22.6657668
20
69.1128508
40
0.2653719
50
24.2874621
51
31.3934353
0
ARC
8
DEFAULT_255_1_388
10
22.7248104
20
69.1514822
40
0.1948607
50
30.7407708
51
82.4658033
0
ARC
8
DEFAULT_255_1_388
10
22.7045765
20
69.0521017
40
0.2961198
50
81.1057101
51
90.2187368
0
ARC
8
DEFAULT_255_1_388
10
22.7005577
20
69.0811421
40
0.2670929
50
89.380395
51
105.6763916
0
ARC
8
DEFAULT_255_1_388
10
22.6799299
20
69.156132
40
0.1893189
50
105.7980655
51
149.7387869
0
ARC
8
DEFAULT_255_1_388
10
22.7996439
20
69.0841719
40
0.3289892
50
149.4208441
51
163.628295
0
ARC
8
DEFAULT_255_1_388
10
23.0348668
20
69.0124345
40
0.5749004
50
163.3764549
51
172.141138
0
ARC
8
DEFAULT_255_1_388
10
23.406139
20
68.9592582
40
0.9499585
50
172.0258462
51
178.0705453
0
ARC
8
DEFAULT_255_1_388
10
23.7482943
20
68.9430682
40
1.2924734
50
177.8639301
51
179.5036263
0
ARC
8
DEFAULT_255_1_388
10
23.6263961
20
68.6827151
40
1.170534
50
179.7995545
51
185.246089
0
ARC
8
DEFAULT_255_1_388
10
23.1715554
20
68.6396404
40
0.7136613
50
185.1411911
51
193.0082205
0
ARC
8
DEFAULT_255_1_388
10
22.8741815
20
68.5693441
40
0.4080987
50
192.7897338
51
205.2507384
0
ARC
8
DEFAULT_255_1_388
10
22.7564025
20
68.5167538
40
0.2791522
50
205.8001921
51
211.2545876
0
ARC
8
DEFAULT_255_1_388
10
22.6975564
20
68.4773132
40
0.2084074
50
210.3789935
51
238.4007996
0
ARC
8
DEFAULT_255_1_388
10
22.695365
20
68.4825786
40
0.2117943
50
239.6521916
51
265.9793852
0
ARC
8
DEFAULT_255_1_388
10
22.7049499
20
68.5582358
40
0.2879689
50
265.1324455
51
270.0603288
0
ARC
8
DEFAULT_255_1_388
10
22.7081876
20
68.5217418
40
0.2514919
50
269.3314378
51
287.2180039
0
ARC
8
DEFAULT_255_1_388
10
22.7236958
20
68.4651291
40
0.1928357
50
287.7957942
51
329.0808983
0
ARC
8
DEFAULT_255_1_388
10
22.6159715
20
68.5323651
40
0.319808
50
328.6635261
51
343.3325043
0
ARC
8
DEFAULT_255_1_388
10
22.3715174
20
68.6085195
40
0.5758408
50
343.0498092
51
351.9392499
0
ARC
8
DEFAULT_255_1_388
10
21.9814496
20
68.6660205
40
0.9701202
50
351.8071632
51
357.7957897
0
ARC
8
DEFAULT_255_1_388
10
21.6179973
20
68.6848724
40
1.3340376
50
357.5870923
51
359.2682493
0
LINE
8
DEFAULT_255_1_388
10
23.4380439
20
69.4674898
11
23.8121196
21
68.3823089
0
LINE
8
DEFAULT_255_1_388
10
23.8121196
20
68.3823089
11
24.1880024
21
69.4674898
0
LINE
8
DEFAULT_255_1_388
10
24.1880024
20
69.4674898
11
24.3777509
21
69.4674898
0
LINE
8
DEFAULT_255_1_388
10
24.3777509
20
69.4674898
11
23.8898261
21
68.1519
0
LINE
8
DEFAULT_255_1_388
10
23.8898261
20
68.1519
11
23.7362202
21
68.1519
0
LINE
8
DEFAULT_255_1_388
10
23.7362202
20
68.1519
11
23.2491989
21
69.4674898
0
LINE
8
DEFAULT_255_1_388
10
23.2491989
20
69.4674898
11
23.4380439
21
69.4674898
0
ENDSEC
0
EOF