0
SECTION
2
HEADER
9
$MEASUREMENT
70
1
0
ENDSEC
0
SECTION
2
TABLES
0
TABLE
2
LTYPE
0
LTYPE
72
65
70
64
2
CONTINUOUS
3
______
73
0
40
0
0
ENDTAB
0
TABLE
2
LAYER
0
LAYER
2
DEFAULT_255_2_778
70
0
62
255
6
CONTINUOUS
0
ENDTAB
0
ENDSEC
0
SECTION
2
ENTITIES
0
LINE
8
DEFAULT_255_2_778
10
0.5364634
20
94.8926675
11
64.9352634
21
94.8926675
0
LINE
8
DEFAULT_255_2_778
10
64.9352634
20
94.8926675
11
65.1482634
21
94.8048675
0
LINE
8
DEFAULT_255_2_778
10
0.5364634
20
4.8925675
11
64.9352634
21
4.8925675
0
LINE
8
DEFAULT_255_2_778
10
64.9352634
20
4.8925675
11
65.1482634
21
4.9803675
0
LINE
8
DEFAULT_255_2_778
10
0.2353634
20
94.5926675
11
0.2353634
21
65.3926675
0
LINE
8
DEFAULT_255_2_778
10
0.2353634
20
65.3926675
11
1.9352634
21
65.3926675
0
LINE
8
DEFAULT_255_2_778
10
1.9352634
20
65.3926675
11
2.7353634
21
66.3927675
0
LINE
8
DEFAULT_255_2_778
10
2.7353634
20
66.3927675
11
3.2354634
21
67.8927675
0
LINE
8
DEFAULT_255_2_778
10
3.2354634
20
67.8927675
11
4.2355634
21
67.8927675
0
LINE
8
DEFAULT_255_2_778
10
4.2355634
20
67.8927675
11
4.2355634
21
63.8125675
0
LINE
8
DEFAULT_255_2_778
10
0.5364394
20
32.0528685
11
2.6673394
21
32.4790685
0
LINE
8
DEFAULT_255_2_778
10
2.6673394
20
32.4790685
11
4.2353394
21
32.4928685
0
LINE
8
DEFAULT_255_2_778
10
4.2353394
20
32.4928685
11
4.2353394
21
61.7729685
0
LINE
8
DEFAULT_255_2_778
10
65.1482394
20
4.9803685
11
65.2352394
21
5.1925685
0
LINE
8
DEFAULT_255_2_778
10
65.2352394
20
5.1925685
11
65.2352394
21
94.5926685
0
LINE
8
DEFAULT_255_2_778
10
0.2353394
20
-0.2072315
11
0.2353394
21
31.9925685
0
LINE
8
DEFAULT_255_2_778
10
0.2353394
20
31.9925685
11
0.5364394
21
32.0525685
0
LINE
8
DEFAULT_255_2_778
10
65.1482394
20
94.8048685
11
65.2352394
21
94.5926685
0
LINE
8
DEFAULT_255_2_778
10
49.2433394
20
22.0841685
11
49.2001394
21
22.0192685
0
LINE
8
DEFAULT_255_2_778
10
49.2001394
20
22.0192685
11
49.1843394
21
21.9428685
0
LINE
8
DEFAULT_255_2_778
10
49.1843394
20
21.9428685
11
49.1843394
21
10.0924685
0
LINE
8
DEFAULT_255_2_778
10
49.1843394
20
10.0924685
11
49.2001394
21
10.0159685
0
LINE
8
DEFAULT_255_2_778
10
49.2001394
20
10.0159685
11
49.2433394
21
9.9511685
0
LINE
8
DEFAULT_255_2_778
10
49.2433394
20
9.9511685
11
49.3084394
21
9.9079685
0
LINE
8
DEFAULT_255_2_778
10
49.3084394
20
9.9079685
11
49.3843394
21
9.8929685
0
LINE
8
DEFAULT_255_2_778
10
49.3843394
20
9.8929685
11
51.7854394
21
9.8929685
0
LINE
8
DEFAULT_255_2_778
10
51.7854394
20
9.8929685
11
51.8613394
21
9.9079685
0
LINE
8
DEFAULT_255_2_778
10
51.8613394
20
9.9079685
11
51.9264394
21
9.9511685
0
LINE
8
DEFAULT_255_2_778
10
51.9264394
20
9.9511685
11
51.9695394
21
10.0159685
0
LINE
8
DEFAULT_255_2_778
10
51.9695394
20
10.0159685
11
51.9857394
21
10.0924685
0
LINE
8
DEFAULT_255_2_778
10
51.9857394
20
10.0924685
11
51.9857394
21
21.9428685
0
LINE
8
DEFAULT_255_2_778
10
51.9857394
20
21.9428685
11
51.9695394
21
22.0192685
0
LINE
8
DEFAULT_255_2_778
10
51.9695394
20
22.0192685
11
51.9264394
21
22.0841685
0
LINE
8
DEFAULT_255_2_778
10
51.9265195
20
22.0841536
11
51.8614195
21
22.1275536
0
LINE
8
DEFAULT_255_2_778
10
51.8614195
20
22.1275536
11
51.7854195
21
22.1426536
0
LINE
8
DEFAULT_255_2_778
10
51.7854195
20
22.1426536
11
49.3843195
21
22.1426536
0
LINE
8
DEFAULT_255_2_778
10
49.3843195
20
22.1426536
11
49.3084195
21
22.1275536
0
LINE
8
DEFAULT_255_2_778
10
49.3084195
20
22.1275536
11
49.2433195
21
22.0841536
0
LINE
8
DEFAULT_255_2_778
10
5.7355195
20
37.1426536
11
5.7355195
21
62.6426536
0
LINE
8
DEFAULT_255_2_778
10
5.7355195
20
62.6426536
11
56.2355195
21
62.6426536
0
LINE
8
DEFAULT_255_2_778
10
56.2355195
20
62.6426536
11
56.2355195
21
37.1426536
0
LINE
8
DEFAULT_255_2_778
10
56.2355195
20
37.1426536
11
5.7355195
21
37.1426536
0
LINE
8
DEFAULT_255_2_778
10
10.5544195
20
35.8342536
11
10.5115195
21
35.7694536
0
LINE
8
DEFAULT_255_2_778
10
10.5115195
20
35.7694536
11
10.4954195
21
35.6929536
0
LINE
8
DEFAULT_255_2_778
10
10.4954195
20
35.6929536
11
10.4954195
21
23.8425536
0
LINE
8
DEFAULT_255_2_778
10
10.4954195
20
23.8425536
11
10.5115195
21
23.7660536
0
LINE
8
DEFAULT_255_2_778
10
10.5115195
20
23.7660536
11
10.5544195
21
23.7012536
0
LINE
8
DEFAULT_255_2_778
10
10.5544195
20
23.7012536
11
10.6194195
21
23.6581536
0
LINE
8
DEFAULT_255_2_778
10
10.6194195
20
23.6581536
11
10.6954195
21
23.6430536
0
LINE
8
DEFAULT_255_2_778
10
10.6954195
20
23.6430536
11
13.0965195
21
23.6430536
0
LINE
8
DEFAULT_255_2_778
10
13.0965195
20
23.6430536
11
13.1727195
21
23.6581536
0
LINE
8
DEFAULT_255_2_778
10
13.1727195
20
23.6581536
11
13.2375195
21
23.7012536
0
LINE
8
DEFAULT_255_2_778
10
13.2375195
20
23.7012536
11
13.2806195
21
23.7660536
0
LINE
8
DEFAULT_255_2_778
10
13.2806195
20
23.7660536
11
13.2965195
21
23.8425536
0
LINE
8
DEFAULT_255_2_778
10
13.2965195
20
23.8425536
11
13.2965195
21
35.6929536
0
LINE
8
DEFAULT_255_2_778
10
13.2965195
20
35.6929536
11
13.2806195
21
35.7694536
0
LINE
8
DEFAULT_255_2_778
10
13.2806195
20
35.7694536
11
13.2375195
21
35.8342536
0
LINE
8
DEFAULT_255_2_778
10
13.2374959
20
35.8342717
11
13.1726959
21
35.8776717
0
LINE
8
DEFAULT_255_2_778
10
13.1726959
20
35.8776717
11
13.0964959
21
35.8927717
0
LINE
8
DEFAULT_255_2_778
10
13.0964959
20
35.8927717
11
10.6953959
21
35.8927717
0
LINE
8
DEFAULT_255_2_778
10
10.6953959
20
35.8927717
11
10.6194959
21
35.8776717
0
LINE
8
DEFAULT_255_2_778
10
10.6194959
20
35.8776717
11
10.5543959
21
35.8342717
0
LINE
8
DEFAULT_255_2_778
10
6.1953959
20
35.6974717
11
6.1953959
21
23.8423717
0
LINE
8
DEFAULT_255_2_778
10
6.1953959
20
23.8423717
11
6.2111959
21
23.7658717
0
LINE
8
DEFAULT_255_2_778
10
6.2111959
20
23.7658717
11
6.2543959
21
23.7010717
0
LINE
8
DEFAULT_255_2_778
10
6.2543959
20
23.7010717
11
6.3191959
21
23.6578717
0
LINE
8
DEFAULT_255_2_778
10
6.3191959
20
23.6578717
11
6.3953959
21
23.6428717
0
LINE
8
DEFAULT_255_2_778
10
8.7961959
20
23.6428717
11
8.8720959
21
23.6578717
0
LINE
8
DEFAULT_255_2_778
10
8.8720959
20
23.6578717
11
8.9371959
21
23.7010717
0
LINE
8
DEFAULT_255_2_778
10
8.9371959
20
23.7010717
11
8.9803959
21
23.7658717
0
LINE
8
DEFAULT_255_2_778
10
8.9803959
20
23.7658717
11
8.9961959
21
23.8423717
0
LINE
8
DEFAULT_255_2_778
10
8.9961959
20
23.8423717
11
8.9961959
21
35.6683717
0
LINE
8
DEFAULT_255_2_778
10
8.8713959
20
35.8776717
11
8.7953959
21
35.8927717
0
LINE
8
DEFAULT_255_2_778
10
8.7953959
20
35.8927717
11
6.3942959
21
35.8927717
0
LINE
8
DEFAULT_255_2_778
10
6.3942959
20
35.8927717
11
6.3183959
21
35.8776717
0
LINE
8
DEFAULT_255_2_778
10
6.3183959
20
35.8776717
11
6.2532959
21
35.8342717
0
LINE
8
DEFAULT_255_2_778
10
6.2532959
20
35.8342717
11
6.2101959
21
35.7694717
0
LINE
8
DEFAULT_255_2_778
10
6.2101959
20
35.7694717
11
6.1942959
21
35.6929717
0
LINE
8
DEFAULT_255_2_778
10
8.9954267
20
35.6930064
11
8.9796267
21
35.7694064
0
LINE
8
DEFAULT_255_2_778
10
8.9796267
20
35.7694064
11
8.9364267
21
35.8343064
0
LINE
8
DEFAULT_255_2_778
10
8.9364267
20
35.8340064
11
8.8714267
21
35.8774064
0
LINE
8
DEFAULT_255_2_778
10
6.3954267
20
23.6428064
11
8.7965267
21
23.6428064
0
LINE
8
DEFAULT_255_2_778
10
10.6954267
20
77.6427064
11
13.0965267
21
77.6427064
0
LINE
8
DEFAULT_255_2_778
10
13.0965267
20
77.6427064
11
13.1727267
21
77.6577064
0
LINE
8
DEFAULT_255_2_778
10
13.1727267
20
77.6577064
11
13.2375267
21
77.7009064
0
LINE
8
DEFAULT_255_2_778
10
13.2375267
20
77.7009064
11
13.2806267
21
77.7657064
0
LINE
8
DEFAULT_255_2_778
10
13.2806267
20
77.7657064
11
13.2965267
21
77.8422064
0
LINE
8
DEFAULT_255_2_778
10
13.2965267
20
77.8422064
11
13.2965267
21
89.6928064
0
LINE
8
DEFAULT_255_2_778
10
13.2965267
20
89.6928064
11
13.2806267
21
89.7693064
0
LINE
8
DEFAULT_255_2_778
10
13.2806267
20
89.7693064
11
13.2375267
21
89.8341064
0
LINE
8
DEFAULT_255_2_778
10
13.2375267
20
89.8341064
11
13.1727267
21
89.8775064
0
LINE
8
DEFAULT_255_2_778
10
13.1727267
20
89.8775064
11
13.0965267
21
89.8926064
0
LINE
8
DEFAULT_255_2_778
10
13.0965267
20
89.8926064
11
10.6954267
21
89.8926064
0
LINE
8
DEFAULT_255_2_778
10
10.6954267
20
89.8926064
11
10.6195267
21
89.8775064
0
LINE
8
DEFAULT_255_2_778
10
10.6195267
20
89.8775064
11
10.5544267
21
89.8341064
0
LINE
8
DEFAULT_255_2_778
10
10.5544267
20
89.8341064
11
10.5115267
21
89.7693064
0
LINE
8
DEFAULT_255_2_778
10
10.5115267
20
89.7693064
11
10.4954267
21
89.6928064
0
LINE
8
DEFAULT_255_2_778
10
10.4954267
20
89.6928064
11
10.4954267
21
77.8424064
0
LINE
8
DEFAULT_255_2_778
10
10.4954267
20
77.8424064
11
10.5115267
21
77.7660064
0
LINE
8
DEFAULT_255_2_778
10
10.5115267
20
77.7660064
11
10.5544267
21
77.7011064
0
LINE
8
DEFAULT_255_2_778
10
10.5544267
20
77.7011064
11
10.6195267
21
77.6580064
0
LINE
8
DEFAULT_255_2_778
10
10.6195267
20
77.6580064
11
10.6954267
21
77.6429064
0
LINE
8
DEFAULT_255_2_778
10
49.1843267
20
64.0926064
11
49.2002267
21
64.0161064
0
LINE
8
DEFAULT_255_2_778
10
49.2002267
20
64.0161064
11
49.2433267
21
63.9513064
0
LINE
8
DEFAULT_255_2_778
10
49.2433267
20
63.9513064
11
49.3084267
21
63.9081064
0
LINE
8
DEFAULT_255_2_778
10
49.3084267
20
63.9081064
11
49.3844267
21
63.8931064
0
LINE
8
DEFAULT_255_2_778
10
49.3844267
20
63.8928064
11
51.7854267
21
63.8928064
0
LINE
8
DEFAULT_255_2_778
10
6.1943267
20
77.8424064
11
6.2102267
21
77.7660064
0
LINE
8
DEFAULT_255_2_778
10
8.9796365
20
77.7660395
11
8.9954365
21
77.8424395
0
LINE
8
DEFAULT_255_2_778
10
8.9954365
20
77.8424395
11
8.9954365
21
89.6928395
0
LINE
8
DEFAULT_255_2_778
10
8.9954365
20
89.6928395
11
8.9796365
21
89.7693395
0
LINE
8
DEFAULT_255_2_778
10
8.9796365
20
89.7693395
11
8.9364365
21
89.8341395
0
LINE
8
DEFAULT_255_2_778
10
6.2102365
20
89.7693395
11
6.1943365
21
89.6928395
0
LINE
8
DEFAULT_255_2_778
10
8.9362365
20
89.8341395
11
8.8711365
21
89.8775395
0
LINE
8
DEFAULT_255_2_778
10
8.8711365
20
89.8775395
11
8.7952365
21
89.8926395
0
LINE
8
DEFAULT_255_2_778
10
8.7952365
20
89.8926395
11
6.3941365
21
89.8926395
0
LINE
8
DEFAULT_255_2_778
10
6.3941365
20
89.8926395
11
6.3181365
21
89.8775395
0
LINE
8
DEFAULT_255_2_778
10
6.3181365
20
89.8775395
11
6.2530365
21
89.8341395
0
LINE
8
DEFAULT_255_2_778
10
6.2530365
20
89.8341395
11
6.2102365
21
89.7693395
0
LINE
8
DEFAULT_255_2_778
10
6.1943365
20
77.8424395
11
6.1943365
21
89.6928395
0
LINE
8
DEFAULT_255_2_778
10
6.3943365
20
77.6427395
11
8.7954365
21
77.6427395
0
LINE
8
DEFAULT_255_2_778
10
10.6954365
20
63.8928395
11
13.0965365
21
63.8928395
0
LINE
8
DEFAULT_255_2_778
10
13.0965365
20
63.8928395
11
13.1727365
21
63.9079395
0
LINE
8
DEFAULT_255_2_778
10
13.1727365
20
63.9079395
11
13.2375365
21
63.9510395
0
LINE
8
DEFAULT_255_2_778
10
13.2375365
20
63.9510395
11
13.2806365
21
64.0158395
0
LINE
8
DEFAULT_255_2_778
10
13.2806365
20
64.0158395
11
13.2965365
21
64.0923395
0
LINE
8
DEFAULT_255_2_778
10
13.2965365
20
64.0923395
11
13.2965365
21
75.9430395
0
LINE
8
DEFAULT_255_2_778
10
13.2965365
20
75.9430395
11
13.2806365
21
76.0194395
0
LINE
8
DEFAULT_255_2_778
10
13.2806365
20
76.0194395
11
13.2375365
21
76.0843395
0
LINE
8
DEFAULT_255_2_778
10
13.2375365
20
76.0843395
11
13.1727365
21
76.1277395
0
LINE
8
DEFAULT_255_2_778
10
13.1727365
20
76.1277395
11
13.0965365
21
76.1427395
0
LINE
8
DEFAULT_255_2_778
10
13.0965365
20
76.1427395
11
10.6954365
21
76.1427395
0
LINE
8
DEFAULT_255_2_778
10
10.6954365
20
76.1427395
11
10.6195365
21
76.1277395
0
LINE
8
DEFAULT_255_2_778
10
10.6195365
20
76.1277395
11
10.5544365
21
76.0843395
0
LINE
8
DEFAULT_255_2_778
10
10.5544365
20
76.0843395
11
10.5115365
21
76.0194395
0
LINE
8
DEFAULT_255_2_778
10
10.5115365
20
76.0194395
11
10.4954365
21
75.9430395
0
LINE
8
DEFAULT_255_2_778
10
10.4954365
20
75.9430395
11
10.4954365
21
64.0926395
0
LINE
8
DEFAULT_255_2_778
10
10.4954365
20
64.0926395
11
10.5115365
21
64.0161395
0
LINE
8
DEFAULT_255_2_778
10
10.5115365
20
64.0161395
11
10.5544365
21
63.9513395
0
LINE
8
DEFAULT_255_2_778
10
10.5544365
20
63.9513395
11
10.6195365
21
63.9081395
0
LINE
8
DEFAULT_255_2_778
10
10.6195365
20
63.9081395
11
10.6954365
21
63.8931395
0
LINE
8
DEFAULT_255_2_778
10
6.1943365
20
64.0926395
11
6.1943365
21
75.9430395
0
LINE
8
DEFAULT_255_2_778
10
6.1943365
20
75.9430395
11
6.2102365
21
76.0194395
0
LINE
8
DEFAULT_255_2_778
10
6.2102365
20
76.0194395
11
6.2533365
21
76.0843395
0
LINE
8
DEFAULT_255_2_778
10
6.2533365
20
76.0843395
11
6.3184365
21
76.1277395
0
LINE
8
DEFAULT_255_2_778
10
6.3184365
20
76.1277395
11
6.3943365
21
76.1427395
0
LINE
8
DEFAULT_255_2_778
10
6.3943365
20
76.1427395
11
8.7954365
21
76.1427395
0
LINE
8
DEFAULT_255_2_778
10
8.7954365
20
76.1427395
11
8.8714365
21
76.1277395
0
LINE
8
DEFAULT_255_2_778
10
8.8714365
20
76.1277395
11
8.9364365
21
76.0843395
0
LINE
8
DEFAULT_255_2_778
10
8.9364365
20
76.0843395
11
8.9796365
21
76.0194395
0
LINE
8
DEFAULT_255_2_778
10
8.9796365
20
76.0194395
11
8.9954365
21
75.9430395
0
LINE
8
DEFAULT_255_2_778
10
8.9954365
20
75.9430395
11
8.9954365
21
64.0926395
0
LINE
8
DEFAULT_255_2_778
10
6.1954365
20
64.0923395
11
6.2112365
21
64.0158395
0
LINE
8
DEFAULT_255_2_778
10
6.2112365
20
64.0158395
11
6.2544365
21
63.9510395
0
LINE
8
DEFAULT_255_2_778
10
6.2544365
20
63.9510395
11
6.3192365
21
63.9079395
0
LINE
8
DEFAULT_255_2_778
10
8.7962365
20
63.8928395
11
8.8721365
21
63.9079395
0
LINE
8
DEFAULT_255_2_778
10
8.8721365
20
63.9079395
11
8.9372365
21
63.9510395
0
LINE
8
DEFAULT_255_2_778
10
8.9372365
20
63.9510395
11
8.9804365
21
64.0158395
0
LINE
8
DEFAULT_255_2_778
10
8.9804365
20
64.0158395
11
8.9962365
21
64.0923395
0
LINE
8
DEFAULT_255_2_778
10
6.3192365
20
63.9079395
11
6.3954365
21
63.8928395
0
LINE
8
DEFAULT_255_2_778
10
6.3954365
20
63.8928395
11
8.7965365
21
63.8928395
0
LINE
8
DEFAULT_255_2_778
10
10.5544365
20
22.0841395
11
10.5115365
21
22.0193395
0
LINE
8
DEFAULT_255_2_778
10
10.5115365
20
22.0193395
11
10.4954365
21
21.9428395
0
LINE
8
DEFAULT_255_2_778
10
10.4954365
20
21.9428395
11
10.4954365
21
10.0924395
0
LINE
8
DEFAULT_255_2_778
10
10.4954365
20
10.0924395
11
10.5115365
21
10.0160395
0
LINE
8
DEFAULT_255_2_778
10
10.5115365
20
10.0160395
11
10.5544365
21
9.9511395
0
LINE
8
DEFAULT_255_2_778
10
10.5544365
20
9.9511395
11
10.6195365
21
9.9080395
0
LINE
8
DEFAULT_255_2_778
10
10.6195365
20
9.9080395
11
10.6954365
21
9.8929395
0
LINE
8
DEFAULT_255_2_778
10
10.6954365
20
9.8929395
11
13.0965365
21
9.8929395
0
LINE
8
DEFAULT_255_2_778
10
13.0965365
20
9.8929395
11
13.1727365
21
9.9080395
0
LINE
8
DEFAULT_255_2_778
10
13.1727365
20
9.9080395
11
13.2375365
21
9.9511395
0
LINE
8
DEFAULT_255_2_778
10
13.2375365
20
9.9511395
11
13.2806365
21
10.0160395
0
LINE
8
DEFAULT_255_2_778
10
13.2806365
20
10.0160395
11
13.2965365
21
10.0924395
0
LINE
8
DEFAULT_255_2_778
10
13.2965365
20
10.0924395
11
13.2965365
21
21.9428395
0
LINE
8
DEFAULT_255_2_778
10
13.2965365
20
21.9428395
11
13.2806365
21
22.0193395
0
LINE
8
DEFAULT_255_2_778
10
13.2806365
20
22.0193395
11
13.2375365
21
22.0841395
0
LINE
8
DEFAULT_255_2_778
10
13.2375365
20
22.0841395
11
13.1727365
21
22.1275395
0
LINE
8
DEFAULT_255_2_778
10
13.1727365
20
22.1275395
11
13.0965365
21
22.1426395
0
LINE
8
DEFAULT_255_2_778
10
13.0965365
20
22.1426395
11
10.6954365
21
22.1426395
0
LINE
8
DEFAULT_255_2_778
10
10.6954365
20
22.1426395
11
10.6195365
21
22.1275395
0
LINE
8
DEFAULT_255_2_778
10
10.6195365
20
22.1275395
11
10.5544365
21
22.0841395
0
LINE
8
DEFAULT_255_2_778
10
8.9364365
20
22.0841395
11
8.8714365
21
22.1275395
0
LINE
8
DEFAULT_255_2_778
10
8.8714365
20
22.1275395
11
8.7954365
21
22.1426395
0
LINE
8
DEFAULT_255_2_778
10
8.7954365
20
22.1426395
11
6.3943365
21
22.1426395
0
LINE
8
DEFAULT_255_2_778
10
6.3943365
20
22.1426395
11
6.3184365
21
22.1275395
0
LINE
8
DEFAULT_255_2_778
10
6.3184365
20
22.1275395
11
6.2533365
21
22.0841395
0
LINE
8
DEFAULT_255_2_778
10
6.2533365
20
22.0841395
11
6.2102365
21
22.0193395
0
LINE
8
DEFAULT_255_2_778
10
6.2102365
20
22.0193395
11
6.1943365
21
21.9428395
0
LINE
8
DEFAULT_255_2_778
10
6.3192365
20
9.9080395
11
6.3954365
21
9.8929395
0
LINE
8
DEFAULT_255_2_778
10
6.3954365
20
9.8929395
11
8.7965365
21
9.8929395
0
LINE
8
DEFAULT_255_2_778
10
8.7965365
20
9.8929395
11
8.8724365
21
9.9080395
0
LINE
8
DEFAULT_255_2_778
10
8.8724365
20
9.9080395
11
8.9375365
21
9.9511395
0
LINE
8
DEFAULT_255_2_778
10
8.9954365
20
21.9428395
11
8.9796365
21
22.0193395
0
LINE
8
DEFAULT_255_2_778
10
8.9796365
20
22.0193395
11
8.9364365
21
22.0841395
0
LINE
8
DEFAULT_255_2_778
10
8.9375365
20
9.9511395
11
8.9806365
21
10.0160395
0
LINE
8
DEFAULT_255_2_778
10
8.9806365
20
10.0160395
11
8.9965365
21
10.0924395
0
LINE
8
DEFAULT_255_2_778
10
8.9965365
20
10.0924395
11
8.9965365
21
21.9185395
0
LINE
8
DEFAULT_255_2_778
10
6.1954365
20
21.9476395
11
6.1954365
21
10.0924395
0
LINE
8
DEFAULT_255_2_778
10
6.1954365
20
10.0924395
11
6.2112365
21
10.0160395
0
LINE
8
DEFAULT_255_2_778
10
6.2112365
20
10.0160395
11
6.2544365
21
9.9511395
0
LINE
8
DEFAULT_255_2_778
10
6.2544365
20
9.9511395
11
6.3192365
21
9.9080395
0
LINE
8
DEFAULT_255_2_778
10
53.5444365
20
22.0841395
11
53.5015365
21
22.0193395
0
LINE
8
DEFAULT_255_2_778
10
53.5015365
20
22.0193395
11
53.4857365
21
21.9428395
0
LINE
8
DEFAULT_255_2_778
10
53.4857365
20
21.9428395
11
53.4857365
21
10.0924395
0
LINE
8
DEFAULT_255_2_778
10
53.4857365
20
10.0924395
11
53.5015365
21
10.0160395
0
LINE
8
DEFAULT_255_2_778
10
53.5015365
20
10.0160395
11
53.5444365
21
9.9511395
0
LINE
8
DEFAULT_255_2_778
10
53.5444365
20
9.9511395
11
53.6095365
21
9.9080395
0
LINE
8
DEFAULT_255_2_778
10
53.6095365
20
9.9080395
11
53.6854365
21
9.8929395
0
LINE
8
DEFAULT_255_2_778
10
53.6854365
20
9.8929395
11
56.0865365
21
9.8929395
0
LINE
8
DEFAULT_255_2_778
10
56.0865365
20
9.8929395
11
56.1627365
21
9.9080395
0
LINE
8
DEFAULT_255_2_778
10
56.1627365
20
9.9080395
11
56.2275365
21
9.9511395
0
LINE
8
DEFAULT_255_2_778
10
56.2275365
20
9.9511395
11
56.2707365
21
10.0160395
0
LINE
8
DEFAULT_255_2_778
10
56.2707365
20
10.0160395
11
56.2868365
21
10.0924395
0
LINE
8
DEFAULT_255_2_778
10
56.2868365
20
10.0924395
11
56.2868365
21
21.9428395
0
LINE
8
DEFAULT_255_2_778
10
56.2868365
20
21.9428395
11
56.2707365
21
22.0193395
0
LINE
8
DEFAULT_255_2_778
10
56.2707365
20
22.0193395
11
56.2275365
21
22.0841395
0
LINE
8
DEFAULT_255_2_778
10
56.2275365
20
22.0841395
11
56.1627365
21
22.1275395
0
LINE
8
DEFAULT_255_2_778
10
56.1627365
20
22.1275395
11
56.0865365
21
22.1426395
0
LINE
8
DEFAULT_255_2_778
10
56.0865365
20
22.1426395
11
53.6854365
21
22.1426395
0
LINE
8
DEFAULT_255_2_778
10
53.6854365
20
22.1426395
11
53.6095365
21
22.1275395
0
LINE
8
DEFAULT_255_2_778
10
53.6095365
20
22.1275395
11
53.5444365
21
22.0841395
0
LINE
8
DEFAULT_255_2_778
10
76.4049365
20
14.7406395
11
75.2855365
21
14.6427395
0
LINE
8
DEFAULT_255_2_778
10
65.2353365
20
71.6427395
11
81.7852365
21
71.6427395
0
LINE
8
DEFAULT_255_2_778
10
81.7852365
20
71.6427395
11
81.7852365
21
12.1427395
0
LINE
8
DEFAULT_255_2_778
10
81.7852365
20
12.1427395
11
65.2353365
21
12.1427395
0
ARC
8
DEFAULT_255_2_778
10
0.5365408
20
94.5925581
40
0.3001094
50
90.0208901
51
179.9791099
0
ARC
8
DEFAULT_255_2_778
10
0.5365408
20
5.1926769
40
0.3001094
50
180.0208901
51
269.9791099
0
LINE
8
DEFAULT_255_2_778
10
81.7854313
20
13.3427675
11
79.4854313
21
13.3427675
0
LINE
8
DEFAULT_255_2_778
10
79.4854313
20
13.3427675
11
79.4854313
21
70.4427675
0
LINE
8
DEFAULT_255_2_778
10
79.4854313
20
70.4427675
11
81.7854313
21
70.4427675
0
LINE
8
DEFAULT_255_2_778
10
76.4049313
20
69.0447675
11
75.2854313
21
69.1426675
0
LINE
8
DEFAULT_255_2_778
10
4.2353313
20
32.4925675
11
4.2353313
21
32.7925675
0
LINE
8
DEFAULT_255_2_778
10
0.2353313
20
31.9924675
11
2.0353313
21
34.9925675
0
LINE
8
DEFAULT_255_2_778
10
2.0353313
20
34.9925675
11
3.0354313
21
34.9925675
0
LINE
8
DEFAULT_255_2_778
10
2.4353313
20
32.4324675
11
2.4353313
21
32.7925675
0
LINE
8
DEFAULT_255_2_778
10
3.2354313
20
32.7925675
11
3.0354313
21
34.9925675
0
LINE
8
DEFAULT_255_2_778
10
4.2353313
20
32.7925675
11
2.4353313
21
32.7925675
0
LINE
8
DEFAULT_255_2_778
10
49.3843313
20
77.6426675
11
49.3084313
21
77.6576675
0
LINE
8
DEFAULT_255_2_778
10
49.3084313
20
77.6576675
11
49.2433313
21
77.7008675
0
LINE
8
DEFAULT_255_2_778
10
49.2433313
20
77.7010675
11
49.2001313
21
77.7659675
0
LINE
8
DEFAULT_255_2_778
10
49.2001313
20
77.7659675
11
49.1840313
21
77.8423675
0
ARC
8
DEFAULT_255_2_778
10
5.3324334
20
62.7934357
40
1.4972736
50
137.1169558
51
156.8407537
0
ARC
8
DEFAULT_255_2_778
10
5.3365742
20
62.7930458
40
1.5012346
50
156.8892271
51
180.0213487
0
ARC
8
DEFAULT_255_2_778
10
5.3332699
20
62.7913989
40
1.4979306
50
179.9584016
51
211.1301642
0
ARC
8
DEFAULT_255_2_778
10
5.3383311
20
62.7960602
40
1.5046733
50
211.1824649
51
222.8564203
0
ARC
8
DEFAULT_255_2_778
10
76.2913323
20
16.036191
40
1.3005246
50
275.0101704
51
344.1016087
0
ARC
8
DEFAULT_255_2_778
10
76.2913323
20
25.536291
40
1.3005246
50
275.0101704
51
344.1016087
0
ARC
8
DEFAULT_255_2_778
10
76.2913323
20
35.036091
40
1.3005246
50
275.0101704
51
344.1016087
0
ARC
8
DEFAULT_255_2_778
10
76.2913323
20
44.536291
40
1.3005246
50
275.0101704
51
344.1016087
0
ARC
8
DEFAULT_255_2_778
10
76.2913323
20
54.036091
40
1.3005246
50
275.0101704
51
344.1016087
0
ARC
8
DEFAULT_255_2_778
10
76.2913323
20
63.536291
40
1.3005246
50
275.0101704
51
344.1016087
0
LINE
8
DEFAULT_255_2_778
10
13.0962089
20
89.8925718
11
49.3843089
21
89.8925718
0
LINE
8
DEFAULT_255_2_778
10
13.0962089
20
76.1426718
11
49.3843089
21
76.1426718
0
LINE
8
DEFAULT_255_2_778
10
13.0962089
20
77.6426718
11
49.3843089
21
77.6426718
0
LINE
8
DEFAULT_255_2_778
10
49.3843089
20
63.8927718
11
13.0962089
21
63.8927718
0
LINE
8
DEFAULT_255_2_778
10
13.0962089
20
35.8926718
11
49.3843089
21
35.8926718
0
LINE
8
DEFAULT_255_2_778
10
13.0962089
20
22.1428718
11
49.3843089
21
22.1428718
0
LINE
8
DEFAULT_255_2_778
10
49.3843089
20
23.6427718
11
13.0962089
21
23.6427718
0
LINE
8
DEFAULT_255_2_778
10
49.3843089
20
9.8926718
11
13.0962089
21
9.8926718
0
LINE
8
DEFAULT_255_2_778
10
53.5444089
20
89.8340718
11
53.5015089
21
89.7692718
0
LINE
8
DEFAULT_255_2_778
10
53.5015089
20
89.7692718
11
53.4856089
21
89.6927718
0
LINE
8
DEFAULT_255_2_778
10
53.4856089
20
89.6927718
11
53.4856089
21
77.8423718
0
LINE
8
DEFAULT_255_2_778
10
53.4856089
20
77.8423718
11
53.5015089
21
77.7659718
0
LINE
8
DEFAULT_255_2_778
10
53.5015089
20
77.7659718
11
53.5444089
21
77.7010718
0
LINE
8
DEFAULT_255_2_778
10
53.5444089
20
77.7010718
11
53.6095089
21
77.6579718
0
LINE
8
DEFAULT_255_2_778
10
53.6095089
20
77.6579718
11
53.6854089
21
77.6428718
0
LINE
8
DEFAULT_255_2_778
10
53.6854089
20
77.6428718
11
56.0865089
21
77.6428718
0
LINE
8
DEFAULT_255_2_778
10
56.0865089
20
77.6428718
11
56.1627089
21
77.6579718
0
LINE
8
DEFAULT_255_2_778
10
56.1627089
20
77.6579718
11
56.2275089
21
77.7010718
0
LINE
8
DEFAULT_255_2_778
10
56.2275089
20
77.7010718
11
56.2706089
21
77.7659718
0
LINE
8
DEFAULT_255_2_778
10
56.2706089
20
77.7659718
11
56.2868089
21
77.8423718
0
LINE
8
DEFAULT_255_2_778
10
56.2868089
20
77.8423718
11
56.2868089
21
89.6927718
0
LINE
8
DEFAULT_255_2_778
10
56.2868089
20
89.6927718
11
56.2706089
21
89.7692718
0
LINE
8
DEFAULT_255_2_778
10
56.2706089
20
89.7692718
11
56.2275089
21
89.8340718
0
LINE
8
DEFAULT_255_2_778
10
56.2275089
20
89.8340718
11
56.1627089
21
89.8774718
0
LINE
8
DEFAULT_255_2_778
10
56.1627089
20
89.8774718
11
56.0865089
21
89.8925718
0
LINE
8
DEFAULT_255_2_778
10
56.0865089
20
89.8925718
11
53.6854089
21
89.8925718
0
LINE
8
DEFAULT_255_2_778
10
53.6854089
20
89.8925718
11
53.6095089
21
89.8774718
0
LINE
8
DEFAULT_255_2_778
10
53.6095089
20
89.8774718
11
53.5444089
21
89.8340718
0
LINE
8
DEFAULT_255_2_778
10
49.3843105
20
77.6427488
11
51.7854105
21
77.6427488
0
LINE
8
DEFAULT_255_2_778
10
51.7854105
20
77.6427488
11
51.8613105
21
77.6577488
0
LINE
8
DEFAULT_255_2_778
10
51.8613105
20
77.6577488
11
51.9264105
21
77.7009488
0
LINE
8
DEFAULT_255_2_778
10
51.9264105
20
77.7009488
11
51.9695105
21
77.7657488
0
LINE
8
DEFAULT_255_2_778
10
51.9695105
20
77.7657488
11
51.9857105
21
77.8422488
0
LINE
8
DEFAULT_255_2_778
10
51.9857105
20
77.8422488
11
51.9857105
21
89.6928488
0
LINE
8
DEFAULT_255_2_778
10
51.9857105
20
89.6928488
11
51.9695105
21
89.7693488
0
LINE
8
DEFAULT_255_2_778
10
51.9695105
20
89.7693488
11
51.9264105
21
89.8341488
0
LINE
8
DEFAULT_255_2_778
10
51.9264105
20
89.8341488
11
51.8613105
21
89.8775488
0
LINE
8
DEFAULT_255_2_778
10
51.8613105
20
89.8775488
11
51.7854105
21
89.8926488
0
LINE
8
DEFAULT_255_2_778
10
51.7854105
20
89.8926488
11
49.3843105
21
89.8926488
0
LINE
8
DEFAULT_255_2_778
10
49.3843105
20
89.8926488
11
49.3084105
21
89.8775488
0
LINE
8
DEFAULT_255_2_778
10
49.3084105
20
89.8775488
11
49.2433105
21
89.8341488
0
LINE
8
DEFAULT_255_2_778
10
49.2433105
20
89.8341488
11
49.2001105
21
89.7693488
0
LINE
8
DEFAULT_255_2_778
10
49.2001105
20
89.7693488
11
49.1843105
21
89.6928488
0
LINE
8
DEFAULT_255_2_778
10
49.1843105
20
89.6928488
11
49.1843105
21
77.8424488
0
LINE
8
DEFAULT_255_2_778
10
8.7951105
20
77.6427488
11
8.8710105
21
77.6577488
0
LINE
8
DEFAULT_255_2_778
10
8.8710105
20
77.6577488
11
8.9361105
21
77.7009488
0
LINE
8
DEFAULT_255_2_778
10
8.9361105
20
77.7009488
11
8.9792105
21
77.7657488
0
LINE
8
DEFAULT_255_2_778
10
6.2101105
20
77.7660488
11
6.2532105
21
77.7011488
0
LINE
8
DEFAULT_255_2_778
10
6.2532105
20
77.7011488
11
6.3183105
21
77.6580488
0
LINE
8
DEFAULT_255_2_778
10
6.3183105
20
77.6580488
11
6.3943105
21
77.6429488
0
LINE
8
DEFAULT_255_2_778
10
53.5443105
20
76.0843488
11
53.5015105
21
76.0194488
0
LINE
8
DEFAULT_255_2_778
10
53.5015105
20
76.0194488
11
53.4856105
21
75.9430488
0
LINE
8
DEFAULT_255_2_778
10
53.4856105
20
75.9430488
11
53.4856105
21
64.0926488
0
LINE
8
DEFAULT_255_2_778
10
53.4856105
20
64.0926488
11
53.5015105
21
64.0161488
0
LINE
8
DEFAULT_255_2_778
10
53.5015105
20
64.0161488
11
53.5443105
21
63.9513488
0
LINE
8
DEFAULT_255_2_778
10
53.5443105
20
63.9513488
11
53.6094105
21
63.9081488
0
LINE
8
DEFAULT_255_2_778
10
53.6094105
20
63.9081488
11
53.6854105
21
63.8931488
0
LINE
8
DEFAULT_255_2_778
10
53.6854105
20
63.8931488
11
56.0865105
21
63.8931488
0
LINE
8
DEFAULT_255_2_778
10
56.0865105
20
63.8931488
11
56.1627105
21
63.9081488
0
LINE
8
DEFAULT_255_2_778
10
56.1627105
20
63.9081488
11
56.2275105
21
63.9513488
0
LINE
8
DEFAULT_255_2_778
10
56.2275105
20
63.9513488
11
56.2706105
21
64.0161488
0
LINE
8
DEFAULT_255_2_778
10
56.2706105
20
64.0161488
11
56.2867105
21
64.0926488
0
LINE
8
DEFAULT_255_2_778
10
56.2867105
20
64.0926488
11
56.2867105
21
75.9430488
0
LINE
8
DEFAULT_255_2_778
10
56.2867105
20
75.9430488
11
56.2706105
21
76.0194488
0
LINE
8
DEFAULT_255_2_778
10
56.2706105
20
76.0194488
11
56.2275105
21
76.0843488
0
LINE
8
DEFAULT_255_2_778
10
56.2275105
20
76.0843488
11
56.1627105
21
76.1277488
0
LINE
8
DEFAULT_255_2_778
10
56.1627105
20
76.1277488
11
56.0865105
21
76.1427488
0
LINE
8
DEFAULT_255_2_778
10
56.0865105
20
76.1427488
11
53.6854105
21
76.1427488
0
LINE
8
DEFAULT_255_2_778
10
53.6854105
20
76.1427488
11
53.6094105
21
76.1277488
0
LINE
8
DEFAULT_255_2_778
10
53.6094105
20
76.1277488
11
53.5443105
21
76.0843488
0
LINE
8
DEFAULT_255_2_778
10
51.7854105
20
63.8928488
11
51.8613105
21
63.9079488
0
LINE
8
DEFAULT_255_2_778
10
51.8613105
20
63.9079488
11
51.9264105
21
63.9510488
0
LINE
8
DEFAULT_255_2_778
10
51.9264105
20
63.9510488
11
51.9695105
21
64.0158488
0
LINE
8
DEFAULT_255_2_778
10
51.9695105
20
64.0158488
11
51.9857105
21
64.0923488
0
LINE
8
DEFAULT_255_2_778
10
51.9857105
20
64.0923488
11
51.9857105
21
75.9430488
0
LINE
8
DEFAULT_255_2_778
10
51.9857105
20
75.9430488
11
51.9695105
21
76.0194488
0
LINE
8
DEFAULT_255_2_778
10
51.9695105
20
76.0194488
11
51.9264105
21
76.0843488
0
LINE
8
DEFAULT_255_2_778
10
51.9264105
20
76.0843488
11
51.8613105
21
76.1277488
0
LINE
8
DEFAULT_255_2_778
10
51.8613105
20
76.1277488
11
51.7854105
21
76.1427488
0
LINE
8
DEFAULT_255_2_778
10
51.7854105
20
76.1427488
11
49.3843105
21
76.1427488
0
LINE
8
DEFAULT_255_2_778
10
49.3843105
20
76.1427488
11
49.3084105
21
76.1277488
0
LINE
8
DEFAULT_255_2_778
10
49.3084105
20
76.1277488
11
49.2433105
21
76.0843488
0
LINE
8
DEFAULT_255_2_778
10
49.2433105
20
76.0843488
11
49.2001105
21
76.0194488
0
LINE
8
DEFAULT_255_2_778
10
49.2001105
20
76.0194488
11
49.1843105
21
75.9430488
0
LINE
8
DEFAULT_255_2_778
10
49.1843105
20
75.9430488
11
49.1843105
21
64.0926488
0
LINE
8
DEFAULT_255_2_778
10
56.2272105
20
23.7010488
11
56.2703105
21
23.7658488
0
LINE
8
DEFAULT_255_2_778
10
56.2703105
20
23.7658488
11
56.2865105
21
23.8423488
0
LINE
8
DEFAULT_255_2_778
10
56.2865105
20
23.8423488
11
56.2865105
21
35.6927488
0
LINE
8
DEFAULT_255_2_778
10
56.2865105
20
35.6927488
11
56.2703105
21
35.7692488
0
LINE
8
DEFAULT_255_2_778
10
56.2703105
20
35.7692488
11
56.2272105
21
35.8340488
0
LINE
8
DEFAULT_255_2_778
10
56.2272105
20
35.8340488
11
56.1624105
21
35.8774488
0
LINE
8
DEFAULT_255_2_778
10
56.1624105
20
35.8774488
11
56.0862105
21
35.8925488
0
LINE
8
DEFAULT_255_2_778
10
56.0862105
20
35.8925488
11
53.6851105
21
35.8925488
0
LINE
8
DEFAULT_255_2_778
10
53.6851105
20
35.8925488
11
53.6092105
21
35.8774488
0
LINE
8
DEFAULT_255_2_778
10
53.6092105
20
35.8774488
11
53.5441105
21
35.8340488
0
LINE
8
DEFAULT_255_2_778
10
53.5441105
20
35.8340488
11
53.5012105
21
35.7692488
0
LINE
8
DEFAULT_255_2_778
10
53.5012105
20
35.7692488
11
53.4853105
21
35.6927488
0
LINE
8
DEFAULT_255_2_778
10
53.4853105
20
35.6927488
11
53.4853105
21
23.8423488
0
LINE
8
DEFAULT_255_2_778
10
53.4853105
20
23.8423488
11
53.5012105
21
23.7658488
0
LINE
8
DEFAULT_255_2_778
10
53.5012105
20
23.7658488
11
53.5441105
21
23.7010488
0
LINE
8
DEFAULT_255_2_778
10
53.5441105
20
23.7010488
11
53.6092105
21
23.6579488
0
LINE
8
DEFAULT_255_2_778
10
53.6092105
20
23.6579488
11
53.6851105
21
23.6428488
0
LINE
8
DEFAULT_255_2_778
10
53.6851105
20
23.6428488
11
56.0862105
21
23.6428488
0
LINE
8
DEFAULT_255_2_778
10
56.0862105
20
23.6428488
11
56.1624105
21
23.6579488
0
LINE
8
DEFAULT_255_2_778
10
56.1624105
20
23.6579488
11
56.2272105
21
23.7010488
0
LINE
8
DEFAULT_255_2_778
10
51.9264105
20
35.8343488
11
51.8613105
21
35.8776488
0
LINE
8
DEFAULT_255_2_778
10
51.8613105
20
35.8776488
11
51.7854105
21
35.8927488
0
LINE
8
DEFAULT_255_2_778
10
51.7854105
20
35.8927488
11
49.3843105
21
35.8927488
0
LINE
8
DEFAULT_255_2_778
10
49.3843105
20
35.8927488
11
49.3084105
21
35.8776488
0
LINE
8
DEFAULT_255_2_778
10
49.3084105
20
35.8776488
11
49.2433105
21
35.8343488
0
LINE
8
DEFAULT_255_2_778
10
49.2433105
20
35.8343488
11
49.2001105
21
35.7694488
0
LINE
8
DEFAULT_255_2_778
10
49.2001105
20
35.7694488
11
49.1843105
21
35.6930488
0
LINE
8
DEFAULT_255_2_778
10
49.1843105
20
35.6930488
11
49.1843105
21
23.8425488
0
LINE
8
DEFAULT_255_2_778
10
49.1843105
20
23.8425488
11
49.2001105
21
23.7661488
0
LINE
8
DEFAULT_255_2_778
10
49.2001105
20
23.7661488
11
49.2433105
21
23.7013488
0
LINE
8
DEFAULT_255_2_778
10
49.2433105
20
23.7013488
11
49.3084105
21
23.6581488
0
LINE
8
DEFAULT_255_2_778
10
49.3084105
20
23.6581488
11
49.3843105
21
23.6431488
0
LINE
8
DEFAULT_255_2_778
10
49.3843105
20
23.6431488
11
51.7854105
21
23.6431488
0
LINE
8
DEFAULT_255_2_778
10
51.7854105
20
23.6431488
11
51.8613105
21
23.6581488
0
LINE
8
DEFAULT_255_2_778
10
51.8613105
20
23.6581488
11
51.9264105
21
23.7013488
0
LINE
8
DEFAULT_255_2_778
10
51.9264105
20
23.7013488
11
51.9695105
21
23.7661488
0
LINE
8
DEFAULT_255_2_778
10
51.9695105
20
23.7661488
11
51.9857105
21
23.8425488
0
LINE
8
DEFAULT_255_2_778
10
51.9857105
20
23.8425488
11
51.9857105
21
35.6930488
0
LINE
8
DEFAULT_255_2_778
10
51.9857105
20
35.6930488
11
51.9695105
21
35.7694488
0
LINE
8
DEFAULT_255_2_778
10
51.9695105
20
35.7694488
11
51.9264105
21
35.8343488
0
LINE
8
DEFAULT_255_2_778
10
76.4049105
20
24.2407488
11
75.2854105
21
24.1428488
0
LINE
8
DEFAULT_255_2_778
10
76.4049105
20
21.5449488
11
75.2854105
21
21.6428488
0
LINE
8
DEFAULT_255_2_778
10
76.4049105
20
33.7406488
11
75.2854105
21
33.6427488
0
LINE
8
DEFAULT_255_2_778
10
76.4049105
20
31.0448488
11
75.2854105
21
31.1427488
0
LINE
8
DEFAULT_255_2_778
10
76.4049105
20
43.2407488
11
75.2854105
21
43.1428488
0
LINE
8
DEFAULT_255_2_778
10
76.4049105
20
40.5449488
11
75.2854105
21
40.6428488
0
LINE
8
DEFAULT_255_2_778
10
76.4049105
20
52.7406488
11
75.2854105
21
52.6427488
0
LINE
8
DEFAULT_255_2_778
10
76.4049105
20
50.0448488
11
75.2854105
21
50.1427488
0
LINE
8
DEFAULT_255_2_778
10
77.8855105
20
56.1426488
11
77.3005105
21
56.7276488
0
LINE
8
DEFAULT_255_2_778
10
77.8855105
20
56.1426488
11
77.3005105
21
55.5576488
0
LINE
8
DEFAULT_255_2_778
10
76.4049105
20
62.2407488
11
75.2854105
21
62.1428488
0
LINE
8
DEFAULT_255_2_778
10
76.4049105
20
59.5449488
11
75.2854105
21
59.6428488
0
LINE
8
DEFAULT_255_2_778
10
4.2353105
20
3.7927488
11
0.2353105
21
3.7927488
0
LINE
8
DEFAULT_255_2_778
10
4.2353105
20
1.7927488
11
0.2353105
21
1.7927488
0
LINE
8
DEFAULT_255_2_778
10
0.2353146
20
-0.2072459
11
4.2353146
21
-0.2072459
0
LINE
8
DEFAULT_255_2_778
10
4.2353146
20
-0.2072459
11
4.2353146
21
4.8928541
0
ARC
8
DEFAULT_255_2_778
10
76.2919037
20
20.2497719
40
1.2997855
50
15.8759509
51
85.012258
0
ARC
8
DEFAULT_255_2_778
10
68.8872661
20
18.1426939
40
8.9982862
50
344.1177351
51
0.0007347
0
ARC
8
DEFAULT_255_2_778
10
68.8872661
20
18.1429247
40
8.9982862
50
359.9992653
51
15.8822649
0
LINE
8
DEFAULT_255_2_778
10
73.0855261
20
14.192677
11
73.0855261
21
22.092577
0
LINE
8
DEFAULT_255_2_778
10
73.0855261
20
22.092577
11
74.2853261
21
22.092577
0
LINE
8
DEFAULT_255_2_778
10
74.2853261
20
22.092577
11
74.2853261
21
14.192677
0
LINE
8
DEFAULT_255_2_778
10
74.2853261
20
14.192677
11
73.0855261
21
14.192677
0
LINE
8
DEFAULT_255_2_778
10
72.5854261
20
14.092577
11
72.5854261
21
22.192577
0
LINE
8
DEFAULT_255_2_778
10
79.4854637
20
22.192577
11
65.6855637
21
22.192577
0
LINE
8
DEFAULT_255_2_778
10
65.6855637
20
22.192577
11
65.6855637
21
14.092577
0
LINE
8
DEFAULT_255_2_778
10
65.6855637
20
14.092577
11
79.4854637
21
14.092577
0
LINE
8
DEFAULT_255_2_778
10
71.4855
20
14.092577
11
71.4855
21
22.192577
0
LINE
8
DEFAULT_255_2_778
10
77.3005164
20
18.7275937
11
77.8855164
21
18.1425937
0
LINE
8
DEFAULT_255_2_778
10
77.8855164
20
18.1425937
11
77.3005164
21
17.5575937
0
LINE
8
DEFAULT_255_2_778
10
74.2856375
20
21.9425457
11
75.2857375
21
21.9425457
0
LINE
8
DEFAULT_255_2_778
10
75.2857375
20
21.9425457
11
75.2857375
21
14.3426457
0
LINE
8
DEFAULT_255_2_778
10
75.2857375
20
14.3426457
11
74.2856375
21
14.3426457
0
LINE
8
DEFAULT_255_2_778
10
68.4854
20
14.092577
11
68.4854
21
22.192577
0
ARC
8
DEFAULT_255_2_778
10
76.2919037
20
29.7498719
40
1.2997855
50
15.8759509
51
85.012258
0
ARC
8
DEFAULT_255_2_778
10
68.8872661
20
27.6424939
40
8.9982862
50
344.1177351
51
0.0007347
0
ARC
8
DEFAULT_255_2_778
10
68.8872661
20
27.6427247
40
8.9982862
50
359.9992653
51
15.8822649
0
LINE
8
DEFAULT_255_2_778
10
73.0854573
20
23.6928645
11
73.0854573
21
31.5927645
0
LINE
8
DEFAULT_255_2_778
10
73.0854573
20
31.5927645
11
74.2853573
21
31.5927645
0
LINE
8
DEFAULT_255_2_778
10
74.2853573
20
31.5927645
11
74.2853573
21
23.6928645
0
LINE
8
DEFAULT_255_2_778
10
74.2853573
20
23.6928645
11
73.0854573
21
23.6928645
0
LINE
8
DEFAULT_255_2_778
10
72.5854
20
23.592777
11
72.5854
21
31.692777
0
LINE
8
DEFAULT_255_2_778
10
79.4854637
20
31.692777
11
65.6855637
21
31.692777
0
LINE
8
DEFAULT_255_2_778
10
65.6855637
20
31.692777
11
65.6855637
21
23.592777
0
LINE
8
DEFAULT_255_2_778
10
65.6855637
20
23.592777
11
79.4854637
21
23.592777
0
LINE
8
DEFAULT_255_2_778
10
71.4855
20
23.592777
11
71.4855
21
31.692777
0
LINE
8
DEFAULT_255_2_778
10
77.3005164
20
28.2274937
11
77.8855164
21
27.6424937
0
LINE
8
DEFAULT_255_2_778
10
77.8855164
20
27.6424937
11
77.3005164
21
27.0574937
0
LINE
8
DEFAULT_255_2_778
10
74.2856375
20
31.4427457
11
75.2857375
21
31.4427457
0
LINE
8
DEFAULT_255_2_778
10
75.2857375
20
31.4427457
11
75.2857375
21
23.8428457
0
LINE
8
DEFAULT_255_2_778
10
75.2857375
20
23.8428457
11
74.2856375
21
23.8428457
0
LINE
8
DEFAULT_255_2_778
10
68.4854
20
23.592777
11
68.4854
21
31.692777
0
ARC
8
DEFAULT_255_2_778
10
76.2919037
20
39.2497719
40
1.2997855
50
15.8759509
51
85.012258
0
ARC
8
DEFAULT_255_2_778
10
68.8872661
20
37.1426939
40
8.9982862
50
344.1177351
51
0.0007347
0
ARC
8
DEFAULT_255_2_778
10
68.8872661
20
37.1429247
40
8.9982862
50
359.9992653
51
15.8822649
0
LINE
8
DEFAULT_255_2_778
10
73.0854573
20
33.1926645
11
73.0854573
21
41.0925645
0
LINE
8
DEFAULT_255_2_778
10
73.0854573
20
41.0925645
11
74.2853573
21
41.0925645
0
LINE
8
DEFAULT_255_2_778
10
74.2853573
20
41.0925645
11
74.2853573
21
33.1926645
0
LINE
8
DEFAULT_255_2_778
10
74.2853573
20
33.1926645
11
73.0854573
21
33.1926645
0
LINE
8
DEFAULT_255_2_778
10
72.5854
20
33.092577
11
72.5854
21
41.192577
0
LINE
8
DEFAULT_255_2_778
10
79.4854637
20
33.092577
11
65.6855637
21
33.092577
0
LINE
8
DEFAULT_255_2_778
10
65.6855637
20
33.092577
11
65.6855637
21
41.192577
0
LINE
8
DEFAULT_255_2_778
10
65.6855637
20
41.192577
11
79.4854637
21
41.192577
0
LINE
8
DEFAULT_255_2_778
10
71.4855
20
33.092577
11
71.4855
21
41.192577
0
LINE
8
DEFAULT_255_2_778
10
77.3005164
20
37.7275937
11
77.8855164
21
37.1425937
0
LINE
8
DEFAULT_255_2_778
10
77.8855164
20
37.1425937
11
77.3005164
21
36.5575937
0
LINE
8
DEFAULT_255_2_778
10
74.2856375
20
40.9428457
11
75.2857375
21
40.9428457
0
LINE
8
DEFAULT_255_2_778
10
75.2857375
20
40.9428457
11
75.2857375
21
33.3429457
0
LINE
8
DEFAULT_255_2_778
10
75.2857375
20
33.3429457
11
74.2856375
21
33.3429457
0
LINE
8
DEFAULT_255_2_778
10
68.4854
20
33.092577
11
68.4854
21
41.192577
0
ARC
8
DEFAULT_255_2_778
10
76.2919037
20
48.7498719
40
1.2997855
50
15.8759509
51
85.012258
0
ARC
8
DEFAULT_255_2_778
10
68.8872661
20
46.6424939
40
8.9982862
50
344.1177351
51
0.0007347
0
ARC
8
DEFAULT_255_2_778
10
68.8872661
20
46.6427247
40
8.9982862
50
359.9992653
51
15.8822649
0
LINE
8
DEFAULT_255_2_778
10
73.0854573
20
42.6928645
11
73.0854573
21
50.5927645
0
LINE
8
DEFAULT_255_2_778
10
73.0854573
20
50.5927645
11
74.2853573
21
50.5927645
0
LINE
8
DEFAULT_255_2_778
10
74.2853573
20
50.5927645
11
74.2853573
21
42.6928645
0
LINE
8
DEFAULT_255_2_778
10
74.2853573
20
42.6928645
11
73.0854573
21
42.6928645
0
LINE
8
DEFAULT_255_2_778
10
77.3005164
20
47.2277937
11
77.8855164
21
46.6427937
0
LINE
8
DEFAULT_255_2_778
10
77.8855164
20
46.6427937
11
77.3005164
21
46.0577937
0
LINE
8
DEFAULT_255_2_778
10
74.2856375
20
50.4427457
11
75.2857375
21
50.4427457
0
LINE
8
DEFAULT_255_2_778
10
75.2857375
20
50.4427457
11
75.2857375
21
42.8428457
0
LINE
8
DEFAULT_255_2_778
10
75.2857375
20
42.8428457
11
74.2856375
21
42.8428457
0
LINE
8
DEFAULT_255_2_778
10
72.5854
20
42.592777
11
72.5854
21
50.692777
0
LINE
8
DEFAULT_255_2_778
10
79.4854637
20
42.592777
11
65.6855637
21
42.592777
0
LINE
8
DEFAULT_255_2_778
10
65.6855637
20
42.592777
11
65.6855637
21
50.692777
0
LINE
8
DEFAULT_255_2_778
10
65.6855637
20
50.692777
11
79.4854637
21
50.692777
0
LINE
8
DEFAULT_255_2_778
10
68.4854448
20
42.592777
11
68.4854448
21
50.692777
0
LINE
8
DEFAULT_255_2_778
10
71.4855448
20
42.592777
11
71.4855448
21
50.692777
0
ARC
8
DEFAULT_255_2_778
10
76.2919037
20
58.2497719
40
1.2997855
50
15.8759509
51
85.012258
0
ARC
8
DEFAULT_255_2_778
10
68.8872661
20
56.1426939
40
8.9982862
50
344.1177351
51
0.0007347
0
ARC
8
DEFAULT_255_2_778
10
68.8872661
20
56.1429247
40
8.9982862
50
359.9992653
51
15.8822649
0
LINE
8
DEFAULT_255_2_778
10
73.0854573
20
52.1926645
11
73.0854573
21
60.0925645
0
LINE
8
DEFAULT_255_2_778
10
73.0854573
20
60.0925645
11
74.2853573
21
60.0925645
0
LINE
8
DEFAULT_255_2_778
10
74.2853573
20
60.0925645
11
74.2853573
21
52.1926645
0
LINE
8
DEFAULT_255_2_778
10
74.2853573
20
52.1926645
11
73.0854573
21
52.1926645
0
LINE
8
DEFAULT_255_2_778
10
74.2856375
20
59.9428457
11
75.2857375
21
59.9428457
0
LINE
8
DEFAULT_255_2_778
10
75.2857375
20
59.9428457
11
75.2857375
21
52.3429457
0
LINE
8
DEFAULT_255_2_778
10
75.2857375
20
52.3429457
11
74.2856375
21
52.3429457
0
LINE
8
DEFAULT_255_2_778
10
72.5854
20
52.092577
11
72.5854
21
60.192577
0
LINE
8
DEFAULT_255_2_778
10
79.4854637
20
52.092577
11
65.6855637
21
52.092577
0
LINE
8
DEFAULT_255_2_778
10
65.6855637
20
52.092577
11
65.6855637
21
60.192577
0
LINE
8
DEFAULT_255_2_778
10
65.6855637
20
60.192577
11
79.4854637
21
60.192577
0
LINE
8
DEFAULT_255_2_778
10
68.4854448
20
52.092577
11
68.4854448
21
60.192577
0
LINE
8
DEFAULT_255_2_778
10
71.4855448
20
52.092577
11
71.4855448
21
60.192577
0
ARC
8
DEFAULT_255_2_778
10
76.2919037
20
67.7498719
40
1.2997855
50
15.8759509
51
85.012258
0
ARC
8
DEFAULT_255_2_778
10
68.8872661
20
65.6424939
40
8.9982862
50
344.1177351
51
0.0007347
0
ARC
8
DEFAULT_255_2_778
10
68.8872661
20
65.6427247
40
8.9982862
50
359.9992653
51
15.8822649
0
LINE
8
DEFAULT_255_2_778
10
73.0854573
20
61.6927645
11
73.0854573
21
69.5926645
0
LINE
8
DEFAULT_255_2_778
10
73.0854573
20
69.5926645
11
74.2853573
21
69.5926645
0
LINE
8
DEFAULT_255_2_778
10
74.2853573
20
69.5926645
11
74.2853573
21
61.6927645
0
LINE
8
DEFAULT_255_2_778
10
74.2853573
20
61.6927645
11
73.0854573
21
61.6927645
0
LINE
8
DEFAULT_255_2_778
10
77.3005164
20
66.2276937
11
77.8855164
21
65.6426937
0
LINE
8
DEFAULT_255_2_778
10
77.8855164
20
65.6426937
11
77.3005164
21
65.0576937
0
LINE
8
DEFAULT_255_2_778
10
74.2856375
20
69.4426457
11
75.2857375
21
69.4426457
0
LINE
8
DEFAULT_255_2_778
10
75.2857375
20
69.4426457
11
75.2857375
21
61.8427457
0
LINE
8
DEFAULT_255_2_778
10
75.2857375
20
61.8427457
11
74.2856375
21
61.8427457
0
LINE
8
DEFAULT_255_2_778
10
72.5854
20
61.592677
11
72.5854
21
69.692677
0
LINE
8
DEFAULT_255_2_778
10
79.4854637
20
61.592677
11
65.6855637
21
61.592677
0
LINE
8
DEFAULT_255_2_778
10
65.6855637
20
61.592677
11
65.6855637
21
69.692677
0
LINE
8
DEFAULT_255_2_778
10
65.6855637
20
69.692677
11
79.4854637
21
69.692677
0
LINE
8
DEFAULT_255_2_778
10
68.4854448
20
61.592677
11
68.4854448
21
69.692677
0
LINE
8
DEFAULT_255_2_778
10
71.4855448
20
61.592677
11
71.4855448
21
69.692677
0
ENDSEC
0
EOF