0
SECTION
2
HEADER
9
$MEASUREMENT
70
1
0
ENDSEC
0
SECTION
2
TABLES
0
TABLE
2
LTYPE
0
LTYPE
72
65
70
64
2
CONTINUOUS
3
______
73
0
40
0
0
ENDTAB
0
TABLE
2
LAYER
0
LAYER
2
DEFAULT_255_2_778
70
0
62
255
6
CONTINUOUS
0
LAYER
2
DEFAULT_255_1_234
70
0
62
255
6
CONTINUOUS
0
ENDTAB
0
ENDSEC
0
SECTION
2
ENTITIES
0
ARC
8
DEFAULT_255_2_778
10
3.5700693
20
36.1176536
40
0.7914215
50
129.1312896
51
180.1450914
0
ARC
8
DEFAULT_255_2_778
10
3.5703345
20
36.1181407
40
0.7912112
50
89.854026
51
129.1684493
0
ARC
8
DEFAULT_255_2_778
10
25.7993937
20
36.1178272
40
0.7915249
50
39.4792447
51
90.147911
0
ARC
8
DEFAULT_255_2_778
10
25.7999935
20
36.1176739
40
0.7911595
50
359.8533901
51
39.5154338
0
ARC
8
DEFAULT_255_2_778
10
25.7996693
20
-1.9863987
40
0.7914836
50
309.4761667
51
0.1482649
0
ARC
8
DEFAULT_255_2_778
10
25.799398
20
-1.9868298
40
0.7913235
50
269.8517415
51
309.511178
0
ARC
8
DEFAULT_255_2_778
10
3.570342
20
-1.9867716
40
0.7913815
50
219.1282118
51
270.1454017
0
ARC
8
DEFAULT_255_2_778
10
3.5700247
20
-1.9863891
40
0.7913769
50
179.8524075
51
219.1641908
0
LINE
8
DEFAULT_255_2_778
10
3.5723503
20
36.9093494
11
25.7973503
21
36.9093494
0
LINE
8
DEFAULT_255_2_778
10
26.5911503
20
36.1156494
11
26.5911503
21
-1.9843506
0
LINE
8
DEFAULT_255_2_778
10
25.7973503
20
-2.7781506
11
3.5723503
21
-2.7781506
0
LINE
8
DEFAULT_255_2_778
10
2.7786503
20
-1.9843506
11
2.7786503
21
36.1156494
0
LINE
8
DEFAULT_255_1_234
10
9.721523
20
-0.2802337
11
9.8765355
21
-0.2802337
0
LINE
8
DEFAULT_255_1_234
10
8.9761777
20
-0.1212053
11
8.9761777
21
-0.0087609
0
LINE
8
DEFAULT_255_1_234
10
9.8765355
20
0.1422357
11
9.721523
21
0.1422357
0
LINE
8
DEFAULT_255_1_234
10
9.1311902
20
-0.0127768
11
9.1311902
21
-0.1260243
0
ARC
8
DEFAULT_255_1_234
10
9.3284742
20
-0.2205154
40
0.5513052
50
340.1774281
51
353.7814284
0
ARC
8
DEFAULT_255_1_234
10
9.4856095
20
-0.2790418
40
0.3836379
50
311.4558989
51
340.4421614
0
ARC
8
DEFAULT_255_1_234
10
9.4822763
20
-0.2679472
40
0.3941894
50
282.4333181
51
310.7513653
0
ARC
8
DEFAULT_255_1_234
10
9.4383502
20
-0.0864321
40
0.5809175
50
269.9358511
51
282.809604
0
ARC
8
DEFAULT_255_1_234
10
9.4331568
20
0.0593212
40
0.7266847
50
270.0021091
51
270.3581957
0
ARC
8
DEFAULT_255_1_234
10
9.4278985
20
-0.2007415
40
0.4666519
50
250.7884749
51
270.6489167
0
ARC
8
DEFAULT_255_1_234
10
9.411082
20
-0.2644681
40
0.4009729
50
219.3627325
51
250.0611886
0
ARC
8
DEFAULT_255_1_234
10
9.4940031
20
-0.1939958
40
0.5097822
50
193.5479632
51
219.5756669
0
ARC
8
DEFAULT_255_1_234
10
9.7311652
20
-0.1324081
40
0.7547848
50
181.1218675
51
193.87563
0
ARC
8
DEFAULT_255_1_234
10
9.9381833
20
-0.121342
40
0.9620055
50
179.9918545
51
181.5394234
0
ARC
8
DEFAULT_255_1_234
10
9.7530935
20
-0.0050212
40
0.7769248
50
169.5837241
51
180.2757934
0
ARC
8
DEFAULT_255_1_234
10
9.5693873
20
0.0289229
40
0.590109
50
155.0365899
51
169.6003176
0
ARC
8
DEFAULT_255_1_234
10
9.4558337
20
0.0836677
40
0.4640625
50
136.783148
51
155.2472683
0
ARC
8
DEFAULT_255_1_234
10
9.4168814
20
0.1167562
40
0.4130255
50
121.7633186
51
136.428115
0
ARC
8
DEFAULT_255_1_234
10
9.4303776
20
0.0918227
40
0.4413323
50
95.6459699
51
121.5490577
0
ARC
8
DEFAULT_255_1_234
10
9.4461058
20
-0.0190051
40
0.55319
50
89.924208
51
96.1377933
0
ARC
8
DEFAULT_255_1_234
10
9.4511491
20
-0.0071458
40
0.5413475
50
76.6779277
51
90.4563316
0
ARC
8
DEFAULT_255_1_234
10
9.4905114
20
0.1519114
40
0.3775041
50
47.485847
51
76.9287264
0
ARC
8
DEFAULT_255_1_234
10
9.4758087
20
0.1419159
40
0.3948286
50
16.5424086
51
46.8933463
0
ARC
8
DEFAULT_255_1_234
10
9.3150244
20
0.0890861
40
0.564021
50
5.4072051
51
17.0365086
0
ARC
8
DEFAULT_255_1_234
10
9.1711261
20
0.0659679
40
0.5556559
50
7.8891745
51
15.9239216
0
ARC
8
DEFAULT_255_1_234
10
9.3698274
20
0.1236631
40
0.3487515
50
15.7653144
51
27.9410532
0
ARC
8
DEFAULT_255_1_234
10
9.4802492
20
0.182779
40
0.2235026
50
27.8166557
51
46.4008329
0
ARC
8
DEFAULT_255_1_234
10
9.4852135
20
0.1822082
40
0.2205286
50
47.4371857
51
75.0698205
0
ARC
8
DEFAULT_255_1_234
10
9.4543529
20
0.0747765
40
0.3322915
50
74.7008593
51
87.8124495
0
ARC
8
DEFAULT_255_1_234
10
9.4470217
20
-0.0308156
40
0.4380987
50
87.3814673
51
90.0240855
0
ARC
8
DEFAULT_255_1_234
10
9.443176
20
0.0869291
40
0.3203749
50
89.3451631
51
108.5745436
0
ARC
8
DEFAULT_255_1_234
10
9.4294865
20
0.1382908
40
0.2673494
50
109.2998449
51
143.3037509
0
ARC
8
DEFAULT_255_1_234
10
9.5056938
20
0.0796881
40
0.3634757
50
143.0753173
51
163.1916937
0
ARC
8
DEFAULT_255_1_234
10
9.7008666
20
0.0180967
40
0.5681262
50
162.9373603
51
174.6208611
0
ARC
8
DEFAULT_255_1_234
10
9.9634708
20
-0.010699
40
0.8322832
50
174.3419979
51
180.1430411
0
ARC
8
DEFAULT_255_1_234
10
9.8703864
20
-0.1301302
40
0.7392076
50
179.6817502
51
189.150529
0
ARC
8
DEFAULT_255_1_234
10
9.6203112
20
-0.171781
40
0.4856932
50
188.9910863
51
203.5773039
0
ARC
8
DEFAULT_255_1_234
10
9.5123445
20
-0.2165789
40
0.3688271
50
203.9077269
51
215.1312379
0
ARC
8
DEFAULT_255_1_234
10
9.4200539
20
-0.2881059
40
0.2522457
50
213.9071664
51
263.8849284
0
ARC
8
DEFAULT_255_1_234
10
9.4325868
20
-0.2096482
40
0.3316174
50
263.1758525
51
270.1031083
0
ARC
8
DEFAULT_255_1_234
10
9.435796
20
-0.0849635
40
0.4563091
50
269.6719807
51
279.0609165
0
ARC
8
DEFAULT_255_1_234
10
9.4624728
20
-0.2462093
40
0.2928759
50
278.8750225
51
293.6346586
0
ARC
8
DEFAULT_255_1_234
10
9.4944936
20
-0.32141
40
0.2111472
50
293.8553404
51
310.0518804
0
ARC
8
DEFAULT_255_1_234
10
9.494979
20
-0.3276484
40
0.2060917
50
311.0646779
51
332.0108348
0
ARC
8
DEFAULT_255_1_234
10
9.3757517
20
-0.2619022
40
0.3422352
50
331.6588543
51
343.2878891
0
ARC
8
DEFAULT_255_1_234
10
9.1695032
20
-0.1985202
40
0.5580003
50
343.1446044
51
351.010618
0
ARC
8
DEFAULT_255_1_234
10
9.0153678
20
-0.1704129
40
0.7146438
50
350.7157277
51
351.1602153
0
LINE
8
DEFAULT_255_1_234
10
10.5769031
20
-0.3123606
11
10.5769031
21
0.5181211
0
LINE
8
DEFAULT_255_1_234
10
10.5769031
20
0.5181211
11
10.7319157
21
0.5181211
0
LINE
8
DEFAULT_255_1_234
10
10.7319157
20
0.5181211
11
10.7319157
21
-0.3099511
0
LINE
8
DEFAULT_255_1_234
10
9.9937989
20
-0.3284241
11
10.1480083
21
-0.3284241
0
ARC
8
DEFAULT_255_1_234
10
10.2828342
20
-0.3137911
40
0.4490979
50
346.3129415
51
0.4899112
0
ARC
8
DEFAULT_255_1_234
10
10.4196691
20
-0.3488271
40
0.3078632
50
313.3793358
51
346.6225026
0
ARC
8
DEFAULT_255_1_234
10
10.3995878
20
-0.3235478
40
0.3400404
50
281.1587967
51
312.9131091
0
ARC
8
DEFAULT_255_1_234
10
10.3655342
20
-0.1740815
40
0.4932916
50
269.6424364
51
281.6795951
0
ARC
8
DEFAULT_255_1_234
10
10.3586706
20
-0.1191618
40
0.5482147
50
258.9990078
51
270.3955952
0
ARC
8
DEFAULT_255_1_234
10
10.321201
20
-0.3040254
40
0.359601
50
239.6256123
51
259.238693
0
ARC
8
DEFAULT_255_1_234
10
10.2923093
20
-0.3585331
40
0.2979777
50
227.4959765
51
239.1188186
0
ARC
8
DEFAULT_255_1_234
10
10.2885659
20
-0.3646311
40
0.2909561
50
191.339631
51
227.2280909
0
ARC
8
DEFAULT_255_1_234
10
10.42903
20
-0.3313969
40
0.4352412
50
179.6086538
51
191.9934722
0
ARC
8
DEFAULT_255_1_234
10
10.4424322
20
-0.3306573
40
0.2944324
50
179.5654258
51
192.070398
0
ARC
8
DEFAULT_255_1_234
10
10.3452812
20
-0.3524921
40
0.194866
50
191.7656467
51
215.6461951
0
ARC
8
DEFAULT_255_1_234
10
10.3274313
20
-0.3632454
40
0.1741017
50
216.1938368
51
224.3931108
0
ARC
8
DEFAULT_255_1_234
10
10.3281199
20
-0.3605527
40
0.1764834
50
224.8613677
51
254.362656
0
ARC
8
DEFAULT_255_1_234
10
10.3551913
20
-0.271099
40
0.2699302
50
253.9471729
51
267.3949949
0
ARC
8
DEFAULT_255_1_234
10
10.362242
20
-0.1786933
40
0.362572
50
266.9456419
51
270.0337791
0
ARC
8
DEFAULT_255_1_234
10
10.36478
20
-0.294877
40
0.2463991
50
269.4595111
51
286.1822844
0
ARC
8
DEFAULT_255_1_234
10
10.378909
20
-0.3466953
40
0.1926982
50
286.4416479
51
315.8044008
0
ARC
8
DEFAULT_255_1_234
10
10.3734897
20
-0.3424793
40
0.1995241
50
316.0212565
51
345.4794351
0
ARC
8
DEFAULT_255_1_234
10
10.2764404
20
-0.3151425
40
0.3003349
50
345.0729543
51
358.325089
0
ARC
8
DEFAULT_255_1_234
10
10.1888375
20
-0.3095432
40
0.3880759
50
357.8767804
51
359.5840246
0
LINE
8
DEFAULT_255_1_234
10
11.4443309
20
0.5237433
11
11.4443309
21
-0.6513
0
LINE
8
DEFAULT_255_1_234
10
11.4443309
20
-0.6513
11
11.2949405
21
-0.6513
0
LINE
8
DEFAULT_255_1_234
10
11.2949405
20
-0.6513
11
11.2949405
21
0.3390133
0
LINE
8
DEFAULT_255_1_234
10
11.2949405
20
0.3390133
11
10.9953567
21
0.2289785
0
LINE
8
DEFAULT_255_1_234
10
10.9953567
20
0.2289785
11
10.9953567
21
0.3639117
0
LINE
8
DEFAULT_255_1_234
10
10.9953567
20
0.3639117
11
11.4210388
21
0.5237433
0
LINE
8
DEFAULT_255_1_234
10
11.4210388
20
0.5237433
11
11.4443309
21
0.5237433
0
LINE
8
DEFAULT_255_1_234
10
11.98567
20
0.5181211
11
12.1704
21
-0.2826432
0
LINE
8
DEFAULT_255_1_234
10
12.1704
20
-0.2826432
11
12.1928889
21
-0.4368526
0
LINE
8
DEFAULT_255_1_234
10
12.1928889
20
-0.4368526
11
12.225819
21
-0.2979035
0
LINE
8
DEFAULT_255_1_234
10
12.225819
20
-0.2979035
11
12.4571331
21
0.5181211
0
LINE
8
DEFAULT_255_1_234
10
12.4571331
20
0.5181211
11
12.5872472
21
0.5181211
0
LINE
8
DEFAULT_255_1_234
10
12.5872472
20
0.5181211
11
12.8129391
21
-0.2979035
0
LINE
8
DEFAULT_255_1_234
10
12.8129391
20
-0.2979035
11
12.845066
21
-0.4392621
0
LINE
8
DEFAULT_255_1_234
10
12.845066
20
-0.4392621
11
12.8699644
21
-0.28184
0
LINE
8
DEFAULT_255_1_234
10
12.8699644
20
-0.28184
11
13.0514817
21
0.5181211
0
LINE
8
DEFAULT_255_1_234
10
13.0514817
20
0.5181211
11
13.2064942
21
0.5181211
0
LINE
8
DEFAULT_255_1_234
10
13.2064942
20
0.5181211
11
12.9229739
21
-0.6513
0
LINE
8
DEFAULT_255_1_234
10
12.9229739
20
-0.6513
11
12.7824185
21
-0.6513
0
LINE
8
DEFAULT_255_1_234
10
12.7824185
20
-0.6513
11
12.5414663
21
0.2008674
0
LINE
8
DEFAULT_255_1_234
10
12.5414663
20
0.2008674
11
12.5229933
21
0.2900197
0
LINE
8
DEFAULT_255_1_234
10
12.5229933
20
0.2900197
11
12.5045203
21
0.2008674
0
LINE
8
DEFAULT_255_1_234
10
12.5045203
20
0.2008674
11
12.2547333
21
-0.6513
0
LINE
8
DEFAULT_255_1_234
10
12.2547333
20
-0.6513
11
12.1141778
21
-0.6513
0
LINE
8
DEFAULT_255_1_234
10
12.1141778
20
-0.6513
11
11.8314606
21
0.5181211
0
LINE
8
DEFAULT_255_1_234
10
11.8314606
20
0.5181211
11
11.98567
21
0.5181211
0
LINE
8
DEFAULT_255_1_234
10
13.6153097
20
-0.0938974
11
13.6153097
21
-0.2151766
0
LINE
8
DEFAULT_255_1_234
10
13.6153097
20
-0.2151766
11
13.2233609
21
-0.2151766
0
LINE
8
DEFAULT_255_1_234
10
13.2233609
20
-0.2151766
11
13.2233609
21
-0.0938974
0
LINE
8
DEFAULT_255_1_234
10
13.2233609
20
-0.0938974
11
13.6153097
21
-0.0938974
0
LINE
8
DEFAULT_255_1_234
10
14.212871
20
-0.1934909
11
13.9373824
21
-0.1934909
0
LINE
8
DEFAULT_255_1_234
10
13.9373824
20
-0.1934909
11
13.9373824
21
-0.6513
0
LINE
8
DEFAULT_255_1_234
10
13.9373824
20
-0.6513
11
13.783173
21
-0.6513
0
LINE
8
DEFAULT_255_1_234
10
13.783173
20
-0.6513
11
13.783173
21
0.5181211
0
LINE
8
DEFAULT_255_1_234
10
13.783173
20
0.5181211
11
14.2144774
21
0.5181211
0
LINE
8
DEFAULT_255_1_234
10
13.9373824
20
0.3912196
11
13.9373824
21
-0.0673926
0
LINE
8
DEFAULT_255_1_234
10
13.9373824
20
-0.0673926
11
14.2144774
21
-0.0673926
0
LINE
8
DEFAULT_255_1_234
10
14.2233123
20
0.3912196
11
13.9373824
21
0.3912196
0
ARC
8
DEFAULT_255_1_234
10
14.2186901
20
-0.0877805
40
0.6059162
50
78.8378113
51
90.3983573
0
ARC
8
DEFAULT_255_1_234
10
14.2602914
20
0.1142879
40
0.3996205
50
58.9632738
51
79.0810598
0
ARC
8
DEFAULT_255_1_234
10
14.2904457
20
0.1702721
40
0.3361177
50
48.0197965
51
58.447194
0
ARC
8
DEFAULT_255_1_234
10
14.2993317
20
0.1788225
40
0.3238191
50
3.3375044
51
48.1766626
0
ARC
8
DEFAULT_255_1_234
10
14.1763157
20
0.1611171
40
0.4477806
50
359.9477528
51
4.6829065
0
ARC
8
DEFAULT_255_1_234
10
14.1886474
20
0.1568628
40
0.4354656
50
346.1877825
51
0.5060252
0
ARC
8
DEFAULT_255_1_234
10
14.3245341
20
0.1215731
40
0.295089
50
310.8831995
51
346.5426355
0
ARC
8
DEFAULT_255_1_234
10
14.2936762
20
0.1632695
40
0.3468331
50
286.6925341
51
310.2288297
0
ARC
8
DEFAULT_255_1_234
10
14.2367592
20
0.3422882
40
0.5346654
50
274.6850312
51
287.0245141
0
ARC
8
DEFAULT_255_1_234
10
14.2142315
20
0.5631932
40
0.7566852
50
269.8969846
51
275.018904
0
ARC
8
DEFAULT_255_1_234
10
14.2169907
20
0.3552707
40
0.4226708
50
269.6593078
51
279.4153575
0
ARC
8
DEFAULT_255_1_234
10
14.2427182
20
0.2062133
40
0.2714146
50
279.2049762
51
294.9900808
0
ARC
8
DEFAULT_255_1_234
10
14.2717508
20
0.1414508
40
0.2004525
50
295.2888114
51
311.2911209
0
ARC
8
DEFAULT_255_1_234
10
14.2788402
20
0.130922
40
0.1878703
50
311.7854996
51
347.2861051
0
ARC
8
DEFAULT_255_1_234
10
14.180456
20
0.1562092
40
0.2894234
50
346.6893224
51
0.1059443
0
ARC
8
DEFAULT_255_1_234
10
14.1049456
20
0.1590685
40
0.3649409
50
359.6350983
51
0.0053152
0
ARC
8
DEFAULT_255_1_234
10
14.2019784
20
0.1615937
40
0.2679199
50
359.4672059
51
15.5933957
0
ARC
8
DEFAULT_255_1_234
10
14.2644673
20
0.1784779
40
0.2031932
50
15.7442113
51
46.6203375
0
ARC
8
DEFAULT_255_1_234
10
14.2496893
20
0.1614484
40
0.2257226
50
46.8628658
51
75.6676503
0
ARC
8
DEFAULT_255_1_234
10
14.2202714
20
0.0555718
40
0.3355939
50
75.276167
51
88.2915297
0
ARC
8
DEFAULT_255_1_234
10
14.214442
20
-0.0322476
40
0.4235602
50
87.8575022
51
88.8000139
0
LINE
8
DEFAULT_255_1_234
10
15.4674286
20
-0.6513
11
15.3557874
21
-0.3460939
0
LINE
8
DEFAULT_255_1_234
10
15.3557874
20
-0.3460939
11
14.8658514
21
-0.3460939
0
LINE
8
DEFAULT_255_1_234
10
14.8658514
20
-0.3460939
11
14.7558166
21
-0.6513
0
LINE
8
DEFAULT_255_1_234
10
14.7558166
20
-0.6513
11
14.5967881
21
-0.6513
0
LINE
8
DEFAULT_255_1_234
10
14.5967881
20
-0.6513
11
15.0433528
21
0.5181211
0
LINE
8
DEFAULT_255_1_234
10
15.0433528
20
0.5181211
11
15.178286
21
0.5181211
0
LINE
8
DEFAULT_255_1_234
10
15.178286
20
0.5181211
11
15.6256538
21
-0.6513
0
LINE
8
DEFAULT_255_1_234
10
15.6256538
20
-0.6513
11
15.4674286
21
-0.6513
0
LINE
8
DEFAULT_255_1_234
10
15.1108194
20
0.3277689
11
14.9124354
21
-0.2191925
0
LINE
8
DEFAULT_255_1_234
10
14.9124354
20
-0.2191925
11
15.3100065
21
-0.2191925
0
LINE
8
DEFAULT_255_1_234
10
15.3100065
20
-0.2191925
11
15.1108194
21
0.3277689
0
LINE
8
DEFAULT_255_1_234
10
16.5107514
20
-0.5300208
11
16.5107514
21
-0.6513
0
LINE
8
DEFAULT_255_1_234
10
16.5107514
20
-0.6513
11
15.7445235
21
-0.6513
0
LINE
8
DEFAULT_255_1_234
10
15.7445235
20
-0.6513
11
15.7445235
21
-0.5444779
0
LINE
8
DEFAULT_255_1_234
10
15.7445235
20
-0.5444779
11
16.1493231
21
-0.0947005
0
LINE
8
DEFAULT_255_1_234
10
15.8706218
20
0.1735595
11
15.7220347
21
0.1735595
0
LINE
8
DEFAULT_255_1_234
10
16.2368691
20
-0.1902782
11
15.9236313
21
-0.5300208
0
LINE
8
DEFAULT_255_1_234
10
15.9236313
20
-0.5300208
11
16.5107514
21
-0.5300208
0
ARC
8
DEFAULT_255_1_234
10
14.8003065
20
1.0982527
40
1.8008286
50
318.5132453
51
320.7828378
0
ARC
8
DEFAULT_255_1_234
10
15.3290039
20
0.6679426
40
1.1191493
50
320.7372736
51
323.9737074
0
ARC
8
DEFAULT_255_1_234
10
15.7209896
20
0.3839361
40
0.6350923
50
323.8961724
51
328.6421089
0
ARC
8
DEFAULT_255_1_234
10
15.9256491
20
0.2577031
40
0.3946393
50
328.8299013
51
331.789948
0
ARC
8
DEFAULT_255_1_234
10
16.0253669
20
0.2062509
40
0.2824501
50
331.4255242
51
352.9364833
0
ARC
8
DEFAULT_255_1_234
10
16.039017
20
0.2031976
40
0.2685315
50
353.2248685
51
0.0169286
0
ARC
8
DEFAULT_255_1_234
10
16.0600047
20
0.205495
40
0.2475536
50
359.4866256
51
15.9339782
0
ARC
8
DEFAULT_255_1_234
10
16.1107032
20
0.2191286
40
0.1950618
50
16.1714718
51
43.5284424
0
ARC
8
DEFAULT_255_1_234
10
16.1184341
20
0.2268573
40
0.184134
50
43.4415429
51
83.1661404
0
ARC
8
DEFAULT_255_1_234
10
16.1050259
20
0.1531771
40
0.258926
50
82.160215
51
90.1505798
0
ARC
8
DEFAULT_255_1_234
10
16.1018686
20
0.0994865
40
0.3126255
50
89.5460705
51
102.5418777
0
ARC
8
DEFAULT_255_1_234
10
16.0775772
20
0.2025665
40
0.2067346
50
102.1739365
51
129.2061916
0
ARC
8
DEFAULT_255_1_234
10
16.0696844
20
0.2150094
40
0.1921118
50
129.7279328
51
135.7542026
0
ARC
8
DEFAULT_255_1_234
10
16.0818372
20
0.2053045
40
0.2075944
50
136.175737
51
166.3674722
0
ARC
8
DEFAULT_255_1_234
10
16.1825291
20
0.1783182
40
0.3118201
50
165.9092917
51
178.8683903
0
ARC
8
DEFAULT_255_1_234
10
16.2690152
20
0.1736179
40
0.3983935
50
178.438168
51
180.0083905
0
ARC
8
DEFAULT_255_1_234
10
16.1288755
20
0.1775231
40
0.4068601
50
163.2878735
51
180.5581814
0
ARC
8
DEFAULT_255_1_234
10
16.0487016
20
0.199584
40
0.3237344
50
133.454115
51
162.9470031
0
ARC
8
DEFAULT_255_1_234
10
16.0665557
20
0.1806
40
0.349795
50
100.7869394
51
133.4384016
0
ARC
8
DEFAULT_255_1_234
10
16.1013329
20
0.0257319
40
0.5084616
50
89.6605301
51
101.3704185
0
ARC
8
DEFAULT_255_1_234
10
16.1079668
20
0.0318496
40
0.502348
50
78.2171172
51
90.4130393
0
ARC
8
DEFAULT_255_1_234
10
16.1434746
20
0.1942637
40
0.3361092
50
55.9268222
51
78.4888551
0
ARC
8
DEFAULT_255_1_234
10
16.1631186
20
0.2281324
40
0.2970617
50
47.9292255
51
55.4054003
0
ARC
8
DEFAULT_255_1_234
10
16.1732747
20
0.2384502
40
0.2825983
50
4.3347696
51
48.0560701
0
ARC
8
DEFAULT_255_1_234
10
16.063714
20
0.2214601
40
0.393225
50
359.925209
51
5.5967654
0
ARC
8
DEFAULT_255_1_234
10
16.1066032
20
0.2270816
40
0.3503892
50
337.8914096
51
358.9967724
0
ARC
8
DEFAULT_255_1_234
10
15.8352444
20
0.3317706
40
0.6412172
50
326.9135351
51
338.3505194
0
ARC
8
DEFAULT_255_1_234
10
15.4366748
20
0.5872284
40
1.1146189
50
319.6472867
51
327.095818
0
ARC
8
DEFAULT_255_1_234
10
15.0533751
20
0.9034
40
1.6114559
50
317.2586784
51
319.9046139
0
LINE
8
DEFAULT_255_1_234
10
17.4014711
20
0.0402327
11
17.4014711
21
-0.1525291
0
LINE
8
DEFAULT_255_1_234
10
16.6633544
20
-0.1726084
11
16.6633544
21
0.0257755
0
LINE
8
DEFAULT_255_1_234
10
17.252884
20
-0.1926877
11
17.252884
21
0.0506739
0
LINE
8
DEFAULT_255_1_234
10
16.8119416
20
0.0619184
11
16.8119416
21
-0.1758211
0
ARC
8
DEFAULT_255_1_234
10
16.1767601
20
-0.1574195
40
1.2247208
50
353.8441951
51
0.2287902
0
ARC
8
DEFAULT_255_1_234
10
16.6407105
20
-0.2092194
40
0.7578929
50
344.4934747
51
353.9765454
0
ARC
8
DEFAULT_255_1_234
10
16.9399695
20
-0.2943019
40
0.4467846
50
329.2803592
51
344.7472793
0
ARC
8
DEFAULT_255_1_234
10
17.039252
20
-0.3487982
40
0.3336173
50
324.9352394
51
328.6160465
0
ARC
8
DEFAULT_255_1_234
10
17.0769628
20
-0.3751573
40
0.2876076
50
280.580143
51
324.9173126
0
ARC
8
DEFAULT_255_1_234
10
17.0368421
20
-0.2080901
40
0.4592847
50
269.5977311
51
281.6734359
0
ARC
8
DEFAULT_255_1_234
10
17.0296327
20
-0.2200827
40
0.4472986
50
256.6228859
51
270.51044
0
ARC
8
DEFAULT_255_1_234
10
16.9894305
20
-0.3749123
40
0.2873874
50
215.8618325
51
257.2788573
0
ARC
8
DEFAULT_255_1_234
10
17.0915336
20
-0.3064023
40
0.4102928
50
197.9693508
51
215.2623606
0
ARC
8
DEFAULT_255_1_234
10
17.3400452
20
-0.2225291
40
0.6725652
50
187.8816417
51
198.2346507
0
ARC
8
DEFAULT_255_1_234
10
17.735866
20
-0.1653921
40
1.0724845
50
180.8976217
51
188.0055519
0
ARC
8
DEFAULT_255_1_234
10
18.0158848
20
-0.1550223
40
1.3526448
50
180.7449369
51
181.1510016
0
ARC
8
DEFAULT_255_1_234
10
17.8581577
20
0.0306042
40
1.1948131
50
173.7675579
51
180.231553
0
ARC
8
DEFAULT_255_1_234
10
17.4063724
20
0.0816666
40
0.7401564
50
164.3058563
51
173.9002247
0
ARC
8
DEFAULT_255_1_234
10
17.1151793
20
0.1655656
40
0.4371288
50
148.7922025
51
164.568378
0
ARC
8
DEFAULT_255_1_234
10
17.0200245
20
0.2186929
40
0.3282386
50
144.5883898
51
148.1176286
0
ARC
8
DEFAULT_255_1_234
10
16.9857143
20
0.2426315
40
0.2864044
50
101.6440918
51
144.514236
0
ARC
8
DEFAULT_255_1_234
10
17.0282209
20
0.0737069
40
0.4604934
50
89.5284041
51
102.5819763
0
ARC
8
DEFAULT_255_1_234
10
17.0361297
20
0.0698018
40
0.464401
50
77.0437873
51
90.5081339
0
ARC
8
DEFAULT_255_1_234
10
17.0763299
20
0.2340615
40
0.2953195
50
48.2778575
51
77.4994676
0
ARC
8
DEFAULT_255_1_234
10
17.083593
20
0.2469746
40
0.2808655
50
36.3142134
51
47.6305865
0
ARC
8
DEFAULT_255_1_234
10
16.9967237
20
0.1884515
40
0.3855453
50
18.2931786
51
35.6769206
0
ARC
8
DEFAULT_255_1_234
10
16.7423996
20
0.1011593
40
0.654423
50
8.024666
51
18.5605216
0
ARC
8
DEFAULT_255_1_234
10
16.3260916
20
0.0396792
40
1.0752407
50
1.1274072
51
8.1718305
0
ARC
8
DEFAULT_255_1_234
10
16.0025107
20
0.0269885
40
1.3990231
50
0.5424119
51
1.3863029
0
ARC
8
DEFAULT_255_1_234
10
16.1846484
20
0.0542342
40
1.0682415
50
359.8090433
51
4.9407866
0
ARC
8
DEFAULT_255_1_234
10
16.6056498
20
0.0918113
40
0.6455691
50
4.8362157
51
12.2904523
0
ARC
8
DEFAULT_255_1_234
10
16.8811613
20
0.1531965
40
0.3633074
50
12.0805627
51
23.8173984
0
ARC
8
DEFAULT_255_1_234
10
16.9985319
20
0.2028919
40
0.2358723
50
24.2871213
51
31.3935614
0
ARC
8
DEFAULT_255_1_234
10
17.0510016
20
0.2372233
40
0.1732111
50
30.7407893
51
82.4657128
0
ARC
8
DEFAULT_255_1_234
10
17.033015
20
0.1488691
40
0.263235
50
81.1060089
51
90.2184952
0
ARC
8
DEFAULT_255_1_234
10
17.0294449
20
0.1746924
40
0.2374236
50
89.3806855
51
105.6762551
0
ARC
8
DEFAULT_255_1_234
10
17.011108
20
0.2413567
40
0.1682847
50
105.7981136
51
149.7388061
0
ARC
8
DEFAULT_255_1_234
10
17.1175158
20
0.177395
40
0.2924306
50
149.4208916
51
163.6286378
0
ARC
8
DEFAULT_255_1_234
10
17.3266046
20
0.113625
40
0.5110213
50
163.3763315
51
172.1410975
0
ARC
8
DEFAULT_255_1_234
10
17.6566765
20
0.0663518
40
0.8444586
50
172.0259487
51
178.0703232
0
ARC
8
DEFAULT_255_1_234
10
17.9596855
20
0.0519906
40
1.1477868
50
177.8631668
51
179.5044149
0
ARC
8
DEFAULT_255_1_234
10
17.8524259
20
-0.1794611
40
1.0404907
50
179.7995573
51
185.2460446
0
ARC
8
DEFAULT_255_1_234
10
17.4481298
20
-0.2177487
40
0.6343885
50
185.1411642
51
193.0079639
0
ARC
8
DEFAULT_255_1_234
10
17.1837771
20
-0.2802359
40
0.3627568
50
192.7897626
51
205.2507664
0
ARC
8
DEFAULT_255_1_234
10
17.0791318
20
-0.3269585
40
0.2481908
50
205.8005384
51
211.2537509
0
ARC
8
DEFAULT_255_1_234
10
17.0267758
20
-0.362042
40
0.1852521
50
210.3789793
51
238.4008143
0
ARC
8
DEFAULT_255_1_234
10
17.024828
20
-0.3573624
40
0.1882621
50
239.6520629
51
265.9793761
0
ARC
8
DEFAULT_255_1_234
10
17.033348
20
-0.2901573
40
0.2559272
50
265.1315437
51
270.060332
0
ARC
8
DEFAULT_255_1_234
10
17.0362259
20
-0.3225466
40
0.2235528
50
269.3314664
51
287.2178029
0
ARC
8
DEFAULT_255_1_234
10
17.0500111
20
-0.3728721
40
0.1714108
50
287.7958004
51
329.080874
0
ARC
8
DEFAULT_255_1_234
10
16.9542568
20
-0.313107
40
0.2842745
50
328.6634704
51
343.3325132
0
ARC
8
DEFAULT_255_1_234
10
16.7369588
20
-0.2454137
40
0.5118644
50
343.0499468
51
351.9393422
0
ARC
8
DEFAULT_255_1_234
10
16.3902888
20
-0.1943051
40
0.8622784
50
351.8069023
51
357.7959224
0
ARC
8
DEFAULT_255_1_234
10
16.0667444
20
-0.1775279
40
1.1862365
50
357.5871873
51
359.2677531
0
LINE
8
DEFAULT_255_1_234
10
17.7789628
20
-0.0955037
11
17.6600931
21
-0.0649831
0
LINE
8
DEFAULT_255_1_234
10
17.6600931
20
-0.0649831
11
17.719528
21
0.5181211
0
LINE
8
DEFAULT_255_1_234
10
17.719528
20
0.5181211
11
18.3186957
21
0.5181211
0
LINE
8
DEFAULT_255_1_234
10
18.3186957
20
0.5181211
11
18.3186957
21
0.3807784
0
LINE
8
DEFAULT_255_1_234
10
18.3186957
20
0.3807784
11
17.8456263
21
0.3807784
0
LINE
8
DEFAULT_255_1_234
10
17.8456263
20
0.3807784
11
17.8102866
21
0.0619184
0
LINE
8
DEFAULT_255_1_234
10
17.6183281
20
-0.3436844
11
17.7588835
21
-0.3436844
0
LINE
8
DEFAULT_255_1_234
10
17.8183184
20
-0.0633768
11
17.7789628
21
-0.0955037
0
ARC
8
DEFAULT_255_1_234
10
17.995765
20
-0.256077
40
0.3681349
50
93.7182161
51
120.2538958
0
ARC
8
DEFAULT_255_1_234
10
18.0051913
20
-0.3368606
40
0.449379
50
89.9660152
51
94.2496022
0
ARC
8
DEFAULT_255_1_234
10
18.0092647
20
-0.2779451
40
0.390482
50
73.8043271
51
90.5585896
0
ARC
8
DEFAULT_255_1_234
10
18.0327544
20
-0.1921398
40
0.3015334
50
41.3071453
51
73.5430202
0
ARC
8
DEFAULT_255_1_234
10
17.9911371
20
-0.2279676
40
0.3564457
50
13.5075983
51
41.2174222
0
ARC
8
DEFAULT_255_1_234
10
17.8269575
20
-0.2709514
40
0.5261351
50
1.1331335
51
13.8829381
0
ARC
8
DEFAULT_255_1_234
10
17.6857944
20
-0.2785335
40
0.6674378
50
359.9919444
51
1.544251
0
ARC
8
DEFAULT_255_1_234
10
17.813477
20
-0.282672
40
0.5397702
50
347.8572367
51
0.4293338
0
ARC
8
DEFAULT_255_1_234
10
17.9885088
20
-0.3223264
40
0.3603188
50
323.673004
51
348.1672506
0
ARC
8
DEFAULT_255_1_234
10
18.0179596
20
-0.3402832
40
0.3259678
50
316.8171152
51
323.1492751
0
ARC
8
DEFAULT_255_1_234
10
18.0240785
20
-0.343954
40
0.3189975
50
281.8396411
51
316.5457803
0
ARC
8
DEFAULT_255_1_234
10
17.9865049
20
-0.1884238
40
0.4789527
50
269.5770101
51
282.4214771
0
ARC
8
DEFAULT_255_1_234
10
17.979386
20
-0.2097875
40
0.45759
50
256.2427136
51
270.4486331
0
ARC
8
DEFAULT_255_1_234
10
17.9494763
20
-0.3297771
40
0.3339303
50
228.9023911
51
256.3314342
0
ARC
8
DEFAULT_255_1_234
10
17.9420995
20
-0.3414254
40
0.32031
50
193.753695
51
228.5271154
0
ARC
8
DEFAULT_255_1_234
10
18.0658949
20
-0.30512
40
0.4492253
50
184.924711
51
194.497588
0
ARC
8
DEFAULT_255_1_234
10
18.0851516
20
-0.3015409
40
0.3289787
50
187.3600538
51
198.6732863
0
ARC
8
DEFAULT_255_1_234
10
17.980181
20
-0.3379326
40
0.217884
50
198.4451669
51
217.794479
0
ARC
8
DEFAULT_255_1_234
10
17.9505985
20
-0.3588915
40
0.1816698
50
218.2887171
51
228.5612368
0
ARC
8
DEFAULT_255_1_234
10
17.9603772
20
-0.3457037
40
0.1980329
50
228.9654866
51
258.1234728
0
ARC
8
DEFAULT_255_1_234
10
17.9809482
20
-0.2576167
40
0.2884748
50
257.7258293
51
270.401361
0
ARC
8
DEFAULT_255_1_234
10
17.9854369
20
-0.3021179
40
0.2439788
50
269.4204404
51
286.4209037
0
ARC
8
DEFAULT_255_1_234
10
18.0002856
20
-0.3560343
40
0.1880666
50
286.7251356
51
320.600362
0
ARC
8
DEFAULT_255_1_234
10
17.9619681
20
-0.3249405
40
0.2374121
50
320.6712579
51
344.5441685
0
ARC
8
DEFAULT_255_1_234
10
17.8463007
20
-0.2909955
40
0.3579479
50
344.2412205
51
356.7357071
0
ARC
8
DEFAULT_255_1_234
10
17.7214156
20
-0.2806556
40
0.4832297
50
356.3548756
51
0.0500261
0
ARC
8
DEFAULT_255_1_234
10
17.8550665
20
-0.277535
40
0.3495889
50
359.5576869
51
12.953486
0
ARC
8
DEFAULT_255_1_234
10
17.9605562
20
-0.2519566
40
0.2410532
50
12.6490276
51
41.6081334
0
ARC
8
DEFAULT_255_1_234
10
17.9835933
20
-0.2323679
40
0.2108218
50
41.7850273
51
85.9892764
0
ARC
8
DEFAULT_255_1_234
10
17.971267
20
-0.3136538
40
0.2928454
50
84.6957577
51
90.0676183
0
ARC
8
DEFAULT_255_1_234
10
17.9689154
20
-0.3805284
40
0.3597255
50
89.6804936
51
99.1614436
0
ARC
8
DEFAULT_255_1_234
10
17.9483785
20
-0.2577869
40
0.235281
50
98.9830931
51
113.8908934
0
ARC
8
DEFAULT_255_1_234
10
17.9254195
20
-0.2036413
40
0.176479
50
114.1950727
51
127.3641004
0
LINE
8
DEFAULT_255_1_234
10
19.2367233
20
-0.6513
11
18.9829204
21
-0.1782306
0
LINE
8
DEFAULT_255_1_234
10
18.9829204
20
-0.1782306
11
18.708235
21
-0.1782306
0
LINE
8
DEFAULT_255_1_234
10
18.708235
20
-0.1782306
11
18.708235
21
-0.6513
0
LINE
8
DEFAULT_255_1_234
10
18.708235
20
-0.6513
11
18.5532224
21
-0.6513
0
LINE
8
DEFAULT_255_1_234
10
18.5532224
20
-0.6513
11
18.5532224
21
0.5181211
0
LINE
8
DEFAULT_255_1_234
10
18.5532224
20
0.5181211
11
18.9403522
21
0.5181211
0
LINE
8
DEFAULT_255_1_234
10
19.1274917
20
-0.1453005
11
19.4021771
21
-0.6416619
0
LINE
8
DEFAULT_255_1_234
10
19.4021771
20
-0.6416619
11
19.4021771
21
-0.6513
0
LINE
8
DEFAULT_255_1_234
10
19.4021771
20
-0.6513
11
19.2367233
21
-0.6513
0
LINE
8
DEFAULT_255_1_234
10
18.708235
20
0.3912196
11
18.708235
21
-0.0521323
0
LINE
8
DEFAULT_255_1_234
10
18.708235
20
-0.0521323
11
18.9451712
21
-0.0521323
0
LINE
8
DEFAULT_255_1_234
10
18.9443681
20
0.3912196
11
18.708235
21
0.3912196
0
ARC
8
DEFAULT_255_1_234
10
18.9445161
20
-0.1780239
40
0.6961575
50
80.653586
51
90.3427061
0
ARC
8
DEFAULT_255_1_234
10
18.9864636
20
0.0682348
40
0.4463577
50
65.6987447
51
80.8329603
0
ARC
8
DEFAULT_255_1_234
10
19.0342277
20
0.1777322
40
0.3269094
50
50.0017161
51
65.4305835
0
ARC
8
DEFAULT_255_1_234
10
19.0560741
20
0.2072482
40
0.2902647
50
11.628416
51
49.5603263
0
ARC
8
DEFAULT_255_1_234
10
18.9025077
20
0.1697299
40
0.4482792
50
359.5655735
51
12.3691
0
ARC
8
DEFAULT_255_1_234
10
19.0101937
20
0.1634644
40
0.3405924
50
341.9983148
51
0.4822259
0
ARC
8
DEFAULT_255_1_234
10
19.0496777
20
0.1527471
40
0.2997359
50
323.8609373
51
341.61416
0
ARC
8
DEFAULT_255_1_234
10
19.0195021
20
0.1760484
40
0.3378487
50
296.7018614
51
323.6876402
0
ARC
8
DEFAULT_255_1_234
10
18.9753917
20
0.2549235
40
0.4281516
50
290.8086567
51
297.2323311
0
ARC
8
DEFAULT_255_1_234
10
18.9477446
20
0.3072351
40
0.3593766
50
269.589728
51
281.8058135
0
ARC
8
DEFAULT_255_1_234
10
18.9728345
20
0.1924743
40
0.2419125
50
281.5501019
51
303.9357432
0
ARC
8
DEFAULT_255_1_234
10
18.9865533
20
0.1686936
40
0.2145323
50
304.4415616
51
311.2106213
0
ARC
8
DEFAULT_255_1_234
10
18.9997638
20
0.1547632
40
0.1953505
50
310.9875673
51
356.2715578
0
ARC
8
DEFAULT_255_1_234
10
18.9241287
20
0.1660422
40
0.2716331
50
354.9348262
51
0.0609027
0
ARC
8
DEFAULT_255_1_234
10
18.9054161
20
0.1687435
40
0.2903554
50
359.5239371
51
12.8808918
0
ARC
8
DEFAULT_255_1_234
10
19.0031717
20
0.1926728
40
0.1897315
50
12.4173452
51
43.1022135
0
ARC
8
DEFAULT_255_1_234
10
19.0093321
20
0.1963724
40
0.1827118
50
43.5751728
51
48.203944
0
ARC
8
DEFAULT_255_1_234
10
18.9923813
20
0.1742302
40
0.2105272
50
48.7809703
51
72.6969569
0
ARC
8
DEFAULT_255_1_234
10
18.9569438
20
0.066682
40
0.3237537
50
72.3702241
51
84.8791103
0
ARC
8
DEFAULT_255_1_234
10
18.9421914
20
-0.0675231
40
0.4587478
50
84.5400526
51
89.7281406
0
ARC
8
DEFAULT_255_2_778
10
15.2718323
20
34.674189
40
0.3782009
50
0.4397807
51
91.3045231
0
ARC
8
DEFAULT_255_2_778
10
15.2696879
20
34.6719064
40
0.3803695
50
269.0259909
51
0.7811192
0
ARC
8
DEFAULT_255_2_778
10
15.4288293
20
34.6594643
40
0.7639615
50
290.7362057
51
357.8000295
0
ARC
8
DEFAULT_255_2_778
10
15.3436031
20
34.6770235
40
0.8499188
50
356.8376875
51
0.0046095
0
ARC
8
DEFAULT_255_2_778
10
15.3422443
20
34.6770748
40
0.8512778
50
0.0011515
51
85.3589632
0
ARC
8
DEFAULT_255_2_778
10
15.3422371
20
34.6580092
40
0.8702827
50
85.4600549
51
90.0075769
0
ARC
8
DEFAULT_255_2_778
10
20.173385
20
34.6677426
40
0.3845507
50
1.3931151
51
90.158378
0
ARC
8
DEFAULT_255_2_778
10
20.2329096
20
34.6613635
40
0.8684198
50
359.7643557
51
42.1181505
0
ARC
8
DEFAULT_255_2_778
10
20.2353156
20
34.6617931
40
0.866348
50
42.2037872
51
87.9292218
0
ARC
8
DEFAULT_255_2_778
10
20.2305626
20
34.6205097
40
0.9077821
50
87.7235759
51
90.0025578
0
ARC
8
DEFAULT_255_2_778
10
12.9264947
20
34.6746344
40
0.3777354
50
0.3727528
51
91.1638813
0
ARC
8
DEFAULT_255_2_778
10
12.9805692
20
34.6613595
40
0.8684602
50
359.7646302
51
42.1161032
0
ARC
8
DEFAULT_255_2_778
10
12.9830774
20
34.6619127
40
0.8662296
50
42.2002176
51
87.9268901
0
ARC
8
DEFAULT_255_2_778
10
12.9783626
20
34.6208749
40
0.9074169
50
87.7231194
51
90.002558
0
ARC
8
DEFAULT_255_2_778
10
17.559042
20
34.2695858
40
1.2841942
50
233.3100129
51
270.0348017
0
ARC
8
DEFAULT_255_2_778
10
17.5711133
20
34.2899622
40
1.3077482
50
187.7860459
51
233.4193197
0
ARC
8
DEFAULT_255_2_778
10
17.5893588
20
34.2915185
40
1.3260368
50
179.9838663
51
187.7458681
0
ARC
8
DEFAULT_255_2_778
10
17.5478523
20
34.2921375
40
1.2845303
50
143.7084173
51
180.0109545
0
ARC
8
DEFAULT_255_2_778
10
17.5629238
20
34.2870899
40
1.2996747
50
94.9692901
51
143.9223324
0
ARC
8
DEFAULT_255_2_778
10
17.5597032
20
34.2877347
40
1.2987573
50
89.9947559
51
94.8302073
0
ARC
8
DEFAULT_255_2_778
10
17.5619339
20
34.2819304
40
1.3045632
50
58.1407344
51
90.0927508
0
ARC
8
DEFAULT_255_2_778
10
17.5700831
20
34.2875662
40
1.2954809
50
3.5056409
51
58.315291
0
ARC
8
DEFAULT_255_2_778
10
17.5711163
20
34.2916563
40
1.2942058
50
359.9971467
51
3.3277024
0
ARC
8
DEFAULT_255_2_778
10
17.3826088
20
34.2895483
40
1.4827147
50
0.006083
51
0.0789681
0
ARC
8
DEFAULT_255_2_778
10
17.5604187
20
34.2897022
40
1.3049047
50
315.0308293
51
0.0001529
0
ARC
8
DEFAULT_255_2_778
10
17.5609377
20
34.2894521
40
1.3043608
50
270.000667
51
315.0224921
0
LINE
8
DEFAULT_255_2_778
10
17.5609529
20
32.9850914
11
17.5598221
21
32.9850919
0
ARC
8
DEFAULT_255_2_778
10
17.5640812
20
34.2879112
40
0.7580313
50
269.6780691
51
315.5292436
0
ARC
8
DEFAULT_255_2_778
10
17.5610107
20
34.2871878
40
0.7597205
50
315.7303962
51
0.2857903
0
ARC
8
DEFAULT_255_2_778
10
17.8487376
20
34.2914382
40
0.4719845
50
359.944048
51
0.0186519
0
ARC
8
DEFAULT_255_2_778
10
17.5687772
20
34.2904605
40
0.7519457
50
0.086204
51
85.4319233
0
ARC
8
DEFAULT_255_2_778
10
17.5599609
20
34.2480338
40
0.7949581
50
85.0420495
51
90.0100075
0
ARC
8
DEFAULT_255_2_778
10
17.5579396
20
34.3047519
40
0.7382424
50
89.8538973
51
89.9999976
0
ARC
8
DEFAULT_255_2_778
10
17.5580088
20
34.2922109
40
0.7507833
50
90.0052819
51
134.9571409
0
ARC
8
DEFAULT_255_2_778
10
17.5579709
20
34.2916565
40
0.751149
50
134.9252185
51
180.0049334
0
ARC
8
DEFAULT_255_2_778
10
17.5708624
20
34.2876875
40
0.7640503
50
179.7072119
51
222.5790813
0
ARC
8
DEFAULT_255_2_778
10
17.5579296
20
34.2766475
40
0.7470579
50
222.6267201
51
270.1451401
0
ARC
8
DEFAULT_255_2_778
10
9.564442
20
34.2695858
40
1.2841942
50
233.3100129
51
270.0348017
0
ARC
8
DEFAULT_255_2_778
10
9.5765133
20
34.2899622
40
1.3077482
50
187.7860459
51
233.4193197
0
ARC
8
DEFAULT_255_2_778
10
9.5947588
20
34.2915185
40
1.3260368
50
179.9838663
51
187.7458681
0
ARC
8
DEFAULT_255_2_778
10
9.5535129
20
34.2919961
40
1.2847909
50
143.1940819
51
180.0046489
0
ARC
8
DEFAULT_255_2_778
10
9.5683078
20
34.2873006
40
1.2994598
50
94.9233187
51
143.4191345
0
ARC
8
DEFAULT_255_2_778
10
9.5651008
20
34.288012
40
1.2984798
50
89.9946509
51
94.7850278
0
ARC
8
DEFAULT_255_2_778
10
9.5673902
20
34.2818441
40
1.3046496
50
58.1428905
51
90.0952196
0
ARC
8
DEFAULT_255_2_778
10
9.5758177
20
34.2879453
40
1.2950254
50
3.2656058
51
58.3171105
0
ARC
8
DEFAULT_255_2_778
10
9.5763693
20
34.2919485
40
1.2942527
50
359.997494
51
3.0900664
0
ARC
8
DEFAULT_255_2_778
10
9.5936718
20
34.2897448
40
1.276952
50
359.9949307
51
0.0963391
0
ARC
8
DEFAULT_255_2_778
10
9.5659855
20
34.2897925
40
1.3046385
50
315.0321687
51
359.9929412
0
ARC
8
DEFAULT_255_2_778
10
9.5662654
20
34.2899266
40
1.3045353
50
270.0038431
51
315.0193137
0
LINE
8
DEFAULT_255_2_778
10
9.5663529
20
32.9853914
11
9.5652221
21
32.9853919
0
ARC
8
DEFAULT_255_2_778
10
9.5694412
20
34.2879135
40
0.7580334
50
269.6810953
51
315.6152252
0
ARC
8
DEFAULT_255_2_778
10
9.5663839
20
34.2872381
40
0.7597504
50
315.8129036
51
0.3254485
0
ARC
8
DEFAULT_255_2_778
10
9.5738176
20
34.2901565
40
0.7523058
50
0.1093155
51
85.7820321
0
ARC
8
DEFAULT_255_2_778
10
9.5653381
20
34.2486263
40
0.7943655
50
85.3923987
51
90.0083732
0
ARC
8
DEFAULT_255_2_778
10
9.5633385
20
34.3038348
40
0.7391595
50
89.8539942
51
89.9999859
0
ARC
8
DEFAULT_255_2_778
10
9.563405
20
34.2919783
40
0.7510159
50
90.0050654
51
134.9497993
0
ARC
8
DEFAULT_255_2_778
10
9.5632746
20
34.2917963
40
0.7510526
50
134.9329452
51
180.0155944
0
ARC
8
DEFAULT_255_2_778
10
9.5762945
20
34.2876612
40
0.7640826
50
179.7052536
51
222.5741919
0
ARC
8
DEFAULT_255_2_778
10
9.5632805
20
34.2766163
40
0.7470269
50
222.6256588
51
270.1489141
0
LINE
8
DEFAULT_255_2_778
10
14.0768221
20
35.5076919
11
14.0768221
21
33.0448919
0
LINE
8
DEFAULT_255_2_778
10
14.0768221
20
33.0448919
11
14.6203221
21
33.0448919
0
LINE
8
DEFAULT_255_2_778
10
14.6203221
20
33.0448919
11
14.6203221
21
35.0522919
0
LINE
8
DEFAULT_255_2_778
10
14.6203221
20
35.0522919
11
15.2632221
21
35.0522919
0
LINE
8
DEFAULT_255_2_778
10
15.2632221
20
34.2915919
11
14.7986221
21
34.2915919
0
LINE
8
DEFAULT_255_2_778
10
14.7986221
20
34.2915919
11
15.6397221
21
33.0445919
0
LINE
8
DEFAULT_255_2_778
10
15.6397221
20
33.0445919
11
16.3126221
21
33.0445919
0
LINE
8
DEFAULT_255_2_778
10
16.3126221
20
33.0445919
11
15.6993221
21
33.9449919
0
LINE
8
DEFAULT_255_2_778
10
15.3421221
20
35.5282919
11
14.6200221
21
35.5282919
0
LINE
8
DEFAULT_255_2_778
10
14.6200221
20
35.5282919
11
14.0766221
21
35.5076919
0
LINE
8
DEFAULT_255_2_778
10
14.0766221
20
35.5076919
11
14.0768221
21
35.5076919
0
LINE
8
DEFAULT_255_2_778
10
19.0142221
20
35.5076919
11
19.0142221
21
33.0448919
0
LINE
8
DEFAULT_255_2_778
10
19.0142221
20
33.0448919
11
19.5577221
21
33.0448919
0
LINE
8
DEFAULT_255_2_778
10
19.5577221
20
33.0448919
11
19.5577221
21
35.0522919
0
LINE
8
DEFAULT_255_2_778
10
19.5577221
20
35.0522919
11
20.1723221
21
35.0522919
0
LINE
8
DEFAULT_255_2_778
10
20.5578221
20
34.6770919
11
20.5578221
21
33.0448919
0
LINE
8
DEFAULT_255_2_778
10
20.5578221
20
33.0448919
11
21.1013221
21
33.0448919
0
LINE
8
DEFAULT_255_2_778
10
21.1013221
20
33.0448919
11
21.1013221
21
34.6577919
0
LINE
8
DEFAULT_255_2_778
10
20.2305221
20
35.5282919
11
19.5577221
21
35.5282919
0
LINE
8
DEFAULT_255_2_778
10
19.5577221
20
35.5282919
11
19.0142221
21
35.5076919
0
LINE
8
DEFAULT_255_2_778
10
19.0142221
20
35.5076919
11
19.0142221
21
35.5076919
0
LINE
8
DEFAULT_255_2_778
10
11.0196221
20
35.5076919
11
11.0196221
21
33.0448919
0
LINE
8
DEFAULT_255_2_778
10
11.0196221
20
33.0448919
11
11.5628221
21
33.0448919
0
LINE
8
DEFAULT_255_2_778
10
11.5628221
20
33.0448919
11
11.5628221
21
35.0522919
0
LINE
8
DEFAULT_255_2_778
10
11.5628221
20
35.0522919
11
12.1671221
21
35.0522919
0
LINE
8
DEFAULT_255_2_778
10
12.1671221
20
35.0522919
11
12.1671221
21
33.0448919
0
LINE
8
DEFAULT_255_2_778
10
12.1671221
20
33.0448919
11
12.7105221
21
33.0448919
0
LINE
8
DEFAULT_255_2_778
10
12.7105221
20
33.0448919
11
12.7105221
21
35.0522919
0
LINE
8
DEFAULT_255_2_778
10
12.7105221
20
35.0522919
11
12.9188221
21
35.0522919
0
LINE
8
DEFAULT_255_2_778
10
13.3042221
20
34.6770919
11
13.3042221
21
33.0448919
0
LINE
8
DEFAULT_255_2_778
10
13.3042221
20
33.0448919
11
13.8490221
21
33.0448919
0
LINE
8
DEFAULT_255_2_778
10
13.8490221
20
33.0448919
11
13.8490221
21
34.6577919
0
LINE
8
DEFAULT_255_2_778
10
12.9783221
20
35.5282919
11
11.5731221
21
35.5282919
0
LINE
8
DEFAULT_255_2_778
10
11.5731221
20
35.5282919
11
11.0193221
21
35.5076919
0
LINE
8
DEFAULT_255_2_778
10
11.0193221
20
35.5076919
11
11.0196221
21
35.5076919
0
LINE
8
DEFAULT_255_2_778
10
17.5598221
20
32.9850919
11
17.5598221
21
32.9853919
0
LINE
8
DEFAULT_255_2_778
10
9.5652221
20
32.9853919
11
9.5652221
21
32.9853919
0
LINE
8
DEFAULT_255_1_234
10
11.519223
20
30.8082663
11
11.6742355
21
30.8082663
0
LINE
8
DEFAULT_255_1_234
10
10.7738777
20
30.9672947
11
10.7738777
21
31.0797391
0
LINE
8
DEFAULT_255_1_234
10
11.6742355
20
31.2307357
11
11.519223
21
31.2307357
0
LINE
8
DEFAULT_255_1_234
10
10.9288902
20
31.0757232
11
10.9288902
21
30.9624757
0
ARC
8
DEFAULT_255_1_234
10
11.1261742
20
30.8679846
40
0.5513052
50
340.1774281
51
353.7814284
0
ARC
8
DEFAULT_255_1_234
10
11.2833095
20
30.8094582
40
0.3836379
50
311.4558989
51
340.4421614
0
ARC
8
DEFAULT_255_1_234
10
11.2799763
20
30.8205528
40
0.3941894
50
282.4333181
51
310.7513653
0
ARC
8
DEFAULT_255_1_234
10
11.2360502
20
31.0020679
40
0.5809175
50
269.9358511
51
282.809604
0
ARC
8
DEFAULT_255_1_234
10
11.2308568
20
31.1478212
40
0.7266847
50
270.0021091
51
270.3581957
0
ARC
8
DEFAULT_255_1_234
10
11.2255985
20
30.8877585
40
0.4666519
50
250.7884749
51
270.6489167
0
ARC
8
DEFAULT_255_1_234
10
11.208782
20
30.8240319
40
0.4009729
50
219.3627325
51
250.0611886
0
ARC
8
DEFAULT_255_1_234
10
11.2917031
20
30.8945042
40
0.5097822
50
193.5479632
51
219.5756669
0
ARC
8
DEFAULT_255_1_234
10
11.5288652
20
30.9560919
40
0.7547848
50
181.1218675
51
193.87563
0
ARC
8
DEFAULT_255_1_234
10
11.7358833
20
30.967158
40
0.9620055
50
179.9918545
51
181.5394234
0
ARC
8
DEFAULT_255_1_234
10
11.5507935
20
31.0834788
40
0.7769248
50
169.5837241
51
180.2757934
0
ARC
8
DEFAULT_255_1_234
10
11.3670873
20
31.1174229
40
0.590109
50
155.0365899
51
169.6003176
0
ARC
8
DEFAULT_255_1_234
10
11.2535337
20
31.1721677
40
0.4640625
50
136.783148
51
155.2472683
0
ARC
8
DEFAULT_255_1_234
10
11.2145814
20
31.2052562
40
0.4130255
50
121.7633186
51
136.428115
0
ARC
8
DEFAULT_255_1_234
10
11.2280776
20
31.1803227
40
0.4413323
50
95.6459699
51
121.5490577
0
ARC
8
DEFAULT_255_1_234
10
11.2438058
20
31.0694949
40
0.55319
50
89.924208
51
96.1377933
0
ARC
8
DEFAULT_255_1_234
10
11.2488491
20
31.0813542
40
0.5413475
50
76.6779277
51
90.4563316
0
ARC
8
DEFAULT_255_1_234
10
11.2882114
20
31.2404114
40
0.3775041
50
47.485847
51
76.9287264
0
ARC
8
DEFAULT_255_1_234
10
11.2735087
20
31.2304159
40
0.3948286
50
16.5424086
51
46.8933463
0
ARC
8
DEFAULT_255_1_234
10
11.1127244
20
31.1775861
40
0.564021
50
5.4072051
51
17.0365086
0
ARC
8
DEFAULT_255_1_234
10
10.9688261
20
31.1544679
40
0.5556559
50
7.8891745
51
15.9239216
0
ARC
8
DEFAULT_255_1_234
10
11.1675274
20
31.2121631
40
0.3487515
50
15.7653144
51
27.9410532
0
ARC
8
DEFAULT_255_1_234
10
11.2779492
20
31.271279
40
0.2235026
50
27.8166557
51
46.4008329
0
ARC
8
DEFAULT_255_1_234
10
11.2829135
20
31.2707082
40
0.2205286
50
47.4371857
51
75.0698205
0
ARC
8
DEFAULT_255_1_234
10
11.2520529
20
31.1632765
40
0.3322915
50
74.7008593
51
87.8124495
0
ARC
8
DEFAULT_255_1_234
10
11.2447217
20
31.0576844
40
0.4380987
50
87.3814673
51
90.0240855
0
ARC
8
DEFAULT_255_1_234
10
11.240876
20
31.1754291
40
0.3203749
50
89.3451631
51
108.5745436
0
ARC
8
DEFAULT_255_1_234
10
11.2271865
20
31.2267908
40
0.2673494
50
109.2998449
51
143.3037509
0
ARC
8
DEFAULT_255_1_234
10
11.3033938
20
31.1681881
40
0.3634757
50
143.0753173
51
163.1916937
0
ARC
8
DEFAULT_255_1_234
10
11.4985666
20
31.1065967
40
0.5681262
50
162.9373603
51
174.6208611
0
ARC
8
DEFAULT_255_1_234
10
11.7611708
20
31.077801
40
0.8322832
50
174.3419979
51
180.1430411
0
ARC
8
DEFAULT_255_1_234
10
11.6680864
20
30.9583698
40
0.7392076
50
179.6817502
51
189.150529
0
ARC
8
DEFAULT_255_1_234
10
11.4180112
20
30.916719
40
0.4856932
50
188.9910863
51
203.5773039
0
ARC
8
DEFAULT_255_1_234
10
11.3100445
20
30.8719211
40
0.3688271
50
203.9077269
51
215.1312379
0
ARC
8
DEFAULT_255_1_234
10
11.2177539
20
30.8003941
40
0.2522457
50
213.9071664
51
263.8849284
0
ARC
8
DEFAULT_255_1_234
10
11.2302868
20
30.8788518
40
0.3316174
50
263.1758525
51
270.1031083
0
ARC
8
DEFAULT_255_1_234
10
11.233496
20
31.0035365
40
0.4563091
50
269.6719807
51
279.0609165
0
ARC
8
DEFAULT_255_1_234
10
11.2601728
20
30.8422907
40
0.2928759
50
278.8750225
51
293.6346586
0
ARC
8
DEFAULT_255_1_234
10
11.2921936
20
30.76709
40
0.2111472
50
293.8553404
51
310.0518804
0
ARC
8
DEFAULT_255_1_234
10
11.292679
20
30.7608516
40
0.2060917
50
311.0646779
51
332.0108348
0
ARC
8
DEFAULT_255_1_234
10
11.1734517
20
30.8265978
40
0.3422352
50
331.6588543
51
343.2878891
0
ARC
8
DEFAULT_255_1_234
10
10.9672032
20
30.8899798
40
0.5580003
50
343.1446044
51
351.010618
0
ARC
8
DEFAULT_255_1_234
10
10.8130678
20
30.9180871
40
0.7146438
50
350.7157277
51
351.1602153
0
LINE
8
DEFAULT_255_1_234
10
12.3746031
20
30.7761394
11
12.3746031
21
31.6066211
0
LINE
8
DEFAULT_255_1_234
10
12.3746031
20
31.6066211
11
12.5296157
21
31.6066211
0
LINE
8
DEFAULT_255_1_234
10
12.5296157
20
31.6066211
11
12.5296157
21
30.7785489
0
LINE
8
DEFAULT_255_1_234
10
11.7914989
20
30.7600759
11
11.9457083
21
30.7600759
0
ARC
8
DEFAULT_255_1_234
10
12.0805342
20
30.7747089
40
0.4490979
50
346.3129415
51
0.4899112
0
ARC
8
DEFAULT_255_1_234
10
12.2173691
20
30.7396729
40
0.3078632
50
313.3793358
51
346.6225026
0
ARC
8
DEFAULT_255_1_234
10
12.1972878
20
30.7649522
40
0.3400404
50
281.1587967
51
312.9131091
0
ARC
8
DEFAULT_255_1_234
10
12.1632342
20
30.9144185
40
0.4932916
50
269.6424364
51
281.6795951
0
ARC
8
DEFAULT_255_1_234
10
12.1563706
20
30.9693382
40
0.5482147
50
258.9990078
51
270.3955952
0
ARC
8
DEFAULT_255_1_234
10
12.118901
20
30.7844746
40
0.359601
50
239.6256123
51
259.238693
0
ARC
8
DEFAULT_255_1_234
10
12.0900093
20
30.7299669
40
0.2979777
50
227.4959765
51
239.1188186
0
ARC
8
DEFAULT_255_1_234
10
12.0862659
20
30.7238689
40
0.2909561
50
191.339631
51
227.2280909
0
ARC
8
DEFAULT_255_1_234
10
12.22673
20
30.7571031
40
0.4352412
50
179.6086538
51
191.9934722
0
ARC
8
DEFAULT_255_1_234
10
12.2401322
20
30.7578427
40
0.2944324
50
179.5654258
51
192.070398
0
ARC
8
DEFAULT_255_1_234
10
12.1429812
20
30.7360079
40
0.194866
50
191.7656467
51
215.6461951
0
ARC
8
DEFAULT_255_1_234
10
12.1251313
20
30.7252546
40
0.1741017
50
216.1938368
51
224.3931108
0
ARC
8
DEFAULT_255_1_234
10
12.1258199
20
30.7279473
40
0.1764834
50
224.8613677
51
254.362656
0
ARC
8
DEFAULT_255_1_234
10
12.1528913
20
30.817401
40
0.2699302
50
253.9471729
51
267.3949949
0
ARC
8
DEFAULT_255_1_234
10
12.159942
20
30.9098067
40
0.362572
50
266.9456419
51
270.0337791
0
ARC
8
DEFAULT_255_1_234
10
12.16248
20
30.793623
40
0.2463991
50
269.4595111
51
286.1822844
0
ARC
8
DEFAULT_255_1_234
10
12.176609
20
30.7418047
40
0.1926982
50
286.4416479
51
315.8044008
0
ARC
8
DEFAULT_255_1_234
10
12.1711897
20
30.7460207
40
0.1995241
50
316.0212565
51
345.4794351
0
ARC
8
DEFAULT_255_1_234
10
12.0741404
20
30.7733575
40
0.3003349
50
345.0729543
51
358.325089
0
ARC
8
DEFAULT_255_1_234
10
11.9865375
20
30.7789568
40
0.3880759
50
357.8767804
51
359.5840246
0
LINE
8
DEFAULT_255_1_234
10
13.0781834
20
30.9946026
11
13.0781834
21
30.8733234
0
LINE
8
DEFAULT_255_1_234
10
13.0781834
20
30.8733234
11
12.6862346
21
30.8733234
0
LINE
8
DEFAULT_255_1_234
10
12.6862346
20
30.8733234
11
12.6862346
21
30.9946026
0
LINE
8
DEFAULT_255_1_234
10
12.6862346
20
30.9946026
11
13.0781834
21
30.9946026
0
LINE
8
DEFAULT_255_1_234
10
14.0219126
20
31.2684849
11
13.8669001
21
31.2684849
0
LINE
8
DEFAULT_255_1_234
10
13.1745643
20
30.7761394
11
13.3295768
21
30.7761394
0
ARC
8
DEFAULT_255_1_234
10
13.9327814
20
32.1631768
40
1.252368
50
248.9199003
51
254.1439814
0
ARC
8
DEFAULT_255_1_234
10
13.7647309
20
31.7305234
40
0.788226
50
241.633709
51
249.0064503
0
ARC
8
DEFAULT_255_1_234
10
13.6118703
20
31.4504317
40
0.4691427
50
230.498225
51
241.8087113
0
ARC
8
DEFAULT_255_1_234
10
13.5334277
20
31.3504906
40
0.3421437
50
227.4064532
51
229.9881192
0
ARC
8
DEFAULT_255_1_234
10
13.4846798
20
31.3029088
40
0.2741476
50
200.6781896
51
228.1763934
0
ARC
8
DEFAULT_255_1_234
10
13.4919109
20
31.3014077
40
0.2804109
50
179.5061581
51
199.8694617
0
ARC
8
DEFAULT_255_1_234
10
13.490986
20
31.308821
40
0.2795204
50
132.4834203
51
181.0242172
0
ARC
8
DEFAULT_255_1_234
10
13.5505443
20
31.2525704
40
0.3612768
50
129.2532479
51
133.4242687
0
ARC
8
DEFAULT_255_1_234
10
13.5651892
20
31.2305965
40
0.3875675
50
101.98776
51
128.8742646
0
ARC
8
DEFAULT_255_1_234
10
13.6050503
20
31.0584741
40
0.5642249
50
89.5906553
51
102.3169264
0
ARC
8
DEFAULT_255_1_234
10
13.6120995
20
31.0903148
40
0.5323783
50
77.2360837
51
90.3248275
0
ARC
8
DEFAULT_255_1_234
10
13.6328074
20
31.18704
40
0.4334697
50
63.837784
51
77.0809408
0
ARC
8
DEFAULT_255_1_234
10
13.6605836
20
31.2387911
40
0.3747796
50
45.9864267
51
64.1607727
0
ARC
8
DEFAULT_255_1_234
10
13.6866717
20
31.2685866
40
0.3352302
50
32.2747395
51
45.6547121
0
ARC
8
DEFAULT_255_1_234
10
13.6933158
20
31.270488
40
0.328603
50
359.6507365
51
32.6130309
0
ARC
8
DEFAULT_255_1_234
10
13.5990253
20
31.270966
40
0.2678863
50
359.469343
51
14.9832209
0
ARC
8
DEFAULT_255_1_234
10
13.6695316
20
31.2898539
40
0.1948938
50
14.9781179
51
48.2004265
0
ARC
8
DEFAULT_255_1_234
10
13.653096
20
31.2691983
40
0.2212521
50
48.5927837
51
74.1241538
0
ARC
8
DEFAULT_255_1_234
10
13.6197449
20
31.1591248
40
0.3362561
50
73.7888341
51
86.6652678
0
ARC
8
DEFAULT_255_1_234
10
13.6095015
20
31.0383881
40
0.4573953
50
86.2640471
51
90.0526343
0
ARC
8
DEFAULT_255_1_234
10
13.6066727
20
31.0779192
40
0.4178709
50
89.6697524
51
99.2309573
0
ARC
8
DEFAULT_255_1_234
10
13.5824178
20
31.2223964
40
0.2713749
50
99.069534
51
113.7658566
0
ARC
8
DEFAULT_255_1_234
10
13.5550369
20
31.2869677
40
0.2012469
50
114.0401004
51
127.9850673
0
ARC
8
DEFAULT_255_1_234
10
13.5309933
20
31.316573
40
0.1631167
50
127.7287463
51
176.7105154
0
ARC
8
DEFAULT_255_1_234
10
13.5988651
20
31.3064693
40
0.2315392
50
175.1779447
51
180.0581938
0
ARC
8
DEFAULT_255_1_234
10
13.5145498
20
31.3052428
40
0.1472271
50
179.6142195
51
228.1246017
0
ARC
8
DEFAULT_255_1_234
10
13.5587166
20
31.3461308
40
0.2072299
50
226.5779593
51
230.8800004
0
ARC
8
DEFAULT_255_1_234
10
13.6058245
20
31.4086636
40
0.2854818
50
231.4635071
51
241.9260842
0
ARC
8
DEFAULT_255_1_234
10
13.7255423
20
31.62898
40
0.53622
50
241.7178533
51
248.3259551
0
ARC
8
DEFAULT_255_1_234
10
13.8640795
20
31.9722064
40
0.9063478
50
248.2007737
51
252.4528373
0
ARC
8
DEFAULT_255_1_234
10
13.984452
20
32.3443441
40
1.2974635
50
252.3391078
51
254.3469452
0
ARC
8
DEFAULT_255_1_234
10
13.2302222
20
29.6466148
40
1.5037162
50
71.0197183
51
74.4087047
0
ARC
8
DEFAULT_255_1_234
10
13.3996907
20
30.1358111
40
0.9859993
50
66.1847285
51
71.086374
0
ARC
8
DEFAULT_255_1_234
10
13.555322
20
30.48622
40
0.6025855
50
59.3536294
51
66.2691831
0
ARC
8
DEFAULT_255_1_234
10
13.6441872
20
30.6365609
40
0.4279449
50
49.1020879
51
59.3293958
0
ARC
8
DEFAULT_255_1_234
10
13.7260612
20
30.7298834
40
0.3038015
50
32.7919921
51
49.2505539
0
ARC
8
DEFAULT_255_1_234
10
13.7581702
20
30.7527191
40
0.264448
50
31.1181161
51
32.4005348
0
ARC
8
DEFAULT_255_1_234
10
13.749324
20
30.7491779
40
0.2738556
50
8.1116974
51
30.7958831
0
ARC
8
DEFAULT_255_1_234
10
13.6682908
20
30.7353753
40
0.3560327
50
359.8389159
51
8.4706516
0
ARC
8
DEFAULT_255_1_234
10
13.7308699
20
30.7305137
40
0.2934776
50
337.4731098
51
0.7537279
0
ARC
8
DEFAULT_255_1_234
10
13.7487394
20
30.7285387
40
0.2762607
50
307.5917067
51
336.4315538
0
ARC
8
DEFAULT_255_1_234
10
13.7027222
20
30.7798102
40
0.3449979
50
307.6551545
51
308.4529766
0
ARC
8
DEFAULT_255_1_234
10
13.6796941
20
30.815325
40
0.3871988
50
284.3734338
51
307.1424381
0
ARC
8
DEFAULT_255_1_234
10
13.6301771
20
30.9974932
40
0.5759636
50
272.4382747
51
284.646547
0
ARC
8
DEFAULT_255_1_234
10
13.617498
20
31.1774893
40
0.7563528
50
269.9708387
51
272.8178037
0
ARC
8
DEFAULT_255_1_234
10
13.613202
20
30.9736716
40
0.5525489
50
248.2707594
51
270.4055579
0
ARC
8
DEFAULT_255_1_234
10
13.6077761
20
30.9546192
40
0.5328452
50
246.1383403
51
248.0542782
0
ARC
8
DEFAULT_255_1_234
10
13.565914
20
30.8666843
40
0.4355005
50
233.1670131
51
246.4950969
0
ARC
8
DEFAULT_255_1_234
10
13.5105045
20
30.7918812
40
0.3424126
50
215.3403242
51
233.0843104
0
ARC
8
DEFAULT_255_1_234
10
13.4832476
20
30.7720549
40
0.3087104
50
179.2419209
51
215.2648451
0
ARC
8
DEFAULT_255_1_234
10
13.560007
20
30.7734666
40
0.2304457
50
179.335461
51
199.1045811
0
ARC
8
DEFAULT_255_1_234
10
13.5267746
20
30.7647766
40
0.1962176
50
199.8828939
51
232.7063202
0
ARC
8
DEFAULT_255_1_234
10
13.5740015
20
30.8241788
40
0.2720938
50
232.3738199
51
255.5136649
0
ARC
8
DEFAULT_255_1_234
10
13.6080881
20
30.9485835
40
0.4010747
50
255.2446292
51
267.5320849
0
ARC
8
DEFAULT_255_1_234
10
13.6168505
20
31.0718702
40
0.5246356
50
267.1557994
51
270.0286766
0
ARC
8
DEFAULT_255_1_234
10
13.6196277
20
31.027495
40
0.4802668
50
269.7000017
51
278.1660162
0
ARC
8
DEFAULT_255_1_234
10
13.6452282
20
30.8544515
40
0.3053425
50
278.0231263
51
290.625471
0
ARC
8
DEFAULT_255_1_234
10
13.6799969
20
30.7617025
40
0.206291
50
290.6619762
51
307.0370976
0
ARC
8
DEFAULT_255_1_234
10
13.7100358
20
30.7248504
40
0.1587906
50
306.3943566
51
355.3030547
0
ARC
8
DEFAULT_255_1_234
10
13.6588289
20
30.7325113
40
0.2104809
50
354.3660432
51
0.0698737
0
ARC
8
DEFAULT_255_1_234
10
13.6730635
20
30.7347617
40
0.1962563
50
359.417946
51
16.1971788
0
ARC
8
DEFAULT_255_1_234
10
13.7185945
20
30.7472418
40
0.149053
50
16.4723299
51
52.6262157
0
ARC
8
DEFAULT_255_1_234
10
13.6364999
20
30.6388433
40
0.2850296
50
52.7386432
51
62.4979148
0
ARC
8
DEFAULT_255_1_234
10
13.4980076
20
30.3782283
40
0.5801521
50
62.2515216
51
68.1220564
0
ARC
8
DEFAULT_255_1_234
10
13.3259987
20
29.9554872
40
1.0365451
50
68.0062803
51
71.8053402
0
ARC
8
DEFAULT_255_1_234
10
13.1464358
20
29.4169758
40
1.6042013
50
71.7183119
51
73.9258742
0
LINE
8
DEFAULT_255_1_234
10
14.1608617
20
30.8476218
11
14.1608617
21
30.8749297
0
LINE
8
DEFAULT_255_1_234
10
14.8981753
20
30.8909932
11
14.8981753
21
30.8291488
0
LINE
8
DEFAULT_255_1_234
10
14.8981753
20
30.8291488
11
14.3094489
21
30.8291488
0
LINE
8
DEFAULT_255_1_234
10
14.7961722
20
30.6596792
11
14.8869309
21
30.5889999
0
LINE
8
DEFAULT_255_1_234
10
14.3142679
20
30.9512313
11
14.7495881
21
30.9512313
0
LINE
8
DEFAULT_255_1_234
10
14.7495881
20
30.9512313
11
14.7495881
21
30.9624757
0
ARC
8
DEFAULT_255_1_234
10
14.5547982
20
30.8587332
40
0.4376191
50
252.3266134
51
270.5810217
0
ARC
8
DEFAULT_255_1_234
10
14.5343071
20
30.7846644
40
0.3608374
50
223.3000567
51
251.8561855
0
ARC
8
DEFAULT_255_1_234
10
14.5554432
20
30.8051937
40
0.3902993
50
190.9374509
51
223.3654032
0
ARC
8
DEFAULT_255_1_234
10
14.7279404
20
30.8441885
40
0.5670891
50
179.6531105
51
191.4989439
0
ARC
8
DEFAULT_255_1_234
10
14.7401417
20
30.8781417
40
0.5792888
50
167.4007466
51
180.3176909
0
ARC
8
DEFAULT_255_1_234
10
14.6349478
20
30.9003885
40
0.471777
50
154.1835823
51
167.250763
0
ARC
8
DEFAULT_255_1_234
10
14.5717945
20
30.9336417
40
0.4004528
50
134.3149965
51
154.5315275
0
ARC
8
DEFAULT_255_1_234
10
14.5500441
20
30.9527228
40
0.371612
50
122.8616532
51
133.9707695
0
ARC
8
DEFAULT_255_1_234
10
14.5397015
20
30.9749703
40
0.3473289
50
89.8249009
51
123.4199222
0
ARC
8
DEFAULT_255_1_234
10
14.5447056
20
30.9102967
40
0.4120197
50
74.7876118
51
90.5482747
0
ARC
8
DEFAULT_255_1_234
10
14.5740799
20
31.018803
40
0.2996077
50
39.8178249
51
74.7633718
0
ARC
8
DEFAULT_255_1_234
10
14.5228119
20
30.9788351
40
0.3645855
50
16.8990863
51
39.4829761
0
ARC
8
DEFAULT_255_1_234
10
14.3333416
20
30.9181526
40
0.5635218
50
4.9636328
51
17.2026414
0
ARC
8
DEFAULT_255_1_234
10
14.0915486
20
30.892634
40
0.8066286
50
359.8834553
51
5.2834307
0
ARC
8
DEFAULT_255_1_234
10
14.695301
20
30.8357803
40
0.3859091
50
180.9846213
51
194.9401313
0
ARC
8
DEFAULT_255_1_234
10
14.5903288
20
30.8070849
40
0.2770883
50
194.80314
51
222.0412631
0
ARC
8
DEFAULT_255_1_234
10
14.559917
20
30.7769116
40
0.2343055
50
221.5417084
51
268.8614402
0
ARC
8
DEFAULT_255_1_234
10
14.5672165
20
30.8445686
40
0.3021528
50
267.732405
51
270.0097136
0
ARC
8
DEFAULT_255_1_234
10
14.5689975
20
30.8647105
40
0.3222994
50
269.6924892
51
280.4117579
0
ARC
8
DEFAULT_255_1_234
10
14.5866381
20
30.7728193
40
0.2287344
50
280.2255091
51
298.6338936
0
ARC
8
DEFAULT_255_1_234
10
14.5983173
20
30.7484223
40
0.2017294
50
299.0430333
51
300.4643464
0
ARC
8
DEFAULT_255_1_234
10
14.5303179
20
30.8618038
40
0.3339357
50
300.6577328
51
322.0378878
0
ARC
8
DEFAULT_255_1_234
10
14.4952718
20
30.8922021
40
0.3802736
50
321.6750233
51
322.3046845
0
ARC
8
DEFAULT_255_1_234
10
14.5883679
20
30.775537
40
0.3520454
50
276.9728461
51
328.0035423
0
ARC
8
DEFAULT_255_1_234
10
14.5606732
20
30.9235841
40
0.5024498
50
269.8361028
51
278.0581756
0
ARC
8
DEFAULT_255_1_234
10
14.537947
20
30.9980757
40
0.202159
50
89.2018686
51
117.2851756
0
ARC
8
DEFAULT_255_1_234
10
14.5432639
20
30.9938752
40
0.2083484
50
118.0551165
51
137.4540413
0
ARC
8
DEFAULT_255_1_234
10
14.5807379
20
30.9598304
40
0.2589774
50
137.5109581
51
158.8516286
0
ARC
8
DEFAULT_255_1_234
10
14.6945214
20
30.9139074
40
0.38167
50
158.5845963
51
170.1721436
0
ARC
8
DEFAULT_255_1_234
10
14.8114603
20
30.8906823
40
0.5008657
50
169.8376422
51
173.0566086
0
ARC
8
DEFAULT_255_1_234
10
14.3417677
20
30.9417509
40
0.4083467
50
2.9091802
51
12.8847116
0
ARC
8
DEFAULT_255_1_234
10
14.4788354
20
30.9740101
40
0.2675383
50
12.6957781
51
28.6404489
0
ARC
8
DEFAULT_255_1_234
10
14.5330025
20
31.0020458
40
0.2065654
50
29.0169854
51
41.1487595
0
ARC
8
DEFAULT_255_1_234
10
14.553281
20
31.0197003
40
0.1796786
50
41.1646065
51
85.0013516
0
ARC
8
DEFAULT_255_1_234
10
14.5411906
20
30.9462431
40
0.2539726
50
83.7280015
51
90.0964893
0
LINE
8
DEFAULT_255_1_234
10
15.4901144
20
31.3110531
11
15.4901144
21
31.1729072
0
LINE
8
DEFAULT_255_1_234
10
15.2186417
20
31.0540375
11
15.2186417
21
30.4372
0
LINE
8
DEFAULT_255_1_234
10
15.2186417
20
30.4372
11
15.0700545
21
30.4372
0
LINE
8
DEFAULT_255_1_234
10
15.0700545
20
30.4372
11
15.0700545
21
31.3062341
0
LINE
8
DEFAULT_255_1_234
10
15.0700545
20
31.3062341
11
15.2146258
21
31.3062341
0
LINE
8
DEFAULT_255_1_234
10
15.2146258
20
31.3062341
11
15.2170353
21
31.2058374
0
ARC
8
DEFAULT_255_1_234
10
15.423455
20
30.7669342
40
0.4114092
50
80.6754243
51
86.8932892
0
ARC
8
DEFAULT_255_1_234
10
15.4174084
20
30.67017
40
0.5083596
50
86.8038578
51
90.0431435
0
ARC
8
DEFAULT_255_1_234
10
15.4137065
20
30.9158866
40
0.2626638
50
89.2759698
51
106.6213787
0
ARC
8
DEFAULT_255_1_234
10
15.3932629
20
30.990183
40
0.1856317
50
107.1346045
51
157.6458115
0
ARC
8
DEFAULT_255_1_234
10
15.462423
20
30.9518311
40
0.2643398
50
155.6586782
51
157.2539184
0
ARC
8
DEFAULT_255_1_234
10
15.4419432
20
31.0687157
40
0.2634121
50
127.8165941
51
148.6302098
0
ARC
8
DEFAULT_255_1_234
10
15.4165901
20
31.0947218
40
0.2273596
50
91.3329982
51
126.7875809
0
ARC
8
DEFAULT_255_1_234
10
15.4241842
20
31.0232195
40
0.299078
50
89.986594
51
92.4688449
0
ARC
8
DEFAULT_255_1_234
10
15.4250237
20
31.0507078
40
0.2715908
50
85.3589899
51
90.1623399
0
ARC
8
DEFAULT_255_1_234
10
15.4334752
20
31.1511164
40
0.1708278
50
78.401942
51
85.4594656
0
ARC
8
DEFAULT_255_1_234
10
15.4479636
20
31.2202236
40
0.1002194
50
67.7858312
51
78.5728455
0
ARC
8
DEFAULT_255_1_234
10
15.4587489
20
31.2481887
40
0.0702548
50
63.4835954
51
67.3062642
0
LINE
8
DEFAULT_255_1_234
10
15.7880919
20
31.3062341
11
15.7880919
21
30.4372
0
LINE
8
DEFAULT_255_1_234
10
15.7880919
20
30.4372
11
15.6395047
21
30.4372
0
LINE
8
DEFAULT_255_1_234
10
15.6395047
20
30.4372
11
15.6395047
21
31.3062341
0
LINE
8
DEFAULT_255_1_234
10
15.6395047
20
31.3062341
11
15.7880919
21
31.3062341
0
ARC
8
DEFAULT_255_1_234
10
15.7253196
20
31.5376889
40
0.097867
50
161.415052
51
180.5526306
0
ARC
8
DEFAULT_255_1_234
10
15.7128974
20
31.5411077
40
0.0850062
50
138.1827368
51
160.9307106
0
ARC
8
DEFAULT_255_1_234
10
15.701892
20
31.5506588
40
0.0704362
50
104.6368899
51
138.0039868
0
ARC
8
DEFAULT_255_1_234
10
15.7126075
20
31.5139963
40
0.1086221
50
92.0600725
51
105.2189128
0
ARC
8
DEFAULT_255_1_234
10
15.7149423
20
31.4797117
40
0.1429728
50
89.9756393
51
92.5012496
0
ARC
8
DEFAULT_255_1_234
10
15.7159442
20
31.5022731
40
0.1204151
50
78.0235316
51
90.4478182
0
ARC
8
DEFAULT_255_1_234
10
15.7251534
20
31.5436295
40
0.0780493
50
55.051506
51
78.3369085
0
ARC
8
DEFAULT_255_1_234
10
15.7301809
20
31.5520711
40
0.0682538
50
42.0501187
51
54.4513741
0
ARC
8
DEFAULT_255_1_234
10
15.7166676
20
31.5396798
40
0.0865878
50
1.7497075
51
42.1496013
0
ARC
8
DEFAULT_255_1_234
10
15.6912009
20
31.5367738
40
0.1121515
50
359.9852656
51
2.8364544
0
ARC
8
DEFAULT_255_1_234
10
15.7078001
20
31.5358229
40
0.0955566
50
342.1070653
51
0.552888
0
ARC
8
DEFAULT_255_1_234
10
15.7220698
20
31.5318904
40
0.0807713
50
316.7107116
51
341.6516965
0
ARC
8
DEFAULT_255_1_234
10
15.7287735
20
31.5258823
40
0.0717724
50
285.4397031
51
316.5324284
0
ARC
8
DEFAULT_255_1_234
10
15.7177652
20
31.5624554
40
0.1099597
50
272.3547054
51
285.8953117
0
ARC
8
DEFAULT_255_1_234
10
15.715081
20
31.5990048
40
0.1465932
50
269.9695369
51
272.8160237
0
ARC
8
DEFAULT_255_1_234
10
15.7140992
20
31.5770863
40
0.1246779
50
258.8431134
51
270.4153935
0
ARC
8
DEFAULT_255_1_234
10
15.7051034
20
31.5335414
40
0.0802162
50
238.5431189
51
259.1288175
0
ARC
8
DEFAULT_255_1_234
10
15.6982919
20
31.5211856
40
0.0661247
50
222.5062634
51
237.9906969
0
ARC
8
DEFAULT_255_1_234
10
15.7110506
20
31.5327889
40
0.0833707
50
184.1069131
51
222.460413
0
ARC
8
DEFAULT_255_1_234
10
15.7379747
20
31.5366349
40
0.1105176
50
179.9429482
51
185.0960898
0
LINE
8
DEFAULT_255_1_234
10
15.9880822
20
30.8476218
11
15.9880822
21
30.8749297
0
LINE
8
DEFAULT_255_1_234
10
16.7253958
20
30.8909932
11
16.7253958
21
30.8291488
0
LINE
8
DEFAULT_255_1_234
10
16.7253958
20
30.8291488
11
16.1366693
21
30.8291488
0
LINE
8
DEFAULT_255_1_234
10
16.6233927
20
30.6596792
11
16.7141513
21
30.5889999
0
LINE
8
DEFAULT_255_1_234
10
16.1414884
20
30.9512313
11
16.5768086
21
30.9512313
0
LINE
8
DEFAULT_255_1_234
10
16.5768086
20
30.9512313
11
16.5768086
21
30.9624757
0
ARC
8
DEFAULT_255_1_234
10
16.3820187
20
30.8587332
40
0.4376191
50
252.3266134
51
270.5810217
0
ARC
8
DEFAULT_255_1_234
10
16.3615276
20
30.7846644
40
0.3608374
50
223.3000567
51
251.8561855
0
ARC
8
DEFAULT_255_1_234
10
16.3826637
20
30.8051937
40
0.3902993
50
190.9374509
51
223.3654032
0
ARC
8
DEFAULT_255_1_234
10
16.5551609
20
30.8441885
40
0.5670891
50
179.6531105
51
191.4989439
0
ARC
8
DEFAULT_255_1_234
10
16.5673621
20
30.8781417
40
0.5792888
50
167.4007466
51
180.3176909
0
ARC
8
DEFAULT_255_1_234
10
16.4621683
20
30.9003885
40
0.471777
50
154.1835823
51
167.250763
0
ARC
8
DEFAULT_255_1_234
10
16.399015
20
30.9336417
40
0.4004528
50
134.3149965
51
154.5315275
0
ARC
8
DEFAULT_255_1_234
10
16.3772645
20
30.9527228
40
0.371612
50
122.8616532
51
133.9707695
0
ARC
8
DEFAULT_255_1_234
10
16.3669219
20
30.9749703
40
0.3473289
50
89.8249009
51
123.4199222
0
ARC
8
DEFAULT_255_1_234
10
16.371926
20
30.9102967
40
0.4120197
50
74.7876118
51
90.5482747
0
ARC
8
DEFAULT_255_1_234
10
16.4013004
20
31.018803
40
0.2996077
50
39.8178249
51
74.7633718
0
ARC
8
DEFAULT_255_1_234
10
16.3500324
20
30.9788351
40
0.3645855
50
16.8990863
51
39.4829761
0
ARC
8
DEFAULT_255_1_234
10
16.160562
20
30.9181526
40
0.5635218
50
4.9636328
51
17.2026414
0
ARC
8
DEFAULT_255_1_234
10
15.918769
20
30.892634
40
0.8066286
50
359.8834553
51
5.2834307
0
ARC
8
DEFAULT_255_1_234
10
16.5225215
20
30.8357803
40
0.3859091
50
180.9846213
51
194.9401313
0
ARC
8
DEFAULT_255_1_234
10
16.4175493
20
30.8070849
40
0.2770883
50
194.80314
51
222.0412631
0
ARC
8
DEFAULT_255_1_234
10
16.3871375
20
30.7769116
40
0.2343055
50
221.5417084
51
268.8614402
0
ARC
8
DEFAULT_255_1_234
10
16.3944369
20
30.8445686
40
0.3021528
50
267.732405
51
270.0097136
0
ARC
8
DEFAULT_255_1_234
10
16.3962179
20
30.8647105
40
0.3222994
50
269.6924892
51
280.4117579
0
ARC
8
DEFAULT_255_1_234
10
16.4138586
20
30.7728193
40
0.2287344
50
280.2255091
51
298.6338936
0
ARC
8
DEFAULT_255_1_234
10
16.4255378
20
30.7484223
40
0.2017294
50
299.0430333
51
300.4643464
0
ARC
8
DEFAULT_255_1_234
10
16.3575383
20
30.8618038
40
0.3339357
50
300.6577328
51
322.0378878
0
ARC
8
DEFAULT_255_1_234
10
16.3224923
20
30.8922021
40
0.3802736
50
321.6750233
51
322.3046845
0
ARC
8
DEFAULT_255_1_234
10
16.4155884
20
30.775537
40
0.3520454
50
276.9728461
51
328.0035423
0
ARC
8
DEFAULT_255_1_234
10
16.3878937
20
30.9235841
40
0.5024498
50
269.8361028
51
278.0581756
0
ARC
8
DEFAULT_255_1_234
10
16.3651674
20
30.9980757
40
0.202159
50
89.2018686
51
117.2851756
0
ARC
8
DEFAULT_255_1_234
10
16.3704843
20
30.9938752
40
0.2083484
50
118.0551165
51
137.4540413
0
ARC
8
DEFAULT_255_1_234
10
16.4079583
20
30.9598304
40
0.2589774
50
137.5109581
51
158.8516286
0
ARC
8
DEFAULT_255_1_234
10
16.5217419
20
30.9139074
40
0.38167
50
158.5845963
51
170.1721436
0
ARC
8
DEFAULT_255_1_234
10
16.6386808
20
30.8906823
40
0.5008657
50
169.8376422
51
173.0566086
0
ARC
8
DEFAULT_255_1_234
10
16.1689882
20
30.9417509
40
0.4083467
50
2.9091802
51
12.8847116
0
ARC
8
DEFAULT_255_1_234
10
16.3060558
20
30.9740101
40
0.2675383
50
12.6957781
51
28.6404489
0
ARC
8
DEFAULT_255_1_234
10
16.3602229
20
31.0020458
40
0.2065654
50
29.0169854
51
41.1487595
0
ARC
8
DEFAULT_255_1_234
10
16.3805014
20
31.0197003
40
0.1796786
50
41.1646065
51
85.0013516
0
ARC
8
DEFAULT_255_1_234
10
16.3684111
20
30.9462431
40
0.2539726
50
83.7280015
51
90.0964893
0
LINE
8
DEFAULT_255_1_234
10
17.5438299
20
31.0508248
11
17.3944396
21
31.0508248
0
LINE
8
DEFAULT_255_1_234
10
16.8611321
20
30.7046569
11
17.0097193
21
30.7046569
0
ARC
8
DEFAULT_255_1_234
10
17.2756214
20
30.6691959
40
0.1276617
50
359.3334982
51
18.5871358
0
ARC
8
DEFAULT_255_1_234
10
17.2964851
20
30.6747133
40
0.1061371
50
19.3540742
51
54.6485071
0
ARC
8
DEFAULT_255_1_234
10
17.2460753
20
30.6051919
40
0.1920087
50
54.3827097
51
65.0622807
0
ARC
8
DEFAULT_255_1_234
10
17.169215
20
30.44349
40
0.3710447
50
64.8282493
51
71.4200025
0
ARC
8
DEFAULT_255_1_234
10
17.0790025
20
30.1788107
40
0.6506741
50
71.3164301
51
75.8006402
0
ARC
8
DEFAULT_255_1_234
10
16.9948845
20
29.8547561
40
0.9854641
50
75.6809531
51
78.0061883
0
ARC
8
DEFAULT_255_1_234
10
17.4397378
20
31.952677
40
1.1591028
50
254.6901892
51
258.0466452
0
ARC
8
DEFAULT_255_1_234
10
17.3359287
20
31.5767781
40
0.7691345
50
249.9010773
51
254.755261
0
ARC
8
DEFAULT_255_1_234
10
17.2355629
20
31.3041982
40
0.478665
50
243.3097214
51
249.9709442
0
ARC
8
DEFAULT_255_1_234
10
17.172665
20
31.1787778
40
0.3383568
50
234.4047477
51
243.2862168
0
ARC
8
DEFAULT_255_1_234
10
17.1104173
20
31.0928232
40
0.2322322
50
220.8667099
51
234.5493881
0
ARC
8
DEFAULT_255_1_234
10
17.0762114
20
31.0616817
40
0.1859923
50
214.3062465
51
220.5065136
0
ARC
8
DEFAULT_255_1_234
10
17.0736194
20
31.058588
40
0.1821108
50
186.912965
51
213.9618616
0
ARC
8
DEFAULT_255_1_234
10
17.1268288
20
31.0672009
40
0.2359799
50
179.8808832
51
187.4339886
0
ARC
8
DEFAULT_255_1_234
10
17.1113422
20
31.0692088
40
0.2204978
50
132.005434
51
180.3942919
0
ARC
8
DEFAULT_255_1_234
10
17.1770035
20
31.0086083
40
0.3095791
50
129.2319861
51
133.5302299
0
ARC
8
DEFAULT_255_1_234
10
17.1823543
20
30.9991928
40
0.3202615
50
100.4410011
51
128.9081242
0
ARC
8
DEFAULT_255_1_234
10
17.2097427
20
30.8706455
40
0.4516583
50
89.6985377
51
100.9026564
0
ARC
8
DEFAULT_255_1_234
10
17.2154469
20
30.8546166
40
0.4676928
50
77.6965325
51
90.4076836
0
ARC
8
DEFAULT_255_1_234
10
17.2485453
20
30.9973413
40
0.3211988
50
50.7276602
51
78.0399361
0
ARC
8
DEFAULT_255_1_234
10
17.2929911
20
31.0491296
40
0.2529778
50
25.7545084
51
51.0957453
0
ARC
8
DEFAULT_255_1_234
10
17.2931136
20
31.0541206
40
0.250738
50
359.2468627
51
24.7394243
0
ARC
8
DEFAULT_255_1_234
10
17.2646588
20
31.0512664
40
0.1297815
50
359.8050318
51
45.1544908
0
ARC
8
DEFAULT_255_1_234
10
17.223973
20
31.0164794
40
0.1831883
50
43.8047702
51
49.6271585
0
ARC
8
DEFAULT_255_1_234
10
17.2247632
20
31.0165678
40
0.18261
50
49.7980766
51
82.1218353
0
ARC
8
DEFAULT_255_1_234
10
17.2128603
20
30.9518998
40
0.2483163
50
81.4465357
51
90.1710293
0
ARC
8
DEFAULT_255_1_234
10
17.2104206
20
30.899288
40
0.300932
50
89.6766211
51
99.1264602
0
ARC
8
DEFAULT_255_1_234
10
17.1932668
20
31.0026537
40
0.1961547
50
98.968313
51
113.4570237
0
ARC
8
DEFAULT_255_1_234
10
17.1736753
20
31.0494965
40
0.1453859
50
113.722589
51
127.4763106
0
ARC
8
DEFAULT_255_1_234
10
17.1568399
20
31.0695124
40
0.1192639
50
126.9083309
51
150.3165862
0
ARC
8
DEFAULT_255_1_234
10
17.1520732
20
31.0745981
40
0.112623
50
151.3635175
51
180.0701457
0
ARC
8
DEFAULT_255_1_234
10
17.1829517
20
31.072499
40
0.1435149
50
179.2169974
51
179.9954013
0
ARC
8
DEFAULT_255_1_234
10
17.1468574
20
31.0712056
40
0.1074286
50
179.3040112
51
198.4225446
0
ARC
8
DEFAULT_255_1_234
10
17.1276708
20
31.0662127
40
0.0876573
50
199.2895851
51
238.6034594
0
ARC
8
DEFAULT_255_1_234
10
17.1879554
20
31.160845
40
0.1998512
50
237.9846301
51
246.8744712
0
ARC
8
DEFAULT_255_1_234
10
17.2737499
20
31.3571205
40
0.4140547
50
246.6234531
51
251.8168941
0
ARC
8
DEFAULT_255_1_234
10
17.3768043
20
31.6665905
40
0.7402308
50
251.713434
51
255.0778414
0
ARC
8
DEFAULT_255_1_234
10
17.4967305
20
32.1132563
40
1.2027155
50
255.0367487
51
257.4705983
0
ARC
8
DEFAULT_255_1_234
10
16.9859315
20
29.8118863
40
1.1546601
50
73.6837552
51
77.5016755
0
ARC
8
DEFAULT_255_1_234
10
17.094809
20
30.1818581
40
0.7690009
50
68.7044154
51
73.7249639
0
ARC
8
DEFAULT_255_1_234
10
17.1851111
20
30.4145654
40
0.5193873
50
63.590599
51
68.6626804
0
ARC
8
DEFAULT_255_1_234
10
17.262213
20
30.5683123
40
0.3473927
50
54.7106439
51
63.7013633
0
ARC
8
DEFAULT_255_1_234
10
17.3246584
20
30.65554
40
0.2401192
50
41.0622434
51
54.8487496
0
ARC
8
DEFAULT_255_1_234
10
17.3587971
20
30.6868592
40
0.1938094
50
34.4950568
51
40.7105546
0
ARC
8
DEFAULT_255_1_234
10
17.3634778
20
30.6917078
40
0.1872106
50
9.3763373
51
34.0833615
0
ARC
8
DEFAULT_255_1_234
10
17.2981648
20
30.6791728
40
0.2536988
50
359.7694872
51
9.7663171
0
ARC
8
DEFAULT_255_1_234
10
17.3179149
20
30.6748764
40
0.2339696
50
335.8654732
51
0.8022045
0
ARC
8
DEFAULT_255_1_234
10
17.3254194
20
30.6762197
40
0.2277108
50
307.7357725
51
334.7849066
0
ARC
8
DEFAULT_255_1_234
10
17.2853369
20
30.7212645
40
0.2878951
50
307.0241536
51
308.5578354
0
ARC
8
DEFAULT_255_1_234
10
17.2595701
20
30.7598801
40
0.3342515
50
282.9362969
51
306.5646424
0
ARC
8
DEFAULT_255_1_234
10
17.2233998
20
30.9066108
40
0.4853615
50
271.1026298
51
283.2200835
0
ARC
8
DEFAULT_255_1_234
10
17.2170242
20
31.0307418
40
0.6096052
50
269.9919117
51
271.4772449
0
ARC
8
DEFAULT_255_1_234
10
17.2143997
20
30.9229436
40
0.5018135
50
259.0723564
51
270.289833
0
ARC
8
DEFAULT_255_1_234
10
17.1931729
20
30.8112271
40
0.388099
50
245.4963068
51
259.0227342
0
ARC
8
DEFAULT_255_1_234
10
17.1653686
20
30.7530615
40
0.3236422
50
228.9684658
51
245.7044727
0
ARC
8
DEFAULT_255_1_234
10
17.1388129
20
30.7203575
40
0.2815426
50
214.4011705
51
228.6759915
0
ARC
8
DEFAULT_255_1_234
10
17.109887
20
30.704529
40
0.2487548
50
179.9705531
51
215.1572795
0
ARC
8
DEFAULT_255_1_234
10
17.179947
20
30.7118806
40
0.1703809
50
182.4299387
51
203.0329699
0
ARC
8
DEFAULT_255_1_234
10
17.1615127
20
30.7062396
40
0.1512226
50
203.798802
51
232.548466
0
ARC
8
DEFAULT_255_1_234
10
17.1891649
20
30.7413826
40
0.1959374
50
232.3782728
51
256.3934612
0
ARC
8
DEFAULT_255_1_234
10
17.212201
20
30.8303842
40
0.2878639
50
256.104506
51
268.4626716
0
ARC
8
DEFAULT_255_1_234
10
17.2168495
20
30.9100487
40
0.3676329
50
268.0715632
51
270.0138206
0
ARC
8
DEFAULT_255_1_234
10
17.2187019
20
30.8828083
40
0.3403971
50
269.7031147
51
278.8341955
0
ARC
8
DEFAULT_255_1_234
10
17.2369112
20
30.7697876
40
0.2259217
50
278.6728789
51
292.8232582
0
ARC
8
DEFAULT_255_1_234
10
17.2569651
20
30.7196449
40
0.171929
50
293.1452328
51
303.6655899
0
ARC
8
DEFAULT_255_1_234
10
17.283453
20
30.6820204
40
0.1259367
50
303.1248165
51
321.742847
0
ARC
8
DEFAULT_255_1_234
10
17.302041
20
30.6657156
40
0.1012531
50
322.4748573
51
1.1291126
0
LINE
8
DEFAULT_255_2_778
10
10.7161501
20
28.9718499
11
18.6536501
21
28.9718499
0
LINE
8
DEFAULT_255_2_778
10
18.6536501
20
28.9718499
11
18.6536501
21
21.0343499
0
LINE
8
DEFAULT_255_2_778
10
18.6536501
20
21.0343499
11
10.7161501
21
21.0343499
0
LINE
8
DEFAULT_255_2_778
10
10.7161501
20
21.0343499
11
10.7161501
21
28.9718499
0
LINE
8
DEFAULT_255_2_778
10
10.7161501
20
21.0343499
11
18.6536501
21
28.9718499
0
ARC
8
DEFAULT_255_2_778
10
14.1077114
20
26.0880807
40
2.9032284
50
151.5042733
51
153.4806603
0
ARC
8
DEFAULT_255_2_778
10
13.4588806
20
26.4409763
40
2.1646375
50
149.0139962
51
151.519903
0
ARC
8
DEFAULT_255_2_778
10
12.9473115
20
26.7487368
40
1.567629
50
145.9162939
51
149.0311909
0
ARC
8
DEFAULT_255_2_778
10
12.5625818
20
27.0097335
40
1.1027247
50
141.9200062
51
145.9453242
0
ARC
8
DEFAULT_255_2_778
10
12.282074
20
27.2304211
40
0.7458118
50
136.484805
51
141.9744057
0
ARC
8
DEFAULT_255_2_778
10
12.092306
20
27.4115808
40
0.4834572
50
128.8638593
51
136.5691139
0
ARC
8
DEFAULT_255_2_778
10
11.9803184
20
27.5516418
40
0.304132
50
117.7110364
51
128.9931649
0
ARC
8
DEFAULT_255_2_778
10
11.928938
20
27.6512194
40
0.1920847
50
98.9021051
51
117.9549066
0
ARC
8
DEFAULT_255_2_778
10
11.9218758
20
27.686491
40
0.1561525
50
90.0344408
51
98.3447638
0
ARC
8
DEFAULT_255_2_778
10
11.9166634
20
27.6603238
40
0.1823916
50
50.7117937
51
88.3918664
0
ARC
8
DEFAULT_255_2_778
10
11.7837308
20
27.4819057
40
0.4047836
50
38.9451112
51
52.1404787
0
ARC
8
DEFAULT_255_2_778
10
11.431008
20
27.1924907
40
0.8610391
50
31.5376489
51
39.1699631
0
ARC
8
DEFAULT_255_2_778
10
10.4867496
20
26.6087547
40
1.9711589
50
27.5029892
51
31.6426884
0
ARC
8
DEFAULT_255_2_778
10
5.9865457
20
24.2545708
40
7.0499372
50
26.3566909
51
27.5839254
0
ARC
8
DEFAULT_255_2_778
10
16.3884515
20
29.3833746
40
4.5476932
50
206.0760745
51
208.8893742
0
ARC
8
DEFAULT_255_2_778
10
13.5302207
20
27.8107384
40
1.2853914
50
209.0650167
51
214.9193276
0
ARC
8
DEFAULT_255_2_778
10
12.9623008
20
27.4129421
40
0.5920141
50
214.8141771
51
224.5237395
0
ARC
8
DEFAULT_255_2_778
10
12.7411911
20
27.1923149
40
0.279676
50
224.0617241
51
242.8344517
0
ARC
8
DEFAULT_255_2_778
10
12.6867767
20
27.089133
40
0.1630376
50
243.2923391
51
269.5752511
0
ARC
8
DEFAULT_255_2_778
10
12.6838992
20
27.0981104
40
0.1720185
50
270.5559033
51
293.8685481
0
ARC
8
DEFAULT_255_2_778
10
12.6466708
20
27.1853881
40
0.2668991
50
293.5955797
51
306.345121
0
ARC
8
DEFAULT_255_2_778
10
12.553747
20
27.3135986
40
0.4252403
50
306.1919045
51
314.6688826
0
ARC
8
DEFAULT_255_2_778
10
12.3914409
20
27.4794992
40
0.6573295
50
314.5642472
51
320.4128675
0
ARC
8
DEFAULT_255_2_778
10
12.1431104
20
27.6858069
40
0.980177
50
320.3694038
51
324.845255
0
ARC
8
DEFAULT_255_2_778
10
11.7903394
20
27.9354469
40
1.4123423
50
324.8053061
51
328.1530642
0
ARC
8
DEFAULT_255_2_778
10
11.3253883
20
28.2251419
40
1.9601584
50
328.1310763
51
330.7610809
0
ARC
8
DEFAULT_255_2_778
10
10.732481
20
28.5578279
40
2.640025
50
330.7460722
51
332.8554872
0
ARC
8
DEFAULT_255_2_778
10
10.2490419
20
28.808394
40
3.1845357
50
332.812199
51
333.437874
0
LINE
8
DEFAULT_255_2_778
10
16.27245
20
22.9394
11
17.85995
21
22.9394
0
LINE
8
DEFAULT_255_2_778
10
16.27245
20
22.3044
11
16.58995
21
22.3044
0
LINE
8
DEFAULT_255_2_778
10
16.90745
20
22.3044
11
17.22495
21
22.3044
0
LINE
8
DEFAULT_255_2_778
10
17.54245
20
22.3044
11
17.85995
21
22.3044
0
LINE
8
DEFAULT_255_1_234
10
4.2406489
20
29.6223211
11
4.2406489
21
28.5789983
0
LINE
8
DEFAULT_255_1_234
10
4.2406489
20
28.5789983
11
4.7948389
21
28.5789983
0
LINE
8
DEFAULT_255_1_234
10
4.7948389
20
28.5789983
11
4.7948389
21
28.4529
0
LINE
8
DEFAULT_255_1_234
10
4.7948389
20
28.4529
11
4.0856364
21
28.4529
0
LINE
8
DEFAULT_255_1_234
10
4.0856364
20
28.4529
11
4.0856364
21
29.6223211
0
LINE
8
DEFAULT_255_1_234
10
4.0856364
20
29.6223211
11
4.2406489
21
29.6223211
0
LINE
8
DEFAULT_255_1_234
10
5.4205113
20
29.6279433
11
5.4205113
21
28.4529
0
LINE
8
DEFAULT_255_1_234
10
5.4205113
20
28.4529
11
5.2711209
21
28.4529
0
LINE
8
DEFAULT_255_1_234
10
5.2711209
20
28.4529
11
5.2711209
21
29.4432133
0
LINE
8
DEFAULT_255_1_234
10
5.2711209
20
29.4432133
11
4.9715371
21
29.3331785
0
LINE
8
DEFAULT_255_1_234
10
4.9715371
20
29.3331785
11
4.9715371
21
29.4681117
0
LINE
8
DEFAULT_255_1_234
10
4.9715371
20
29.4681117
11
5.3972192
21
29.6279433
0
LINE
8
DEFAULT_255_1_234
10
5.3972192
20
29.6279433
11
5.4205113
21
29.6279433
0
LINE
8
DEFAULT_255_1_234
10
5.0342482
20
5.222701
11
5.0342482
21
4.7938062
0
LINE
8
DEFAULT_255_1_234
10
4.1330872
20
5.1688884
11
4.1330872
21
5.2708915
0
LINE
8
DEFAULT_255_1_234
10
5.0342482
20
5.4668659
11
4.8800389
21
5.4668659
0
LINE
8
DEFAULT_255_1_234
10
4.2880998
20
5.2749073
11
4.2880998
21
5.1793296
0
LINE
8
DEFAULT_255_1_234
10
4.880842
20
4.8347681
11
4.880842
21
5.0974059
0
LINE
8
DEFAULT_255_1_234
10
4.880842
20
5.0974059
11
4.6101725
21
5.0974059
0
LINE
8
DEFAULT_255_1_234
10
4.6101725
20
5.0974059
11
4.6101725
21
5.222701
0
LINE
8
DEFAULT_255_1_234
10
4.6101725
20
5.222701
11
5.0342482
21
5.222701
0
ARC
8
DEFAULT_255_1_234
10
4.7510989
20
4.9931396
40
0.3462765
50
295.8437914
51
324.8549609
0
ARC
8
DEFAULT_255_1_234
10
4.7094956
20
5.0684567
40
0.4322211
50
291.5695085
51
296.4549398
0
ARC
8
DEFAULT_255_1_234
10
4.6584207
20
5.2049275
40
0.5779178
50
278.6622409
51
291.3045483
0
ARC
8
DEFAULT_255_1_234
10
4.6244699
20
5.4197408
40
0.7953952
50
270.020006
51
278.7494541
0
ARC
8
DEFAULT_255_1_234
10
4.6206623
20
5.5514036
40
0.927067
50
269.9969998
51
270.2524872
0
ARC
8
DEFAULT_255_1_234
10
4.6168336
20
5.1430589
40
0.5187361
50
253.5786322
51
270.4175299
0
ARC
8
DEFAULT_255_1_234
10
4.5994992
20
5.0759236
40
0.4494451
50
238.8203306
51
253.2788235
0
ARC
8
DEFAULT_255_1_234
10
4.5975365
20
5.0708231
40
0.4440665
50
206.7883783
51
238.6962764
0
ARC
8
DEFAULT_255_1_234
10
4.6749275
20
5.1172405
40
0.5341121
50
206.1129412
51
207.4916643
0
ARC
8
DEFAULT_255_1_234
10
4.734619
20
5.1426488
40
0.5989041
50
188.6921119
51
205.7821245
0
ARC
8
DEFAULT_255_1_234
10
4.9202552
20
5.174223
40
0.7871862
50
180.3882829
51
188.9219216
0
ARC
8
DEFAULT_255_1_234
10
5.0430366
20
5.2765464
40
0.909967
50
170.2024264
51
180.3560651
0
ARC
8
DEFAULT_255_1_234
10
4.7266884
20
5.3331237
40
0.5886083
50
154.2857445
51
170.3893044
0
ARC
8
DEFAULT_255_1_234
10
4.5985087
20
5.391795
40
0.4476743
50
139.8401567
51
153.9332699
0
ARC
8
DEFAULT_255_1_234
10
4.5625823
20
5.4205577
40
0.4016697
50
98.4190291
51
139.6707122
0
ARC
8
DEFAULT_255_1_234
10
4.6005341
20
5.2360328
40
0.5898566
50
89.7659205
51
99.4415478
0
ARC
8
DEFAULT_255_1_234
10
4.607059
20
5.2425844
40
0.5833147
50
78.0551672
51
90.4042112
0
ARC
8
DEFAULT_255_1_234
10
4.64751
20
5.4244644
40
0.3970055
50
54.6380464
51
78.3339173
0
ARC
8
DEFAULT_255_1_234
10
4.6665156
20
5.4564795
40
0.3599102
50
50.031736
51
54.1558201
0
ARC
8
DEFAULT_255_1_234
10
4.6557944
20
5.4468766
40
0.3741624
50
18.1092409
51
49.7180913
0
ARC
8
DEFAULT_255_1_234
10
4.5101144
20
5.3935089
40
0.5292424
50
7.9672797
51
18.6984571
0
ARC
8
DEFAULT_255_1_234
10
4.5251622
20
5.4058504
40
0.3600838
50
9.7557294
51
27.3215714
0
ARC
8
DEFAULT_255_1_234
10
4.6379094
20
5.4621912
40
0.2340608
50
27.7361077
51
84.5257964
0
ARC
8
DEFAULT_255_1_234
10
4.6051481
20
5.297864
40
0.4011215
50
82.106034
51
90.2001166
0
ARC
8
DEFAULT_255_1_234
10
4.6001698
20
5.3486215
40
0.3503799
50
89.4150119
51
105.5823402
0
ARC
8
DEFAULT_255_1_234
10
4.5744696
20
5.4421867
40
0.2533503
50
105.6678618
51
144.2648758
0
ARC
8
DEFAULT_255_1_234
10
4.6637951
20
5.3786289
40
0.3629787
50
144.3561283
51
162.8564086
0
ARC
8
DEFAULT_255_1_234
10
4.872186
20
5.3117017
40
0.5818441
50
162.6076014
51
173.6780284
0
ARC
8
DEFAULT_255_1_234
10
5.1783004
20
5.274489
40
0.8902007
50
173.4670142
51
179.9730753
0
ARC
8
DEFAULT_255_1_234
10
4.9874675
20
5.175126
40
0.6993804
50
179.6556203
51
190.0080463
0
ARC
8
DEFAULT_255_1_234
10
4.7558504
20
5.1326375
40
0.4639066
50
189.8116607
51
206.6796816
0
ARC
8
DEFAULT_255_1_234
10
4.6713656
20
5.0932503
40
0.3707421
50
207.1031645
51
217.7074368
0
ARC
8
DEFAULT_255_1_234
10
4.6079345
20
5.0380559
40
0.2868417
50
216.7345547
51
265.6812148
0
ARC
8
DEFAULT_255_1_234
10
4.6210136
20
5.1284855
40
0.3780509
50
264.7366618
51
270.0611241
0
ARC
8
DEFAULT_255_1_234
10
4.6233399
20
5.4125111
40
0.662079
50
269.8335834
51
276.0539546
0
ARC
8
DEFAULT_255_1_234
10
4.6440404
20
5.222356
40
0.4708016
50
275.9894168
51
284.4615085
0
ARC
8
DEFAULT_255_1_234
10
4.6638411
20
5.1390663
40
0.3852094
50
284.7034461
51
286.4953897
0
ARC
8
DEFAULT_255_1_234
10
4.7045424
20
5.0079965
40
0.2479842
50
286.0770838
51
304.2625829
0
ARC
8
DEFAULT_255_1_234
10
4.7178838
20
4.9861594
40
0.2224291
50
304.5891602
51
317.1073298
0
LINE
8
DEFAULT_255_1_234
10
5.9739616
20
4.6404
11
5.7201587
21
5.1134694
0
LINE
8
DEFAULT_255_1_234
10
5.7201587
20
5.1134694
11
5.4454732
21
5.1134694
0
LINE
8
DEFAULT_255_1_234
10
5.4454732
20
5.1134694
11
5.4454732
21
4.6404
0
LINE
8
DEFAULT_255_1_234
10
5.4454732
20
4.6404
11
5.2904607
21
4.6404
0
LINE
8
DEFAULT_255_1_234
10
5.2904607
20
4.6404
11
5.2904607
21
5.8098211
0
LINE
8
DEFAULT_255_1_234
10
5.2904607
20
5.8098211
11
5.6775905
21
5.8098211
0
LINE
8
DEFAULT_255_1_234
10
5.86473
20
5.1463995
11
6.1394154
21
4.6500381
0
LINE
8
DEFAULT_255_1_234
10
6.1394154
20
4.6500381
11
6.1394154
21
4.6404
0
LINE
8
DEFAULT_255_1_234
10
6.1394154
20
4.6404
11
5.9739616
21
4.6404
0
LINE
8
DEFAULT_255_1_234
10
5.4454732
20
5.6829196
11
5.4454732
21
5.2395677
0
LINE
8
DEFAULT_255_1_234
10
5.4454732
20
5.2395677
11
5.6824095
21
5.2395677
0
LINE
8
DEFAULT_255_1_234
10
5.6816063
20
5.6829196
11
5.4454732
21
5.6829196
0
ARC
8
DEFAULT_255_1_234
10
5.6817544
20
5.1136761
40
0.6961575
50
80.653586
51
90.3427061
0
ARC
8
DEFAULT_255_1_234
10
5.7237019
20
5.3599348
40
0.4463577
50
65.6987447
51
80.8329603
0
ARC
8
DEFAULT_255_1_234
10
5.771466
20
5.4694322
40
0.3269094
50
50.0017161
51
65.4305835
0
ARC
8
DEFAULT_255_1_234
10
5.7933124
20
5.4989482
40
0.2902647
50
11.628416
51
49.5603263
0
ARC
8
DEFAULT_255_1_234
10
5.639746
20
5.4614299
40
0.4482792
50
359.5655735
51
12.3691
0
ARC
8
DEFAULT_255_1_234
10
5.747432
20
5.4551644
40
0.3405924
50
341.9983148
51
0.4822259
0
ARC
8
DEFAULT_255_1_234
10
5.786916
20
5.4444471
40
0.2997359
50
323.8609373
51
341.61416
0
ARC
8
DEFAULT_255_1_234
10
5.7567404
20
5.4677484
40
0.3378487
50
296.7018614
51
323.6876402
0
ARC
8
DEFAULT_255_1_234
10
5.7126299
20
5.5466235
40
0.4281516
50
290.8086567
51
297.2323311
0
ARC
8
DEFAULT_255_1_234
10
5.6849829
20
5.5989351
40
0.3593766
50
269.589728
51
281.8058135
0
ARC
8
DEFAULT_255_1_234
10
5.7100728
20
5.4841743
40
0.2419125
50
281.5501019
51
303.9357432
0
ARC
8
DEFAULT_255_1_234
10
5.7237916
20
5.4603936
40
0.2145323
50
304.4415616
51
311.2106213
0
ARC
8
DEFAULT_255_1_234
10
5.7370021
20
5.4464632
40
0.1953505
50
310.9875673
51
356.2715578
0
ARC
8
DEFAULT_255_1_234
10
5.661367
20
5.4577422
40
0.2716331
50
354.9348262
51
0.0609027
0
ARC
8
DEFAULT_255_1_234
10
5.6426544
20
5.4604435
40
0.2903554
50
359.5239371
51
12.8808918
0
ARC
8
DEFAULT_255_1_234
10
5.7404099
20
5.4843728
40
0.1897315
50
12.4173452
51
43.1022135
0
ARC
8
DEFAULT_255_1_234
10
5.7465704
20
5.4880724
40
0.1827118
50
43.5751728
51
48.203944
0
ARC
8
DEFAULT_255_1_234
10
5.7296196
20
5.4659302
40
0.2105272
50
48.7809703
51
72.6969569
0
ARC
8
DEFAULT_255_1_234
10
5.6941821
20
5.358382
40
0.3237537
50
72.3702241
51
84.8791103
0
ARC
8
DEFAULT_255_1_234
10
5.6794297
20
5.2241769
40
0.4587478
50
84.5400526
51
89.7281406
0
LINE
8
DEFAULT_255_1_234
10
4.2535489
20
13.7473211
11
4.2535489
21
12.7039983
0
LINE
8
DEFAULT_255_1_234
10
4.2535489
20
12.7039983
11
4.8077389
21
12.7039983
0
LINE
8
DEFAULT_255_1_234
10
4.8077389
20
12.7039983
11
4.8077389
21
12.5779
0
LINE
8
DEFAULT_255_1_234
10
4.8077389
20
12.5779
11
4.0985364
21
12.5779
0
LINE
8
DEFAULT_255_1_234
10
4.0985364
20
12.5779
11
4.0985364
21
13.7473211
0
LINE
8
DEFAULT_255_1_234
10
4.0985364
20
13.7473211
11
4.2535489
21
13.7473211
0
LINE
8
DEFAULT_255_1_234
10
5.7948395
20
13.160201
11
5.7948395
21
12.7313062
0
LINE
8
DEFAULT_255_1_234
10
4.8936785
20
13.1063884
11
4.8936785
21
13.2083915
0
LINE
8
DEFAULT_255_1_234
10
5.7948395
20
13.4043659
11
5.6406301
21
13.4043659
0
LINE
8
DEFAULT_255_1_234
10
5.048691
20
13.2124073
11
5.048691
21
13.1168296
0
LINE
8
DEFAULT_255_1_234
10
5.6414333
20
12.7722681
11
5.6414333
21
13.0349059
0
LINE
8
DEFAULT_255_1_234
10
5.6414333
20
13.0349059
11
5.3707637
21
13.0349059
0
LINE
8
DEFAULT_255_1_234
10
5.3707637
20
13.0349059
11
5.3707637
21
13.160201
0
LINE
8
DEFAULT_255_1_234
10
5.3707637
20
13.160201
11
5.7948395
21
13.160201
0
ARC
8
DEFAULT_255_1_234
10
5.5116901
20
12.9306396
40
0.3462765
50
295.8437914
51
324.8549609
0
ARC
8
DEFAULT_255_1_234
10
5.4700868
20
13.0059567
40
0.4322211
50
291.5695085
51
296.4549398
0
ARC
8
DEFAULT_255_1_234
10
5.419012
20
13.1424275
40
0.5779178
50
278.6622409
51
291.3045483
0
ARC
8
DEFAULT_255_1_234
10
5.3850611
20
13.3572408
40
0.7953952
50
270.020006
51
278.7494541
0
ARC
8
DEFAULT_255_1_234
10
5.3812535
20
13.4889036
40
0.927067
50
269.9969998
51
270.2524872
0
ARC
8
DEFAULT_255_1_234
10
5.3774248
20
13.0805589
40
0.5187361
50
253.5786322
51
270.4175299
0
ARC
8
DEFAULT_255_1_234
10
5.3600904
20
13.0134236
40
0.4494451
50
238.8203306
51
253.2788235
0
ARC
8
DEFAULT_255_1_234
10
5.3581278
20
13.0083231
40
0.4440665
50
206.7883783
51
238.6962764
0
ARC
8
DEFAULT_255_1_234
10
5.4355188
20
13.0547405
40
0.5341121
50
206.1129412
51
207.4916643
0
ARC
8
DEFAULT_255_1_234
10
5.4952103
20
13.0801488
40
0.5989041
50
188.6921119
51
205.7821245
0
ARC
8
DEFAULT_255_1_234
10
5.6808465
20
13.111723
40
0.7871862
50
180.3882829
51
188.9219216
0
ARC
8
DEFAULT_255_1_234
10
5.8036279
20
13.2140464
40
0.909967
50
170.2024264
51
180.3560651
0
ARC
8
DEFAULT_255_1_234
10
5.4872797
20
13.2706237
40
0.5886083
50
154.2857445
51
170.3893044
0
ARC
8
DEFAULT_255_1_234
10
5.3591
20
13.329295
40
0.4476743
50
139.8401567
51
153.9332699
0
ARC
8
DEFAULT_255_1_234
10
5.3231736
20
13.3580577
40
0.4016697
50
98.4190291
51
139.6707122
0
ARC
8
DEFAULT_255_1_234
10
5.3611253
20
13.1735328
40
0.5898566
50
89.7659205
51
99.4415478
0
ARC
8
DEFAULT_255_1_234
10
5.3676503
20
13.1800844
40
0.5833147
50
78.0551672
51
90.4042112
0
ARC
8
DEFAULT_255_1_234
10
5.4081013
20
13.3619644
40
0.3970055
50
54.6380464
51
78.3339173
0
ARC
8
DEFAULT_255_1_234
10
5.4271069
20
13.3939795
40
0.3599102
50
50.031736
51
54.1558201
0
ARC
8
DEFAULT_255_1_234
10
5.4163856
20
13.3843766
40
0.3741624
50
18.1092409
51
49.7180913
0
ARC
8
DEFAULT_255_1_234
10
5.2707056
20
13.3310089
40
0.5292424
50
7.9672797
51
18.6984571
0
ARC
8
DEFAULT_255_1_234
10
5.2857534
20
13.3433504
40
0.3600838
50
9.7557294
51
27.3215714
0
ARC
8
DEFAULT_255_1_234
10
5.3985006
20
13.3996912
40
0.2340608
50
27.7361077
51
84.5257964
0
ARC
8
DEFAULT_255_1_234
10
5.3657393
20
13.235364
40
0.4011215
50
82.106034
51
90.2001166
0
ARC
8
DEFAULT_255_1_234
10
5.360761
20
13.2861215
40
0.3503799
50
89.4150119
51
105.5823402
0
ARC
8
DEFAULT_255_1_234
10
5.3350608
20
13.3796867
40
0.2533503
50
105.6678618
51
144.2648758
0
ARC
8
DEFAULT_255_1_234
10
5.4243864
20
13.3161289
40
0.3629787
50
144.3561283
51
162.8564086
0
ARC
8
DEFAULT_255_1_234
10
5.6327773
20
13.2492017
40
0.5818441
50
162.6076014
51
173.6780284
0
ARC
8
DEFAULT_255_1_234
10
5.9388916
20
13.211989
40
0.8902007
50
173.4670142
51
179.9730753
0
ARC
8
DEFAULT_255_1_234
10
5.7480588
20
13.112626
40
0.6993804
50
179.6556203
51
190.0080463
0
ARC
8
DEFAULT_255_1_234
10
5.5164417
20
13.0701375
40
0.4639066
50
189.8116607
51
206.6796816
0
ARC
8
DEFAULT_255_1_234
10
5.4319569
20
13.0307503
40
0.3707421
50
207.1031645
51
217.7074368
0
ARC
8
DEFAULT_255_1_234
10
5.3685257
20
12.9755559
40
0.2868417
50
216.7345547
51
265.6812148
0
ARC
8
DEFAULT_255_1_234
10
5.3816048
20
13.0659855
40
0.3780509
50
264.7366618
51
270.0611241
0
ARC
8
DEFAULT_255_1_234
10
5.3839312
20
13.3500111
40
0.662079
50
269.8335834
51
276.0539546
0
ARC
8
DEFAULT_255_1_234
10
5.4046316
20
13.159856
40
0.4708016
50
275.9894168
51
284.4615085
0
ARC
8
DEFAULT_255_1_234
10
5.4244323
20
13.0765663
40
0.3852094
50
284.7034461
51
286.4953897
0
ARC
8
DEFAULT_255_1_234
10
5.4651337
20
12.9454965
40
0.2479842
50
286.0770838
51
304.2625829
0
ARC
8
DEFAULT_255_1_234
10
5.478475
20
12.9236594
40
0.2224291
50
304.5891602
51
317.1073298
0
LINE
8
DEFAULT_255_1_234
10
4.3570489
20
21.6848211
11
4.3570489
21
20.6414983
0
LINE
8
DEFAULT_255_1_234
10
4.3570489
20
20.6414983
11
4.9112389
21
20.6414983
0
LINE
8
DEFAULT_255_1_234
10
4.9112389
20
20.6414983
11
4.9112389
21
20.5154
0
LINE
8
DEFAULT_255_1_234
10
4.9112389
20
20.5154
11
4.2020364
21
20.5154
0
LINE
8
DEFAULT_255_1_234
10
4.2020364
20
20.5154
11
4.2020364
21
21.6848211
0
LINE
8
DEFAULT_255_1_234
10
4.2020364
20
21.6848211
11
4.3570489
21
21.6848211
0
LINE
8
DEFAULT_255_1_234
10
5.8148094
20
20.6366792
11
5.8148094
21
20.5154
0
LINE
8
DEFAULT_255_1_234
10
5.8148094
20
20.5154
11
5.0485816
21
20.5154
0
LINE
8
DEFAULT_255_1_234
10
5.0485816
20
20.5154
11
5.0485816
21
20.6222221
0
LINE
8
DEFAULT_255_1_234
10
5.0485816
20
20.6222221
11
5.4533812
21
21.0719995
0
LINE
8
DEFAULT_255_1_234
10
5.1746799
20
21.3402595
11
5.0260927
21
21.3402595
0
LINE
8
DEFAULT_255_1_234
10
5.5409271
20
20.9764218
11
5.2276894
21
20.6366792
0
LINE
8
DEFAULT_255_1_234
10
5.2276894
20
20.6366792
11
5.8148094
21
20.6366792
0
ARC
8
DEFAULT_255_1_234
10
4.1043645
20
22.2649527
40
1.8008286
50
318.5132453
51
320.7828378
0
ARC
8
DEFAULT_255_1_234
10
4.633062
20
21.8346426
40
1.1191493
50
320.7372736
51
323.9737074
0
ARC
8
DEFAULT_255_1_234
10
5.0250476
20
21.5506361
40
0.6350923
50
323.8961724
51
328.6421089
0
ARC
8
DEFAULT_255_1_234
10
5.2297072
20
21.4244031
40
0.3946393
50
328.8299013
51
331.789948
0
ARC
8
DEFAULT_255_1_234
10
5.329425
20
21.3729509
40
0.2824501
50
331.4255242
51
352.9364833
0
ARC
8
DEFAULT_255_1_234
10
5.3430751
20
21.3698976
40
0.2685315
50
353.2248685
51
0.0169286
0
ARC
8
DEFAULT_255_1_234
10
5.3640627
20
21.372195
40
0.2475536
50
359.4866256
51
15.9339782
0
ARC
8
DEFAULT_255_1_234
10
5.4147613
20
21.3858286
40
0.1950618
50
16.1714718
51
43.5284424
0
ARC
8
DEFAULT_255_1_234
10
5.4224921
20
21.3935573
40
0.184134
50
43.4415429
51
83.1661404
0
ARC
8
DEFAULT_255_1_234
10
5.409084
20
21.3198771
40
0.258926
50
82.160215
51
90.1505798
0
ARC
8
DEFAULT_255_1_234
10
5.4059267
20
21.2661865
40
0.3126255
50
89.5460705
51
102.5418777
0
ARC
8
DEFAULT_255_1_234
10
5.3816353
20
21.3692665
40
0.2067346
50
102.1739365
51
129.2061916
0
ARC
8
DEFAULT_255_1_234
10
5.3737425
20
21.3817094
40
0.1921118
50
129.7279328
51
135.7542026
0
ARC
8
DEFAULT_255_1_234
10
5.3858952
20
21.3720045
40
0.2075944
50
136.175737
51
166.3674722
0
ARC
8
DEFAULT_255_1_234
10
5.4865872
20
21.3450182
40
0.3118201
50
165.9092917
51
178.8683903
0
ARC
8
DEFAULT_255_1_234
10
5.5730733
20
21.3403179
40
0.3983935
50
178.438168
51
180.0083905
0
ARC
8
DEFAULT_255_1_234
10
5.4329335
20
21.3442231
40
0.4068601
50
163.2878735
51
180.5581814
0
ARC
8
DEFAULT_255_1_234
10
5.3527596
20
21.366284
40
0.3237344
50
133.454115
51
162.9470031
0
ARC
8
DEFAULT_255_1_234
10
5.3706138
20
21.3473
40
0.349795
50
100.7869394
51
133.4384016
0
ARC
8
DEFAULT_255_1_234
10
5.4053909
20
21.1924319
40
0.5084616
50
89.6605301
51
101.3704185
0
ARC
8
DEFAULT_255_1_234
10
5.4120248
20
21.1985496
40
0.502348
50
78.2171172
51
90.4130393
0
ARC
8
DEFAULT_255_1_234
10
5.4475326
20
21.3609637
40
0.3361092
50
55.9268222
51
78.4888551
0
ARC
8
DEFAULT_255_1_234
10
5.4671767
20
21.3948324
40
0.2970617
50
47.9292255
51
55.4054003
0
ARC
8
DEFAULT_255_1_234
10
5.4773327
20
21.4051502
40
0.2825983
50
4.3347696
51
48.0560701
0
ARC
8
DEFAULT_255_1_234
10
5.3677721
20
21.3881601
40
0.393225
50
359.925209
51
5.5967654
0
ARC
8
DEFAULT_255_1_234
10
5.4106613
20
21.3937816
40
0.3503892
50
337.8914096
51
358.9967724
0
ARC
8
DEFAULT_255_1_234
10
5.1393025
20
21.4984706
40
0.6412172
50
326.9135351
51
338.3505194
0
ARC
8
DEFAULT_255_1_234
10
4.7407328
20
21.7539284
40
1.1146189
50
319.6472867
51
327.095818
0
ARC
8
DEFAULT_255_1_234
10
4.3574332
20
22.0701
40
1.6114559
50
317.2586784
51
319.9046139
0
LINE
8
DEFAULT_255_1_234
10
6.5047357
20
21.6848211
11
6.0172092
21
20.4150033
0
LINE
8
DEFAULT_255_1_234
10
6.0172092
20
20.4150033
11
5.8895046
21
20.4150033
0
LINE
8
DEFAULT_255_1_234
10
5.8895046
20
20.4150033
11
6.3778343
21
21.6848211
0
LINE
8
DEFAULT_255_1_234
10
6.3778343
20
21.6848211
11
6.5047357
21
21.6848211
0
LINE
8
DEFAULT_255_1_234
10
7.5874141
20
21.6848211
11
7.5874141
21
20.5154
0
LINE
8
DEFAULT_255_1_234
10
7.5874141
20
20.5154
11
7.4324015
21
20.5154
0
LINE
8
DEFAULT_255_1_234
10
7.4324015
20
20.5154
11
6.8436751
21
21.416561
0
LINE
8
DEFAULT_255_1_234
10
6.8436751
20
21.416561
11
6.8436751
21
20.5154
0
LINE
8
DEFAULT_255_1_234
10
6.8436751
20
20.5154
11
6.6886625
21
20.5154
0
LINE
8
DEFAULT_255_1_234
10
6.6886625
20
20.5154
11
6.6886625
21
21.6848211
0
LINE
8
DEFAULT_255_1_234
10
6.6886625
20
21.6848211
11
6.8436751
21
21.6848211
0
LINE
8
DEFAULT_255_1_234
10
6.8436751
20
21.6848211
11
7.4340079
21
20.7796442
0
LINE
8
DEFAULT_255_1_234
10
7.4340079
20
20.7796442
11
7.4340079
21
21.6848211
0
LINE
8
DEFAULT_255_1_234
10
7.4340079
20
21.6848211
11
7.5874141
21
21.6848211
0
LINE
8
DEFAULT_255_1_234
10
21.1359911
20
29.0737534
11
21.1359911
21
28.9998614
0
LINE
8
DEFAULT_255_1_234
10
20.1954745
20
28.9894201
11
20.1954745
21
29.0737534
0
LINE
8
DEFAULT_255_1_234
10
20.9825849
20
28.9886169
11
20.9825849
21
29.0753597
0
LINE
8
DEFAULT_255_1_234
10
20.3488807
20
29.085801
11
20.3488807
21
28.9998614
0
ARC
8
DEFAULT_255_1_234
10
20.2717937
20
28.9959015
40
0.8642064
50
350.487711
51
0.2625388
0
ARC
8
DEFAULT_255_1_234
10
20.5011178
20
28.9564578
40
0.631518
50
336.0277639
51
350.5787438
0
ARC
8
DEFAULT_255_1_234
10
20.6356002
20
28.8956892
40
0.4839466
50
319.8877444
51
336.1328423
0
ARC
8
DEFAULT_255_1_234
10
20.6958643
20
28.847458
40
0.4067874
50
302.4806467
51
319.6143626
0
ARC
8
DEFAULT_255_1_234
10
20.6843653
20
28.8696202
40
0.4316636
50
275.8195682
51
302.1884709
0
ARC
8
DEFAULT_255_1_234
10
20.6677286
20
28.9838665
40
0.5470306
50
269.9171439
51
276.3397983
0
ARC
8
DEFAULT_255_1_234
10
20.6632496
20
28.9152681
40
0.4784458
50
252.5219675
51
270.4416499
0
ARC
8
DEFAULT_255_1_234
10
20.6488755
20
28.8613592
40
0.422716
50
237.5352116
51
252.1857531
0
ARC
8
DEFAULT_255_1_234
10
20.6577951
20
28.8727363
40
0.4371052
50
209.063312
51
237.3492538
0
ARC
8
DEFAULT_255_1_234
10
20.7447799
20
28.9273685
40
0.5397041
50
205.1183774
51
209.6470015
0
ARC
8
DEFAULT_255_1_234
10
20.8244836
20
28.961183
40
0.6262326
50
188.7215458
51
204.8240747
0
ARC
8
DEFAULT_255_1_234
10
21.0242364
20
28.9948067
40
0.8287794
50
180.3723947
51
188.9252049
0
ARC
8
DEFAULT_255_1_234
10
21.0215116
20
29.0777402
40
0.8260467
50
169.5253763
51
180.2765336
0
ARC
8
DEFAULT_255_1_234
10
20.8312564
20
29.1127309
40
0.6326007
50
155.8315255
51
169.5089989
0
ARC
8
DEFAULT_255_1_234
10
20.7032066
20
29.1721348
40
0.4914567
50
139.6258461
51
156.0379525
0
ARC
8
DEFAULT_255_1_234
10
20.6442399
20
29.2195799
40
0.4158054
50
122.6416387
51
139.3430715
0
ARC
8
DEFAULT_255_1_234
10
20.6543019
20
29.2012451
40
0.4366739
50
93.0223692
51
122.455762
0
ARC
8
DEFAULT_255_1_234
10
20.6651016
20
29.1047709
40
0.5336137
50
89.975342
51
93.6341897
0
ARC
8
DEFAULT_255_1_234
10
20.6689795
20
29.1446242
40
0.4937738
50
73.746375
51
90.4233405
0
ARC
8
DEFAULT_255_1_234
10
20.6865373
20
29.2126287
40
0.4235786
50
57.662753
51
73.4518111
0
ARC
8
DEFAULT_255_1_234
10
20.685738
20
29.2147832
40
0.4221899
50
29.1440151
51
57.414694
0
ARC
8
DEFAULT_255_1_234
10
20.5922574
20
29.1564005
40
0.5322966
50
24.0982783
51
29.7323517
0
ARC
8
DEFAULT_255_1_234
10
20.488885
20
29.1135399
40
0.6441673
50
8.6655297
51
23.8241346
0
ARC
8
DEFAULT_255_1_234
10
20.2654588
20
29.0770854
40
0.8705386
50
359.7806941
51
8.8218784
0
ARC
8
DEFAULT_255_1_234
10
20.1507586
20
29.0796345
40
0.8318373
50
359.7055579
51
8.036044
0
ARC
8
DEFAULT_255_1_234
10
20.4507592
20
29.1233239
40
0.5286768
50
7.8928306
51
20.2962107
0
ARC
8
DEFAULT_255_1_234
10
20.6135162
20
29.1833395
40
0.3552073
50
20.3231126
51
36.4992797
0
ARC
8
DEFAULT_255_1_234
10
20.6820708
20
29.2361402
40
0.2686974
50
36.1437156
51
85.6627023
0
ARC
8
DEFAULT_255_1_234
10
20.6658254
20
29.1321221
40
0.373739
50
84.3852322
51
90.0757696
0
ARC
8
DEFAULT_255_1_234
10
20.6615927
20
29.1981839
40
0.3076997
50
89.3038458
51
109.9045693
0
ARC
8
DEFAULT_255_1_234
10
20.6523318
20
29.2364062
40
0.2686424
50
110.8228367
51
143.9179474
0
ARC
8
DEFAULT_255_1_234
10
20.7456978
20
29.1651236
40
0.3860887
50
143.5289163
51
163.2980757
0
ARC
8
DEFAULT_255_1_234
10
20.9364799
20
29.1051433
40
0.5860659
50
163.0418846
51
174.3140048
0
ARC
8
DEFAULT_255_1_234
10
21.1768911
20
29.0773854
40
0.8280531
50
174.0509143
51
179.4176892
0
ARC
8
DEFAULT_255_1_234
10
21.126465
20
28.9956954
40
0.7775954
50
179.6930361
51
188.7906598
0
ARC
8
DEFAULT_255_1_234
10
20.8601129
20
28.9530935
40
0.5078633
50
188.6331305
51
202.5629587
0
ARC
8
DEFAULT_255_1_234
10
20.7346721
20
28.9026996
40
0.3726913
50
202.8081362
51
216.1193925
0
ARC
8
DEFAULT_255_1_234
10
20.6537291
20
28.8375676
40
0.2689577
50
215.0755913
51
264.6379694
0
ARC
8
DEFAULT_255_1_234
10
20.666424
20
28.9206513
40
0.3528978
50
263.846392
51
270.0833719
0
ARC
8
DEFAULT_255_1_234
10
20.6705631
20
28.8948374
40
0.3271036
50
269.3649385
51
287.5152008
0
ARC
8
DEFAULT_255_1_234
10
20.6883788
20
28.8301238
40
0.2600406
50
288.0630309
51
323.8113348
0
ARC
8
DEFAULT_255_1_234
10
20.601263
20
28.8951049
40
0.3687189
50
323.6547608
51
342.6590488
0
ARC
8
DEFAULT_255_1_234
10
20.3981245
20
28.9611952
40
0.5823286
50
342.4091907
51
353.6451149
0
ARC
8
DEFAULT_255_1_234
10
20.1149756
20
28.996419
40
0.8676442
50
353.4029884
51
359.4847795
0
LINE
8
DEFAULT_255_1_234
10
22.0355458
20
29.6223211
11
22.1905583
21
29.6223211
0
LINE
8
DEFAULT_255_1_234
10
22.1905583
20
29.6223211
11
22.1905583
21
28.827179
0
LINE
8
DEFAULT_255_1_234
10
21.8066412
20
28.4384429
11
21.7656793
21
28.4368365
0
LINE
8
DEFAULT_255_1_234
10
21.3440131
20
28.8255727
11
21.3440131
21
29.6223211
0
LINE
8
DEFAULT_255_1_234
10
21.3440131
20
29.6223211
11
21.4966161
21
29.6223211
0
LINE
8
DEFAULT_255_1_234
10
21.4966161
20
29.6223211
11
21.4966161
21
28.8303917
0
LINE
8
DEFAULT_255_1_234
10
22.0355458
20
28.8295885
11
22.0355458
21
29.6223211
0
ARC
8
DEFAULT_255_1_234
10
21.7552481
20
28.8251928
40
0.4353147
50
343.0898354
51
0.2614217
0
ARC
8
DEFAULT_255_1_234
10
21.8380883
20
28.8020837
40
0.3493402
50
315.3345598
51
342.7641223
0
ARC
8
DEFAULT_255_1_234
10
21.8157332
20
28.8252682
40
0.3815385
50
284.6606969
51
315.2182466
0
ARC
8
DEFAULT_255_1_234
10
21.7702044
20
28.9798755
40
0.5426573
50
273.8500273
51
285.1797701
0
ARC
8
DEFAULT_255_1_234
10
21.7614095
20
29.0140475
40
0.5772268
50
257.6317484
51
270.4238298
0
ARC
8
DEFAULT_255_1_234
10
21.7189293
20
28.8319198
40
0.3902347
50
230.6087562
51
257.9964012
0
ARC
8
DEFAULT_255_1_234
10
21.7057295
20
28.8112802
40
0.3659186
50
227.7440991
51
230.1551448
0
ARC
8
DEFAULT_255_1_234
10
21.6923127
20
28.7951471
40
0.3449568
50
189.2524587
51
227.5916061
0
ARC
8
DEFAULT_255_1_234
10
21.8444813
20
28.8279013
40
0.5004737
50
180.2665968
51
190.1525252
0
ARC
8
DEFAULT_255_1_234
10
21.8666833
20
28.8275918
40
0.3700778
50
179.5665184
51
191.9952995
0
ARC
8
DEFAULT_255_1_234
10
21.7438939
20
28.8002043
40
0.2442808
50
191.6974072
51
215.1404042
0
ARC
8
DEFAULT_255_1_234
10
21.7200854
20
28.7860108
40
0.2166522
50
215.6950207
51
224.8513522
0
ARC
8
DEFAULT_255_1_234
10
21.7256598
20
28.7939697
40
0.2262237
50
225.2846858
51
255.0111758
0
ARC
8
DEFAULT_255_1_234
10
21.7580558
20
28.9053455
40
0.3421979
50
254.5944985
51
267.9129803
0
ARC
8
DEFAULT_255_1_234
10
21.7655038
20
29.0137903
40
0.4508556
50
267.4689655
51
270.0223026
0
ARC
8
DEFAULT_255_1_234
10
21.7685184
20
28.9548849
40
0.3919604
50
269.5849941
51
281.1843768
0
ARC
8
DEFAULT_255_1_234
10
21.7963948
20
28.8196059
40
0.2538457
50
280.9344262
51
300.9743589
0
ARC
8
DEFAULT_255_1_234
10
21.8176554
20
28.7804688
40
0.2093566
50
301.4980046
51
315.1466847
0
ARC
8
DEFAULT_255_1_234
10
21.8032092
20
28.7923236
40
0.2279656
50
315.5952539
51
345.6678731
0
ARC
8
DEFAULT_255_1_234
10
21.6912609
20
28.8235009
40
0.3441564
50
345.2524969
51
358.6304371
0
ARC
8
DEFAULT_255_1_234
10
21.5894963
20
28.8294916
40
0.4460494
50
358.1735671
51
0.0124524
0
LINE
8
DEFAULT_255_1_234
10
23.2419128
20
29.6223211
11
23.2419128
21
29.4954196
0
LINE
8
DEFAULT_255_1_234
10
23.2419128
20
29.4954196
11
22.8660275
21
29.4954196
0
LINE
8
DEFAULT_255_1_234
10
22.8660275
20
29.4954196
11
22.8660275
21
28.4529
0
LINE
8
DEFAULT_255_1_234
10
22.8660275
20
28.4529
11
22.7126213
21
28.4529
0
LINE
8
DEFAULT_255_1_234
10
22.7126213
20
28.4529
11
22.7126213
21
29.4954196
0
LINE
8
DEFAULT_255_1_234
10
22.7126213
20
29.4954196
11
22.3375391
21
29.4954196
0
LINE
8
DEFAULT_255_1_234
10
22.3375391
20
29.4954196
11
22.3375391
21
29.6223211
0
LINE
8
DEFAULT_255_1_234
10
22.3375391
20
29.6223211
11
23.2419128
21
29.6223211
0
LINE
8
DEFAULT_255_1_234
10
23.8177885
20
29.4215276
11
23.8177885
21
29.0801788
0
LINE
8
DEFAULT_255_1_234
10
23.8177885
20
29.0801788
11
24.1438771
21
29.0801788
0
LINE
8
DEFAULT_255_1_234
10
24.1438771
20
29.0801788
11
24.1438771
21
28.9396233
0
LINE
8
DEFAULT_255_1_234
10
24.1438771
20
28.9396233
11
23.8177885
21
28.9396233
0
LINE
8
DEFAULT_255_1_234
10
23.8177885
20
28.9396233
11
23.8177885
21
28.5701634
0
LINE
8
DEFAULT_255_1_234
10
23.8177885
20
28.5701634
11
23.6683981
21
28.5701634
0
LINE
8
DEFAULT_255_1_234
10
23.6683981
20
28.5701634
11
23.6683981
21
28.9396233
0
LINE
8
DEFAULT_255_1_234
10
23.6683981
20
28.9396233
11
23.3423096
21
28.9396233
0
LINE
8
DEFAULT_255_1_234
10
23.3423096
20
28.9396233
11
23.3423096
21
29.0801788
0
LINE
8
DEFAULT_255_1_234
10
23.3423096
20
29.0801788
11
23.6683981
21
29.0801788
0
LINE
8
DEFAULT_255_1_234
10
23.6683981
20
29.0801788
11
23.6683981
21
29.4215276
0
LINE
8
DEFAULT_255_1_234
10
23.6683981
20
29.4215276
11
23.8177885
21
29.4215276
0
LINE
8
DEFAULT_255_1_234
10
21.7852911
20
21.1362534
11
21.7852911
21
21.0623614
0
LINE
8
DEFAULT_255_1_234
10
20.8447745
20
21.0519201
11
20.8447745
21
21.1362534
0
LINE
8
DEFAULT_255_1_234
10
21.6318849
20
21.0511169
11
21.6318849
21
21.1378597
0
LINE
8
DEFAULT_255_1_234
10
20.9981807
20
21.148301
11
20.9981807
21
21.0623614
0
ARC
8
DEFAULT_255_1_234
10
20.9210937
20
21.0584015
40
0.8642064
50
350.487711
51
0.2625388
0
ARC
8
DEFAULT_255_1_234
10
21.1504178
20
21.0189578
40
0.631518
50
336.0277639
51
350.5787438
0
ARC
8
DEFAULT_255_1_234
10
21.2849002
20
20.9581892
40
0.4839466
50
319.8877444
51
336.1328423
0
ARC
8
DEFAULT_255_1_234
10
21.3451643
20
20.909958
40
0.4067874
50
302.4806467
51
319.6143626
0
ARC
8
DEFAULT_255_1_234
10
21.3336653
20
20.9321202
40
0.4316636
50
275.8195682
51
302.1884709
0
ARC
8
DEFAULT_255_1_234
10
21.3170286
20
21.0463665
40
0.5470306
50
269.9171439
51
276.3397983
0
ARC
8
DEFAULT_255_1_234
10
21.3125496
20
20.9777681
40
0.4784458
50
252.5219675
51
270.4416499
0
ARC
8
DEFAULT_255_1_234
10
21.2981755
20
20.9238592
40
0.422716
50
237.5352116
51
252.1857531
0
ARC
8
DEFAULT_255_1_234
10
21.3070951
20
20.9352363
40
0.4371052
50
209.063312
51
237.3492538
0
ARC
8
DEFAULT_255_1_234
10
21.3940799
20
20.9898685
40
0.5397041
50
205.1183774
51
209.6470015
0
ARC
8
DEFAULT_255_1_234
10
21.4737836
20
21.023683
40
0.6262326
50
188.7215458
51
204.8240747
0
ARC
8
DEFAULT_255_1_234
10
21.6735364
20
21.0573067
40
0.8287794
50
180.3723947
51
188.9252049
0
ARC
8
DEFAULT_255_1_234
10
21.6708116
20
21.1402402
40
0.8260467
50
169.5253763
51
180.2765336
0
ARC
8
DEFAULT_255_1_234
10
21.4805564
20
21.1752309
40
0.6326007
50
155.8315255
51
169.5089989
0
ARC
8
DEFAULT_255_1_234
10
21.3525066
20
21.2346348
40
0.4914567
50
139.6258461
51
156.0379525
0
ARC
8
DEFAULT_255_1_234
10
21.2935399
20
21.2820799
40
0.4158054
50
122.6416387
51
139.3430715
0
ARC
8
DEFAULT_255_1_234
10
21.3036019
20
21.2637451
40
0.4366739
50
93.0223692
51
122.455762
0
ARC
8
DEFAULT_255_1_234
10
21.3144016
20
21.1672709
40
0.5336137
50
89.975342
51
93.6341897
0
ARC
8
DEFAULT_255_1_234
10
21.3182795
20
21.2071242
40
0.4937738
50
73.746375
51
90.4233405
0
ARC
8
DEFAULT_255_1_234
10
21.3358373
20
21.2751287
40
0.4235786
50
57.662753
51
73.4518111
0
ARC
8
DEFAULT_255_1_234
10
21.335038
20
21.2772832
40
0.4221899
50
29.1440151
51
57.414694
0
ARC
8
DEFAULT_255_1_234
10
21.2415574
20
21.2189005
40
0.5322966
50
24.0982783
51
29.7323517
0
ARC
8
DEFAULT_255_1_234
10
21.138185
20
21.1760399
40
0.6441673
50
8.6655297
51
23.8241346
0
ARC
8
DEFAULT_255_1_234
10
20.9147588
20
21.1395854
40
0.8705386
50
359.7806941
51
8.8218784
0
ARC
8
DEFAULT_255_1_234
10
20.8000586
20
21.1421345
40
0.8318373
50
359.7055579
51
8.036044
0
ARC
8
DEFAULT_255_1_234
10
21.1000592
20
21.1858239
40
0.5286768
50
7.8928306
51
20.2962107
0
ARC
8
DEFAULT_255_1_234
10
21.2628162
20
21.2458395
40
0.3552073
50
20.3231126
51
36.4992797
0
ARC
8
DEFAULT_255_1_234
10
21.3313708
20
21.2986402
40
0.2686974
50
36.1437156
51
85.6627023
0
ARC
8
DEFAULT_255_1_234
10
21.3151254
20
21.1946221
40
0.373739
50
84.3852322
51
90.0757696
0
ARC
8
DEFAULT_255_1_234
10
21.3108927
20
21.2606839
40
0.3076997
50
89.3038458
51
109.9045693
0
ARC
8
DEFAULT_255_1_234
10
21.3016318
20
21.2989062
40
0.2686424
50
110.8228367
51
143.9179474
0
ARC
8
DEFAULT_255_1_234
10
21.3949978
20
21.2276236
40
0.3860887
50
143.5289163
51
163.2980757
0
ARC
8
DEFAULT_255_1_234
10
21.5857799
20
21.1676433
40
0.5860659
50
163.0418846
51
174.3140048
0
ARC
8
DEFAULT_255_1_234
10
21.8261911
20
21.1398854
40
0.8280531
50
174.0509143
51
179.4176892
0
ARC
8
DEFAULT_255_1_234
10
21.775765
20
21.0581954
40
0.7775954
50
179.6930361
51
188.7906598
0
ARC
8
DEFAULT_255_1_234
10
21.5094129
20
21.0155935
40
0.5078633
50
188.6331305
51
202.5629587
0
ARC
8
DEFAULT_255_1_234
10
21.3839721
20
20.9651996
40
0.3726913
50
202.8081362
51
216.1193925
0
ARC
8
DEFAULT_255_1_234
10
21.3030291
20
20.9000676
40
0.2689577
50
215.0755913
51
264.6379694
0
ARC
8
DEFAULT_255_1_234
10
21.315724
20
20.9831513
40
0.3528978
50
263.846392
51
270.0833719
0
ARC
8
DEFAULT_255_1_234
10
21.3198631
20
20.9573374
40
0.3271036
50
269.3649385
51
287.5152008
0
ARC
8
DEFAULT_255_1_234
10
21.3376788
20
20.8926238
40
0.2600406
50
288.0630309
51
323.8113348
0
ARC
8
DEFAULT_255_1_234
10
21.250563
20
20.9576049
40
0.3687189
50
323.6547608
51
342.6590488
0
ARC
8
DEFAULT_255_1_234
10
21.0474245
20
21.0236952
40
0.5823286
50
342.4091907
51
353.6451149
0
ARC
8
DEFAULT_255_1_234
10
20.7642756
20
21.058919
40
0.8676442
50
353.4029884
51
359.4847795
0
LINE
8
DEFAULT_255_1_234
10
22.6848458
20
21.6848211
11
22.8398583
21
21.6848211
0
LINE
8
DEFAULT_255_1_234
10
22.8398583
20
21.6848211
11
22.8398583
21
20.889679
0
LINE
8
DEFAULT_255_1_234
10
22.4559412
20
20.5009429
11
22.4149793
21
20.4993365
0
LINE
8
DEFAULT_255_1_234
10
21.9933131
20
20.8880727
11
21.9933131
21
21.6848211
0
LINE
8
DEFAULT_255_1_234
10
21.9933131
20
21.6848211
11
22.1459161
21
21.6848211
0
LINE
8
DEFAULT_255_1_234
10
22.1459161
20
21.6848211
11
22.1459161
21
20.8928917
0
LINE
8
DEFAULT_255_1_234
10
22.6848458
20
20.8920885
11
22.6848458
21
21.6848211
0
ARC
8
DEFAULT_255_1_234
10
22.4045481
20
20.8876928
40
0.4353147
50
343.0898354
51
0.2614217
0
ARC
8
DEFAULT_255_1_234
10
22.4873883
20
20.8645837
40
0.3493402
50
315.3345598
51
342.7641223
0
ARC
8
DEFAULT_255_1_234
10
22.4650332
20
20.8877682
40
0.3815385
50
284.6606969
51
315.2182466
0
ARC
8
DEFAULT_255_1_234
10
22.4195044
20
21.0423755
40
0.5426573
50
273.8500273
51
285.1797701
0
ARC
8
DEFAULT_255_1_234
10
22.4107095
20
21.0765475
40
0.5772268
50
257.6317484
51
270.4238298
0
ARC
8
DEFAULT_255_1_234
10
22.3682293
20
20.8944198
40
0.3902347
50
230.6087562
51
257.9964012
0
ARC
8
DEFAULT_255_1_234
10
22.3550295
20
20.8737802
40
0.3659186
50
227.7440991
51
230.1551448
0
ARC
8
DEFAULT_255_1_234
10
22.3416127
20
20.8576471
40
0.3449568
50
189.2524587
51
227.5916061
0
ARC
8
DEFAULT_255_1_234
10
22.4937813
20
20.8904013
40
0.5004737
50
180.2665968
51
190.1525252
0
ARC
8
DEFAULT_255_1_234
10
22.5159833
20
20.8900918
40
0.3700778
50
179.5665184
51
191.9952995
0
ARC
8
DEFAULT_255_1_234
10
22.3931939
20
20.8627043
40
0.2442808
50
191.6974072
51
215.1404042
0
ARC
8
DEFAULT_255_1_234
10
22.3693854
20
20.8485108
40
0.2166522
50
215.6950207
51
224.8513522
0
ARC
8
DEFAULT_255_1_234
10
22.3749598
20
20.8564697
40
0.2262237
50
225.2846858
51
255.0111758
0
ARC
8
DEFAULT_255_1_234
10
22.4073558
20
20.9678455
40
0.3421979
50
254.5944985
51
267.9129803
0
ARC
8
DEFAULT_255_1_234
10
22.4148038
20
21.0762903
40
0.4508556
50
267.4689655
51
270.0223026
0
ARC
8
DEFAULT_255_1_234
10
22.4178184
20
21.0173849
40
0.3919604
50
269.5849941
51
281.1843768
0
ARC
8
DEFAULT_255_1_234
10
22.4456948
20
20.8821059
40
0.2538457
50
280.9344262
51
300.9743589
0
ARC
8
DEFAULT_255_1_234
10
22.4669554
20
20.8429688
40
0.2093566
50
301.4980046
51
315.1466847
0
ARC
8
DEFAULT_255_1_234
10
22.4525092
20
20.8548236
40
0.2279656
50
315.5952539
51
345.6678731
0
ARC
8
DEFAULT_255_1_234
10
22.3405609
20
20.8860009
40
0.3441564
50
345.2524969
51
358.6304371
0
ARC
8
DEFAULT_255_1_234
10
22.2387963
20
20.8919916
40
0.4460494
50
358.1735671
51
0.0124524
0
LINE
8
DEFAULT_255_1_234
10
23.8912128
20
21.6848211
11
23.8912128
21
21.5579196
0
LINE
8
DEFAULT_255_1_234
10
23.8912128
20
21.5579196
11
23.5153275
21
21.5579196
0
LINE
8
DEFAULT_255_1_234
10
23.5153275
20
21.5579196
11
23.5153275
21
20.5154
0
LINE
8
DEFAULT_255_1_234
10
23.5153275
20
20.5154
11
23.3619213
21
20.5154
0
LINE
8
DEFAULT_255_1_234
10
23.3619213
20
20.5154
11
23.3619213
21
21.5579196
0
LINE
8
DEFAULT_255_1_234
10
23.3619213
20
21.5579196
11
22.9868391
21
21.5579196
0
LINE
8
DEFAULT_255_1_234
10
22.9868391
20
21.5579196
11
22.9868391
21
21.6848211
0
LINE
8
DEFAULT_255_1_234
10
22.9868391
20
21.6848211
11
23.8912128
21
21.6848211
0
LINE
8
DEFAULT_255_1_234
10
24.1642919
20
21.0728026
11
24.1642919
21
20.9515234
0
LINE
8
DEFAULT_255_1_234
10
24.1642919
20
20.9515234
11
23.7723431
21
20.9515234
0
LINE
8
DEFAULT_255_1_234
10
23.7723431
20
20.9515234
11
23.7723431
21
21.0728026
0
LINE
8
DEFAULT_255_1_234
10
23.7723431
20
21.0728026
11
24.1642919
21
21.0728026
0
ENDSEC
0
EOF