0
SECTION
2
HEADER
9
$MEASUREMENT
70
1
0
ENDSEC
0
SECTION
2
TABLES
0
TABLE
2
LTYPE
0
LTYPE
72
65
70
64
2
CONTINUOUS
3
______
73
0
40
0
0
ENDTAB
0
TABLE
2
LAYER
0
LAYER
2
DEFAULT_255_2_778
70
0
62
255
6
CONTINUOUS
0
ENDTAB
0
ENDSEC
0
SECTION
2
ENTITIES
0
LINE
8
DEFAULT_255_2_778
10
11.2383137
20
73.7923814
11
13.5936137
21
73.7923814
0
LINE
8
DEFAULT_255_2_778
10
5.3436137
20
70.0720814
11
13.5936137
21
70.0720814
0
LINE
8
DEFAULT_255_2_778
10
5.3436137
20
69.2121814
11
6.1937137
21
69.2121814
0
LINE
8
DEFAULT_255_2_778
10
12.7435137
20
69.2121814
11
13.5936137
21
69.2121814
0
LINE
8
DEFAULT_255_2_778
10
11.2383137
20
10.4825814
11
13.5936137
21
10.4825814
0
LINE
8
DEFAULT_255_2_778
10
5.3436137
20
14.2026814
11
13.5936137
21
14.2026814
0
LINE
8
DEFAULT_255_2_778
10
5.3436409
20
15.0625738
11
6.1937409
21
15.0625738
0
LINE
8
DEFAULT_255_2_778
10
12.7435409
20
15.0625738
11
13.5936409
21
15.0625738
0
LINE
8
DEFAULT_255_2_778
10
20.1687409
20
95.0873738
11
0.7687409
21
95.0873738
0
LINE
8
DEFAULT_255_2_778
10
4.7686409
20
77.6872738
11
14.1688409
21
77.6872738
0
LINE
8
DEFAULT_255_2_778
10
14.1688409
20
6.5874738
11
4.7686409
21
6.5874738
0
LINE
8
DEFAULT_255_2_778
10
13.4684409
20
78.9906738
11
13.4684409
21
79.2171738
0
LINE
8
DEFAULT_255_2_778
10
13.4684409
20
79.2171738
11
15.1160409
21
79.2171738
0
LINE
8
DEFAULT_255_2_778
10
15.5864409
20
79.6171738
11
13.4684409
21
79.6171738
0
LINE
8
DEFAULT_255_2_778
10
13.4684409
20
79.6171738
11
13.4684409
21
79.6872738
0
LINE
8
DEFAULT_255_2_778
10
13.4684409
20
81.6872738
11
13.4684409
21
81.7571738
0
LINE
8
DEFAULT_255_2_778
10
13.4684409
20
81.7571738
11
15.5925409
21
81.7571738
0
LINE
8
DEFAULT_255_2_778
10
15.1284409
20
82.1571738
11
13.4684409
21
82.1571738
0
LINE
8
DEFAULT_255_2_778
10
13.4684409
20
82.1571738
11
13.4684409
21
82.3907738
0
LINE
8
DEFAULT_255_2_778
10
0.4718409
20
92.9873738
11
0.1686409
21
92.9873738
0
LINE
8
DEFAULT_255_2_778
10
0.1686409
20
92.9873738
11
0.1686409
21
82.0873738
0
LINE
8
DEFAULT_255_2_778
10
0.1686409
20
82.0873738
11
0.4686409
21
82.0873738
0
LINE
8
DEFAULT_255_2_778
10
0.4686409
20
81.5872738
11
0.1686409
21
81.5872738
0
LINE
8
DEFAULT_255_2_778
10
0.1686409
20
81.5872738
11
0.1686409
21
70.6872738
0
LINE
8
DEFAULT_255_2_778
10
0.1686409
20
70.6872738
11
0.4718409
21
70.6872738
0
LINE
8
DEFAULT_255_2_778
10
0.3173292
20
92.9873705
11
0.4686292
21
92.5566705
0
LINE
8
DEFAULT_255_2_778
10
0.3173292
20
70.6872705
11
0.4686292
21
71.1179705
0
ARC
8
DEFAULT_255_2_778
10
14.1691431
20
77.3874446
40
0.2997853
50
359.976134
51
45.0256554
0
ARC
8
DEFAULT_255_2_778
10
14.1692365
20
77.3879776
40
0.2993425
50
44.9661999
51
90.0781112
0
ARC
8
DEFAULT_255_2_778
10
14.1690635
20
6.88698
40
0.2997604
50
269.9550591
51
315.0006231
0
ARC
8
DEFAULT_255_2_778
10
14.1691431
20
6.8870949
40
0.2997853
50
314.9743446
51
0.023866
0
ARC
8
DEFAULT_255_2_778
10
10.4690099
20
80.6873659
40
2.0003834
50
187.1835921
51
238.0121626
0
ARC
8
DEFAULT_255_2_778
10
10.4688146
20
80.6870934
40
2.0001872
50
121.5938223
51
172.8162721
0
ARC
8
DEFAULT_255_2_778
10
14.2687052
20
80.690439
40
1.6995193
50
269.9974116
51
330.0132472
0
ARC
8
DEFAULT_255_2_778
10
14.2684143
20
80.6909787
40
1.7000409
50
330.002394
51
356.9871921
0
ARC
8
DEFAULT_255_2_778
10
14.2661682
20
80.69124
40
1.7022977
50
356.9823834
51
359.9925876
0
LINE
8
DEFAULT_255_2_778
10
15.9684659
20
80.6910198
11
15.9684659
21
80.6912372
0
ARC
8
DEFAULT_255_2_778
10
14.2705785
20
80.6916122
40
1.6978874
50
359.9873464
51
28.9387566
0
ARC
8
DEFAULT_255_2_778
10
14.2655858
20
80.6890062
40
1.7035178
50
28.9342096
51
30.0098924
0
ARC
8
DEFAULT_255_2_778
10
14.2684063
20
80.6910831
40
1.7000367
50
29.996822
51
89.9925145
0
ARC
8
DEFAULT_255_2_778
10
20.168719
20
5.3874292
40
0.3001094
50
270.0208901
51
359.9791099
0
LINE
8
DEFAULT_255_2_778
10
0.3449284
20
82.0874198
11
0.3449284
21
81.5873198
0
LINE
8
DEFAULT_255_2_778
10
5.3437284
20
73.7924198
11
6.2382284
21
73.7924198
0
LINE
8
DEFAULT_255_2_778
10
11.2383284
20
71.4278198
11
6.2382284
21
71.4278198
0
LINE
8
DEFAULT_255_2_778
10
5.3437284
20
10.4826198
11
6.2382284
21
10.4826198
0
LINE
8
DEFAULT_255_2_778
10
11.2383284
20
12.8472198
11
6.2382284
21
12.8472198
0
LINE
8
DEFAULT_255_2_778
10
6.2382284
20
77.1875198
11
11.2383284
21
77.1875198
0
LINE
8
DEFAULT_255_2_778
10
6.2382284
20
72.7552198
11
11.2383284
21
72.7552198
0
LINE
8
DEFAULT_255_2_778
10
6.2382284
20
75.9620198
11
11.2383284
21
75.9620198
0
LINE
8
DEFAULT_255_2_778
10
6.2382284
20
73.6374198
11
11.2383284
21
73.6374198
0
LINE
8
DEFAULT_255_2_778
10
9.8984522
20
70.0721054
11
9.8984522
21
68.2272054
0
LINE
8
DEFAULT_255_2_778
10
9.8984522
20
68.2272054
11
7.5783522
21
68.2272054
0
LINE
8
DEFAULT_255_2_778
10
7.5783522
20
68.2272054
11
7.5783522
21
70.0721054
0
LINE
8
DEFAULT_255_2_778
10
6.2382522
20
10.6377054
11
11.2383522
21
10.6377054
0
LINE
8
DEFAULT_255_2_778
10
6.2382439
20
11.5195164
11
11.2383439
21
11.5195164
0
LINE
8
DEFAULT_255_2_778
10
9.8984439
20
14.2027164
11
9.8984439
21
16.0476164
0
LINE
8
DEFAULT_255_2_778
10
9.8984439
20
16.0476164
11
7.5783439
21
16.0476164
0
LINE
8
DEFAULT_255_2_778
10
7.5783439
20
16.0476164
11
7.5783439
21
14.2027164
0
LINE
8
DEFAULT_255_2_778
10
6.2382439
20
8.3128164
11
11.2383439
21
8.3128164
0
LINE
8
DEFAULT_255_2_778
10
16.0185439
20
5.0872164
11
16.0185439
21
1.7874164
0
LINE
8
DEFAULT_255_2_778
10
16.0185439
20
1.7874164
11
13.5185439
21
-0.2125836
0
LINE
8
DEFAULT_255_2_778
10
13.5185439
20
-0.2125836
11
6.5186439
21
-0.2125836
0
LINE
8
DEFAULT_255_2_778
10
6.5186439
20
-0.2125836
11
4.0186439
21
1.7874164
0
LINE
8
DEFAULT_255_2_778
10
4.0186439
20
1.7874164
11
4.0186439
21
2.5872164
0
ARC
8
DEFAULT_255_2_778
10
10.0117612
20
3.2848023
40
1.9929158
50
179.926605
51
204.3113989
0
ARC
8
DEFAULT_255_2_778
10
10.0206045
20
3.2898554
40
2.0030556
50
204.3389823
51
260.1972101
0
ARC
8
DEFAULT_255_2_778
10
10.018232
20
3.3005167
40
2.0131615
50
260.3154071
51
270.0175033
0
ARC
8
DEFAULT_255_2_778
10
10.0214063
20
3.2801674
40
1.9928139
50
269.9264183
51
294.3120318
0
ARC
8
DEFAULT_255_2_778
10
10.0162133
20
3.2891911
40
2.0031756
50
294.34113
51
350.1955271
0
ARC
8
DEFAULT_255_2_778
10
10.0052458
20
3.2869248
40
2.0136013
50
350.3122132
51
0.0122462
0
LINE
8
DEFAULT_255_2_778
10
12.018847
20
3.2873552
11
14.518847
21
3.2873552
0
LINE
8
DEFAULT_255_2_778
10
14.518847
20
3.2873552
11
14.518847
21
4.2874552
0
LINE
8
DEFAULT_255_2_778
10
14.518847
20
4.2874552
11
5.518747
21
4.2874552
0
LINE
8
DEFAULT_255_2_778
10
5.518747
20
4.2874552
11
5.518747
21
3.2873552
0
LINE
8
DEFAULT_255_2_778
10
5.518747
20
3.2873552
11
8.018847
21
3.2873552
0
LINE
8
DEFAULT_255_2_778
10
2.568947
20
2.3872552
11
2.568947
21
2.5872552
0
LINE
8
DEFAULT_255_2_778
10
2.968747
20
2.3872552
11
2.968747
21
2.5872552
0
LINE
8
DEFAULT_255_2_778
10
1.9689323
20
2.5872125
11
1.9689323
21
2.3872125
0
LINE
8
DEFAULT_255_2_778
10
1.9689323
20
2.3872125
11
3.5688323
21
2.3872125
0
LINE
8
DEFAULT_255_2_778
10
3.5688323
20
2.3872125
11
3.5688323
21
2.5872125
0
LINE
8
DEFAULT_255_2_778
10
4.5186459
20
2.987225
11
4.5186459
21
2.587225
0
LINE
8
DEFAULT_255_2_778
10
4.5186459
20
2.587225
11
1.0187459
21
2.587225
0
LINE
8
DEFAULT_255_2_778
10
1.0187459
20
2.587225
11
1.0187459
21
2.987225
0
LINE
8
DEFAULT_255_2_778
10
4.5186459
20
3.387325
11
4.5186459
21
2.987325
0
LINE
8
DEFAULT_255_2_778
10
4.5186459
20
2.987325
11
1.0187459
21
2.987325
0
LINE
8
DEFAULT_255_2_778
10
1.0187459
20
2.987325
11
1.0187459
21
3.387325
0
LINE
8
DEFAULT_255_2_778
10
4.5186459
20
3.787325
11
4.5186459
21
3.387325
0
LINE
8
DEFAULT_255_2_778
10
4.5186459
20
3.387325
11
1.0187459
21
3.387325
0
LINE
8
DEFAULT_255_2_778
10
1.0187459
20
3.387325
11
1.0187459
21
3.787325
0
ARC
8
DEFAULT_255_2_778
10
4.7687627
20
6.8873623
40
0.3001094
50
180.0208901
51
269.9791099
0
ARC
8
DEFAULT_255_2_778
10
4.7687631
20
77.3874434
40
0.3001098
50
135.0270485
51
180.0172913
0
ARC
8
DEFAULT_255_2_778
10
4.7685623
20
77.3872437
40
0.300109
50
89.9826268
51
134.9729802
0
LINE
8
DEFAULT_255_2_778
10
4.5186533
20
4.1871529
11
4.5186533
21
3.7871529
0
LINE
8
DEFAULT_255_2_778
10
4.5186533
20
3.7871529
11
1.0187533
21
3.7871529
0
LINE
8
DEFAULT_255_2_778
10
1.0187533
20
3.7871529
11
1.0187533
21
4.1871529
0
LINE
8
DEFAULT_255_2_778
10
4.5186533
20
5.0873529
11
4.5186533
21
4.1874529
0
LINE
8
DEFAULT_255_2_778
10
4.5186533
20
4.1874529
11
1.0187533
21
4.1874529
0
LINE
8
DEFAULT_255_2_778
10
1.0187533
20
4.1874529
11
1.0187533
21
5.0873529
0
LINE
8
DEFAULT_255_2_778
10
4.4686533
20
6.8872529
11
4.4686533
21
77.3873529
0
LINE
8
DEFAULT_255_2_778
10
6.1937533
20
14.2027529
11
6.1937533
21
70.0721529
0
LINE
8
DEFAULT_255_2_778
10
6.2381533
20
70.0724529
11
6.2381533
21
77.1875529
0
LINE
8
DEFAULT_255_2_778
10
6.2381533
20
77.1875529
11
5.3436533
21
77.1875529
0
LINE
8
DEFAULT_255_2_778
10
5.3436533
20
77.1875529
11
5.3436533
21
7.0875529
0
LINE
8
DEFAULT_255_2_778
10
5.3436533
20
7.0875529
11
6.2381533
21
7.0875529
0
LINE
8
DEFAULT_255_2_778
10
6.2381533
20
7.0875529
11
6.2381533
21
14.2027529
0
LINE
8
DEFAULT_255_2_778
10
14.4688533
20
77.3873529
11
14.4688533
21
6.8872529
0
LINE
8
DEFAULT_255_2_778
10
12.7434533
20
14.2027529
11
12.7434533
21
70.0721529
0
LINE
8
DEFAULT_255_2_778
10
11.2382533
20
14.2027529
11
11.2382533
21
7.0875529
0
LINE
8
DEFAULT_255_2_778
10
11.2382533
20
7.0875529
11
13.5936533
21
7.0875529
0
LINE
8
DEFAULT_255_2_778
10
13.5936533
20
7.0875529
11
13.5936533
21
77.1875529
0
LINE
8
DEFAULT_255_2_778
10
13.5936533
20
77.1875529
11
11.2382533
21
77.1875529
0
LINE
8
DEFAULT_255_2_778
10
11.2382533
20
77.1875529
11
11.2382533
21
70.0724529
0
LINE
8
DEFAULT_255_2_778
10
7.4684533
20
79.6873529
11
7.4684533
21
78.9909529
0
LINE
8
DEFAULT_255_2_778
10
7.4684533
20
82.3908529
11
7.4684533
21
81.6873529
0
LINE
8
DEFAULT_255_2_778
10
11.5184533
20
81.6373529
11
10.4686533
21
81.6373529
0
LINE
8
DEFAULT_255_2_778
10
11.5184533
20
79.7371529
11
10.4686533
21
79.7371529
0
LINE
8
DEFAULT_255_2_778
10
14.2685533
20
82.3908529
11
6.6686533
21
82.3908529
0
LINE
8
DEFAULT_255_2_778
10
14.2685533
20
78.9909529
11
6.6686533
21
78.9909529
0
LINE
8
DEFAULT_255_2_778
10
2.9687533
20
97.7872529
11
2.9687533
21
97.5872529
0
LINE
8
DEFAULT_255_2_778
10
2.5686533
20
97.7872529
11
2.5686533
21
97.5872529
0
LINE
8
DEFAULT_255_2_778
10
3.5685533
20
97.5872529
11
3.5685533
21
97.7872529
0
LINE
8
DEFAULT_255_2_778
10
3.5685533
20
97.7872529
11
1.9686533
21
97.7872529
0
LINE
8
DEFAULT_255_2_778
10
1.9686533
20
97.7872529
11
1.9686533
21
97.5872529
0
LINE
8
DEFAULT_255_2_778
10
1.0187533
20
97.1871529
11
1.0187533
21
97.5872529
0
LINE
8
DEFAULT_255_2_778
10
1.0187533
20
97.5872529
11
4.5186533
21
97.5872529
0
LINE
8
DEFAULT_255_2_778
10
4.5186533
20
97.5872529
11
4.5186533
21
97.1871529
0
LINE
8
DEFAULT_255_2_778
10
1.0187533
20
96.7871529
11
1.0187533
21
97.1871529
0
LINE
8
DEFAULT_255_2_778
10
1.0187533
20
97.1871529
11
4.5186533
21
97.1871529
0
LINE
8
DEFAULT_255_2_778
10
4.5186533
20
97.1871529
11
4.5186533
21
96.7871529
0
LINE
8
DEFAULT_255_2_778
10
1.0187533
20
96.3870529
11
1.0187533
21
96.7871529
0
LINE
8
DEFAULT_255_2_778
10
1.0187533
20
96.7871529
11
4.5186533
21
96.7871529
0
LINE
8
DEFAULT_255_2_778
10
4.5186533
20
96.7871529
11
4.5186533
21
96.3870529
0
LINE
8
DEFAULT_255_2_778
10
1.0187533
20
95.9870529
11
1.0187533
21
96.3870529
0
LINE
8
DEFAULT_255_2_778
10
1.0187533
20
96.3870529
11
4.5186533
21
96.3870529
0
LINE
8
DEFAULT_255_2_778
10
4.5186533
20
96.3870529
11
4.5186533
21
95.9870529
0
LINE
8
DEFAULT_255_2_778
10
1.0187533
20
95.0874529
11
1.0187533
21
95.9872529
0
LINE
8
DEFAULT_255_2_778
10
1.0187533
20
95.9872529
11
4.5186533
21
95.9872529
0
LINE
8
DEFAULT_255_2_778
10
4.5186533
20
95.9872529
11
4.5186533
21
95.0874529
0
LINE
8
DEFAULT_255_2_778
10
5.3684533
20
90.1873529
11
5.3684533
21
90.9874529
0
LINE
8
DEFAULT_255_2_778
10
5.3684533
20
90.9874529
11
6.5686533
21
90.9874529
0
LINE
8
DEFAULT_255_2_778
10
6.5686533
20
90.9874529
11
6.5686533
21
90.1873529
0
LINE
8
DEFAULT_255_2_778
10
6.5686533
20
90.1873529
11
5.3684533
21
90.1873529
0
LINE
8
DEFAULT_255_2_778
10
5.368525
20
85.38725
11
5.368525
21
86.18735
0
LINE
8
DEFAULT_255_2_778
10
5.368525
20
86.18735
11
6.568625
21
86.18735
0
LINE
8
DEFAULT_255_2_778
10
6.568625
20
86.18735
11
6.568625
21
85.38725
0
LINE
8
DEFAULT_255_2_778
10
6.568625
20
85.38725
11
5.368525
21
85.38725
0
LINE
8
DEFAULT_255_2_778
10
5.368525
20
86.98715
11
5.368525
21
87.78725
0
LINE
8
DEFAULT_255_2_778
10
5.368525
20
87.78725
11
6.568625
21
87.78725
0
LINE
8
DEFAULT_255_2_778
10
6.568625
20
87.78725
11
6.568625
21
86.98715
0
LINE
8
DEFAULT_255_2_778
10
6.568625
20
86.98715
11
5.368525
21
86.98715
0
LINE
8
DEFAULT_255_2_778
10
5.368525
20
88.58715
11
5.368525
21
89.38725
0
LINE
8
DEFAULT_255_2_778
10
5.368525
20
89.38725
11
6.568625
21
89.38725
0
LINE
8
DEFAULT_255_2_778
10
6.568625
20
89.38725
11
6.568625
21
88.58715
0
LINE
8
DEFAULT_255_2_778
10
6.568625
20
88.58715
11
5.368525
21
88.58715
0
LINE
8
DEFAULT_255_2_778
10
8.368325
20
85.38725
11
8.368325
21
86.18735
0
LINE
8
DEFAULT_255_2_778
10
8.368325
20
86.18735
11
9.568425
21
86.18735
0
LINE
8
DEFAULT_255_2_778
10
9.568425
20
86.18735
11
9.568425
21
85.38725
0
LINE
8
DEFAULT_255_2_778
10
9.568425
20
85.38725
11
8.368325
21
85.38725
0
LINE
8
DEFAULT_255_2_778
10
8.368325
20
86.98715
11
8.368325
21
87.78725
0
LINE
8
DEFAULT_255_2_778
10
8.368325
20
87.78725
11
9.568425
21
87.78725
0
LINE
8
DEFAULT_255_2_778
10
9.568425
20
87.78725
11
9.568425
21
86.98715
0
LINE
8
DEFAULT_255_2_778
10
9.568425
20
86.98715
11
8.368325
21
86.98715
0
LINE
8
DEFAULT_255_2_778
10
8.368325
20
88.58715
11
8.368325
21
89.38725
0
LINE
8
DEFAULT_255_2_778
10
8.368325
20
89.38725
11
9.568425
21
89.38725
0
LINE
8
DEFAULT_255_2_778
10
9.568425
20
89.38725
11
9.568425
21
88.58715
0
LINE
8
DEFAULT_255_2_778
10
9.568425
20
88.58715
11
8.368325
21
88.58715
0
LINE
8
DEFAULT_255_2_778
10
8.3683699
20
90.18735
11
8.3683699
21
90.98745
0
LINE
8
DEFAULT_255_2_778
10
8.3683699
20
90.98745
11
9.5684699
21
90.98745
0
LINE
8
DEFAULT_255_2_778
10
9.5684699
20
90.98745
11
9.5684699
21
90.18735
0
LINE
8
DEFAULT_255_2_778
10
9.5684699
20
90.18735
11
8.3683699
21
90.18735
0
LINE
8
DEFAULT_255_2_778
10
11.3684699
20
90.18735
11
11.3684699
21
90.98745
0
LINE
8
DEFAULT_255_2_778
10
11.3684699
20
90.98745
11
12.5686699
21
90.98745
0
LINE
8
DEFAULT_255_2_778
10
12.5686699
20
90.98745
11
12.5686699
21
90.18735
0
LINE
8
DEFAULT_255_2_778
10
12.5686699
20
90.18735
11
11.3684699
21
90.18735
0
LINE
8
DEFAULT_255_2_778
10
11.368525
20
85.38725
11
11.368525
21
86.18735
0
LINE
8
DEFAULT_255_2_778
10
11.368525
20
86.18735
11
12.568625
21
86.18735
0
LINE
8
DEFAULT_255_2_778
10
12.568625
20
86.18735
11
12.568625
21
85.38725
0
LINE
8
DEFAULT_255_2_778
10
12.568625
20
85.38725
11
11.368525
21
85.38725
0
LINE
8
DEFAULT_255_2_778
10
11.368525
20
88.58715
11
11.368525
21
89.38725
0
LINE
8
DEFAULT_255_2_778
10
11.368525
20
89.38725
11
12.568625
21
89.38725
0
LINE
8
DEFAULT_255_2_778
10
12.568625
20
89.38725
11
12.568625
21
88.58715
0
LINE
8
DEFAULT_255_2_778
10
12.568625
20
88.58715
11
11.368525
21
88.58715
0
LINE
8
DEFAULT_255_2_778
10
11.368525
20
86.98715
11
11.368525
21
87.78725
0
LINE
8
DEFAULT_255_2_778
10
11.368525
20
87.78725
11
12.568625
21
87.78725
0
LINE
8
DEFAULT_255_2_778
10
12.568625
20
87.78725
11
12.568625
21
86.98715
0
LINE
8
DEFAULT_255_2_778
10
12.568625
20
86.98715
11
11.368525
21
86.98715
0
LINE
8
DEFAULT_255_2_778
10
14.368625
20
86.98715
11
14.368625
21
87.78725
0
LINE
8
DEFAULT_255_2_778
10
14.368625
20
87.78725
11
15.568725
21
87.78725
0
LINE
8
DEFAULT_255_2_778
10
15.568725
20
87.78725
11
15.568725
21
86.98715
0
LINE
8
DEFAULT_255_2_778
10
15.568725
20
86.98715
11
14.368625
21
86.98715
0
LINE
8
DEFAULT_255_2_778
10
14.368625
20
90.18735
11
14.368625
21
90.98745
0
LINE
8
DEFAULT_255_2_778
10
14.368625
20
90.98745
11
15.568725
21
90.98745
0
LINE
8
DEFAULT_255_2_778
10
15.568725
20
90.98745
11
15.568725
21
90.18735
0
LINE
8
DEFAULT_255_2_778
10
15.568725
20
90.18735
11
14.368625
21
90.18735
0
LINE
8
DEFAULT_255_2_778
10
14.368625
20
88.58715
11
14.368625
21
89.38725
0
LINE
8
DEFAULT_255_2_778
10
14.368625
20
89.38725
11
15.568725
21
89.38725
0
LINE
8
DEFAULT_255_2_778
10
15.568725
20
89.38725
11
15.568725
21
88.58715
0
LINE
8
DEFAULT_255_2_778
10
15.568725
20
88.58715
11
14.368625
21
88.58715
0
LINE
8
DEFAULT_255_2_778
10
14.368625
20
85.38725
11
14.368625
21
86.18735
0
LINE
8
DEFAULT_255_2_778
10
14.368625
20
86.18735
11
15.568725
21
86.18735
0
LINE
8
DEFAULT_255_2_778
10
15.568725
20
86.18735
11
15.568725
21
85.38725
0
LINE
8
DEFAULT_255_2_778
10
15.568725
20
85.38725
11
14.368625
21
85.38725
0
ARC
8
DEFAULT_255_2_778
10
11.5182854
20
80.687583
40
0.949651
50
119.9948087
51
180.008154
0
ARC
8
DEFAULT_255_2_778
10
11.5183238
20
80.6881037
40
0.9492192
50
89.9902995
51
120.0125249
0
ARC
8
DEFAULT_255_2_778
10
11.5186452
20
80.6881037
40
0.9492192
50
59.9874751
51
90.0097005
0
ARC
8
DEFAULT_255_2_778
10
11.5184732
20
80.6874615
40
0.9498613
50
359.9991764
51
59.9978636
0
ARC
8
DEFAULT_255_2_778
10
11.5182307
20
80.6875742
40
0.9501038
50
300.0105788
51
359.9923813
0
ARC
8
DEFAULT_255_2_778
10
11.5186452
20
80.686792
40
0.9492192
50
269.9902995
51
300.0125249
0
ARC
8
DEFAULT_255_2_778
10
11.5183238
20
80.686792
40
0.9492192
50
239.9874751
51
270.0097005
0
ARC
8
DEFAULT_255_2_778
10
11.5185282
20
80.6874529
40
0.9498937
50
180.0003021
51
239.9967372
0
ARC
8
DEFAULT_255_2_778
10
10.4673627
20
80.6905324
40
0.9468164
50
89.9230368
51
134.0489544
0
ARC
8
DEFAULT_255_2_778
10
10.4658409
20
80.6885401
40
0.9471934
50
133.899002
51
179.3120857
0
ARC
8
DEFAULT_255_2_778
10
10.4892799
20
80.6873418
40
0.9706454
50
179.2579718
51
179.9996443
0
ARC
8
DEFAULT_255_2_778
10
10.4654735
20
80.6860478
40
0.9468399
50
179.9213273
51
224.0451945
0
ARC
8
DEFAULT_255_2_778
10
10.4673914
20
80.6845225
40
0.9471611
50
223.8982162
51
269.3149958
0
ARC
8
DEFAULT_255_2_778
10
10.4686404
20
80.7083149
40
0.970967
50
269.2580873
51
269.9996534
0
ARC
8
DEFAULT_255_2_778
10
6.6657858
20
80.6981458
40
1.692704
50
89.913729
51
117.1116398
0
ARC
8
DEFAULT_255_2_778
10
6.6697488
20
80.6901114
40
1.7016616
50
117.1071297
51
171.2547001
0
ARC
8
DEFAULT_255_2_778
10
6.6816172
20
80.6915073
40
1.7131829
50
171.3611926
51
180.0187086
0
ARC
8
DEFAULT_255_2_778
10
6.6610677
20
80.6884492
40
1.692635
50
179.9154213
51
207.112198
0
ARC
8
DEFAULT_255_2_778
10
6.6694071
20
80.6924598
40
1.7018858
50
207.1044314
51
261.2488075
0
ARC
8
DEFAULT_255_2_778
10
6.6677782
20
80.7035432
40
1.7125955
50
261.3590845
51
270.0186127
0
LINE
8
DEFAULT_255_2_778
10
10.5686345
20
80.6874479
11
10.5686345
21
80.6874479
0
LINE
8
DEFAULT_255_2_778
10
13.9687345
20
79.6873479
11
13.2186345
21
79.6873479
0
LINE
8
DEFAULT_255_2_778
10
13.2186345
20
79.6873479
11
13.2186345
21
81.6873479
0
LINE
8
DEFAULT_255_2_778
10
13.2186345
20
81.6873479
11
13.9687345
21
81.6873479
0
LINE
8
DEFAULT_255_2_778
10
8.4842345
20
80.9372479
11
8.7186345
21
80.9372479
0
LINE
8
DEFAULT_255_2_778
10
8.7186345
20
80.9372479
11
8.7186345
21
80.4371479
0
LINE
8
DEFAULT_255_2_778
10
8.7186345
20
80.4371479
11
8.4842345
21
80.4371479
0
LINE
8
DEFAULT_255_2_778
10
6.9686345
20
79.6873479
11
7.7187345
21
79.6873479
0
LINE
8
DEFAULT_255_2_778
10
7.7187345
20
79.6873479
11
7.7187345
21
81.6873479
0
LINE
8
DEFAULT_255_2_778
10
7.7187345
20
81.6873479
11
6.9686345
21
81.6873479
0
ARC
8
DEFAULT_255_2_778
10
10.4680699
20
80.6872863
40
2.000234
50
301.998625
51
359.9976713
0
ARC
8
DEFAULT_255_2_778
10
10.4487295
20
80.6872042
40
2.0195743
50
0.000023
51
0.1975146
0
ARC
8
DEFAULT_255_2_778
10
10.4681038
20
80.6873727
40
2.0001995
50
0.1946017
51
58.3928828
0
ARC
8
DEFAULT_255_2_778
10
10.467867
20
50.388391
40
0.4990763
50
89.88235
51
180.11765
0
ARC
8
DEFAULT_255_2_778
10
10.4699018
20
50.3884761
40
0.4989912
50
359.8725621
51
90.1159799
0
ARC
8
DEFAULT_255_2_778
10
10.4699869
20
50.3862711
40
0.4989061
50
269.8742308
51
0.1257692
0
ARC
8
DEFAULT_255_2_778
10
10.4677819
20
50.3863561
40
0.4989912
50
179.8840201
51
270.1274379
0
LINE
8
DEFAULT_255_2_778
10
7.9685918
20
78.9909662
11
7.9685918
21
82.3908662
0
LINE
8
DEFAULT_255_2_778
10
6.9686918
20
78.9909662
11
6.9686918
21
82.3908662
0
LINE
8
DEFAULT_255_2_778
10
12.9686918
20
78.9909662
11
12.9686918
21
82.3908662
0
LINE
8
DEFAULT_255_2_778
10
13.9684918
20
78.9909662
11
13.9684918
21
82.3908662
0
LINE
8
DEFAULT_255_2_778
10
9.9687918
20
50.3873662
11
9.9687918
21
50.3873662
0
ARC
8
DEFAULT_255_2_778
10
20.168932
20
94.787259
40
0.3001085
50
45.0269503
51
90.0173976
0
ARC
8
DEFAULT_255_2_778
10
20.1687328
20
94.7874587
40
0.3001081
50
359.9825861
51
44.9730961
0
ARC
8
DEFAULT_255_2_778
10
20.1687328
20
5.3871763
40
0.3001081
50
315.0269039
51
0.0174139
0
ARC
8
DEFAULT_255_2_778
10
20.1689312
20
5.3873777
40
0.3001103
50
269.9827635
51
314.9729322
0
ARC
8
DEFAULT_255_2_778
10
0.7688503
20
5.3873769
40
0.3001094
50
180.0208901
51
269.9791099
0
ARC
8
DEFAULT_255_2_778
10
0.7688501
20
94.7874583
40
0.3001092
50
135.0269926
51
180.0173348
0
ARC
8
DEFAULT_255_2_778
10
0.7686498
20
94.7872588
40
0.3001086
50
89.9826105
51
134.9730267
0
LINE
8
DEFAULT_255_2_778
10
20.4688409
20
94.7873675
11
20.4688409
21
5.3872675
0
LINE
8
DEFAULT_255_2_778
10
20.1688409
20
5.0872675
11
0.7687409
21
5.0872675
0
LINE
8
DEFAULT_255_2_778
10
0.4687409
20
5.3872675
11
0.4687409
21
94.7873675
0
ENDSEC
0
EOF