0
SECTION
2
HEADER
9
$MEASUREMENT
70
1
0
ENDSEC
0
SECTION
2
TABLES
0
TABLE
2
LTYPE
0
LTYPE
72
65
70
64
2
CONTINUOUS
3
______
73
0
40
0
0
ENDTAB
0
TABLE
2
LAYER
0
LAYER
2
DEFAULT_255_2_778
70
0
62
255
6
CONTINUOUS
0
ENDTAB
0
ENDSEC
0
SECTION
2
ENTITIES
0
LINE
8
DEFAULT_255_2_778
10
0.4718938
20
92.9869705
11
0.1686938
21
92.9869705
0
LINE
8
DEFAULT_255_2_778
10
0.1686938
20
92.9869705
11
0.1686938
21
82.0869705
0
LINE
8
DEFAULT_255_2_778
10
0.1686938
20
82.0869705
11
0.4686938
21
82.0869705
0
LINE
8
DEFAULT_255_2_778
10
0.4686938
20
81.5868705
11
0.1686938
21
81.5868705
0
LINE
8
DEFAULT_255_2_778
10
0.1686938
20
81.5868705
11
0.1686938
21
70.6868705
0
LINE
8
DEFAULT_255_2_778
10
0.1686938
20
70.6868705
11
0.4718938
21
70.6868705
0
LINE
8
DEFAULT_255_2_778
10
0.3173292
20
92.9869705
11
0.4686292
21
92.5562705
0
LINE
8
DEFAULT_255_2_778
10
0.3173292
20
70.6868705
11
0.4686292
21
71.1175705
0
ARC
8
DEFAULT_255_2_778
10
20.1691395
20
94.7872341
40
0.299689
50
359.9494094
51
45.0062795
0
ARC
8
DEFAULT_255_2_778
10
20.1689195
20
94.786861
40
0.3001084
50
45.0269503
51
90.0173976
0
ARC
8
DEFAULT_255_2_778
10
0.7685934
20
94.7872086
40
0.299761
50
89.9550836
51
135.0005536
0
ARC
8
DEFAULT_255_2_778
10
0.7685137
20
94.7870944
40
0.2997853
50
134.9743446
51
180.023866
0
ARC
8
DEFAULT_255_2_778
10
4.7688378
20
6.8871789
40
0.3001094
50
180.0208901
51
269.9791099
0
ARC
8
DEFAULT_255_2_778
10
4.7688376
20
77.3869605
40
0.3001092
50
135.0270198
51
180.0173732
0
ARC
8
DEFAULT_255_2_778
10
4.7684638
20
77.3871806
40
0.299689
50
89.9494094
51
135.0062795
0
ARC
8
DEFAULT_255_2_778
10
14.1692365
20
77.3875273
40
0.2993425
50
44.9661999
51
90.0781112
0
ARC
8
DEFAULT_255_2_778
10
14.1691431
20
77.3869944
40
0.2997853
50
359.976134
51
45.0256554
0
ARC
8
DEFAULT_255_2_778
10
14.1691431
20
6.8866446
40
0.2997853
50
314.9743446
51
0.023866
0
ARC
8
DEFAULT_255_2_778
10
14.1690626
20
6.8865319
40
0.2997625
50
269.9552365
51
315.0004592
0
ARC
8
DEFAULT_255_2_778
10
10.4690092
20
80.6871154
40
2.0003827
50
187.1835875
51
238.0121756
0
ARC
8
DEFAULT_255_2_778
10
10.4688142
20
80.6866434
40
2.0001868
50
121.5938159
51
172.8162777
0
LINE
8
DEFAULT_255_2_778
10
0.3449284
20
82.0869695
11
0.3449284
21
81.5868695
0
LINE
8
DEFAULT_255_2_778
10
20.4688284
20
93.5870695
11
20.4688284
21
94.7869695
0
LINE
8
DEFAULT_255_2_778
10
20.4688284
20
94.7869695
11
20.4688284
21
5.3868695
0
LINE
8
DEFAULT_255_2_778
10
20.1688284
20
95.0869695
11
0.7688284
21
95.0869695
0
LINE
8
DEFAULT_255_2_778
10
4.4687284
20
6.8870695
11
4.4687284
21
77.3868695
0
LINE
8
DEFAULT_255_2_778
10
4.7687284
20
77.6868695
11
14.1688284
21
77.6868695
0
LINE
8
DEFAULT_255_2_778
10
14.4689284
20
77.3868695
11
14.4689284
21
6.8867695
0
LINE
8
DEFAULT_255_2_778
10
14.1688284
20
6.5867695
11
4.7687284
21
6.5867695
0
LINE
8
DEFAULT_255_2_778
10
13.4685284
20
78.9904695
11
13.4685284
21
79.2167695
0
LINE
8
DEFAULT_255_2_778
10
13.4685284
20
79.2167695
11
15.1161284
21
79.2167695
0
LINE
8
DEFAULT_255_2_778
10
15.5865284
20
79.6167695
11
13.4685284
21
79.6167695
0
LINE
8
DEFAULT_255_2_778
10
13.4685284
20
79.6167695
11
13.4685284
21
79.6868695
0
LINE
8
DEFAULT_255_2_778
10
13.4685284
20
81.6868695
11
13.4685284
21
81.7567695
0
LINE
8
DEFAULT_255_2_778
10
13.4685284
20
81.7567695
11
15.5926284
21
81.7567695
0
LINE
8
DEFAULT_255_2_778
10
15.1285284
20
82.1567695
11
13.4685284
21
82.1567695
0
LINE
8
DEFAULT_255_2_778
10
13.4685284
20
82.1567695
11
13.4685284
21
82.3903695
0
LINE
8
DEFAULT_255_2_778
10
16.0186284
20
5.0870695
11
16.0186284
21
1.7871695
0
LINE
8
DEFAULT_255_2_778
10
16.0186284
20
1.7871695
11
13.5185284
21
-0.2127305
0
LINE
8
DEFAULT_255_2_778
10
13.5185284
20
-0.2127305
11
6.5187284
21
-0.2127305
0
LINE
8
DEFAULT_255_2_778
10
6.5187284
20
-0.2127305
11
4.0186284
21
1.7871695
0
LINE
8
DEFAULT_255_2_778
10
4.0186284
20
1.7871695
11
4.0186284
21
2.5870695
0
ARC
8
DEFAULT_255_2_778
10
10.0118779
20
3.2844793
40
1.9933
50
179.9317062
51
204.3119945
0
ARC
8
DEFAULT_255_2_778
10
10.0203633
20
3.2893222
40
2.0030269
50
204.3383105
51
260.196385
0
ARC
8
DEFAULT_255_2_778
10
10.0179629
20
3.2999649
40
2.0131097
50
260.3152812
51
270.0175439
0
ARC
8
DEFAULT_255_2_778
10
10.0211386
20
3.2796674
40
1.9928139
50
269.9264183
51
294.3120318
0
ARC
8
DEFAULT_255_2_778
10
10.0159456
20
3.2886911
40
2.0031756
50
294.34113
51
350.1955271
0
ARC
8
DEFAULT_255_2_778
10
10.0049781
20
3.2864248
40
2.0136013
50
350.3122132
51
0.0122462
0
LINE
8
DEFAULT_255_2_778
10
12.0185793
20
3.2868552
11
14.5185793
21
3.2868552
0
LINE
8
DEFAULT_255_2_778
10
14.5185793
20
3.2868552
11
14.5185793
21
4.2869552
0
LINE
8
DEFAULT_255_2_778
10
14.5185793
20
4.2869552
11
5.5185793
21
4.2869552
0
LINE
8
DEFAULT_255_2_778
10
5.5185793
20
4.2869552
11
5.5185793
21
3.2868552
0
LINE
8
DEFAULT_255_2_778
10
5.5185793
20
3.2868552
11
8.0185793
21
3.2868552
0
LINE
8
DEFAULT_255_2_778
10
2.5689793
20
2.3867552
11
2.5689793
21
2.5867552
0
LINE
8
DEFAULT_255_2_778
10
2.9687793
20
2.3867552
11
2.9687793
21
2.5867552
0
LINE
8
DEFAULT_255_2_778
10
1.9689323
20
2.5868125
11
1.9689323
21
2.3868125
0
LINE
8
DEFAULT_255_2_778
10
1.9689323
20
2.3868125
11
3.5688323
21
2.3868125
0
LINE
8
DEFAULT_255_2_778
10
3.5688323
20
2.3868125
11
3.5688323
21
2.5868125
0
LINE
8
DEFAULT_255_2_778
10
4.5186459
20
2.986825
11
4.5186459
21
2.586825
0
LINE
8
DEFAULT_255_2_778
10
4.5186459
20
2.586825
11
1.0187459
21
2.586825
0
LINE
8
DEFAULT_255_2_778
10
1.0187459
20
2.586825
11
1.0187459
21
2.986825
0
LINE
8
DEFAULT_255_2_778
10
4.5186459
20
3.386925
11
4.5186459
21
2.986925
0
LINE
8
DEFAULT_255_2_778
10
4.5186459
20
2.986925
11
1.0187459
21
2.986925
0
LINE
8
DEFAULT_255_2_778
10
1.0187459
20
2.986925
11
1.0187459
21
3.386925
0
LINE
8
DEFAULT_255_2_778
10
4.5186459
20
3.786925
11
4.5186459
21
3.386925
0
LINE
8
DEFAULT_255_2_778
10
4.5186459
20
3.386925
11
1.0187459
21
3.386925
0
LINE
8
DEFAULT_255_2_778
10
1.0187459
20
3.386925
11
1.0187459
21
3.786925
0
LINE
8
DEFAULT_255_2_778
10
4.5186459
20
4.187025
11
4.5186459
21
3.787025
0
LINE
8
DEFAULT_255_2_778
10
4.5186459
20
3.787025
11
1.0187459
21
3.787025
0
LINE
8
DEFAULT_255_2_778
10
1.0187459
20
3.787025
11
1.0187459
21
4.187025
0
LINE
8
DEFAULT_255_2_778
10
4.5186459
20
5.0868956
11
4.5186459
21
4.1869956
0
LINE
8
DEFAULT_255_2_778
10
4.5186459
20
4.1869956
11
1.0187459
21
4.1869956
0
LINE
8
DEFAULT_255_2_778
10
1.0187459
20
4.1869956
11
1.0187459
21
5.0868956
0
LINE
8
DEFAULT_255_2_778
10
2.9687459
20
97.7867956
11
2.9687459
21
97.5867956
0
LINE
8
DEFAULT_255_2_778
10
2.5687168
20
97.7867572
11
2.5687168
21
97.5867572
0
LINE
8
DEFAULT_255_2_778
10
3.5686168
20
97.5867572
11
3.5686168
21
97.7867572
0
LINE
8
DEFAULT_255_2_778
10
3.5686168
20
97.7867572
11
1.9687168
21
97.7867572
0
LINE
8
DEFAULT_255_2_778
10
1.9687168
20
97.7867572
11
1.9687168
21
97.5867572
0
LINE
8
DEFAULT_255_2_778
10
1.0188168
20
97.1866572
11
1.0188168
21
97.5867572
0
LINE
8
DEFAULT_255_2_778
10
1.0188168
20
97.5867572
11
4.5187168
21
97.5867572
0
LINE
8
DEFAULT_255_2_778
10
4.5187168
20
97.5867572
11
4.5187168
21
97.1866572
0
LINE
8
DEFAULT_255_2_778
10
1.0188168
20
96.7866572
11
1.0188168
21
97.1866572
0
LINE
8
DEFAULT_255_2_778
10
1.0188168
20
97.1866572
11
4.5187168
21
97.1866572
0
LINE
8
DEFAULT_255_2_778
10
4.5187168
20
97.1866572
11
4.5187168
21
96.7866572
0
LINE
8
DEFAULT_255_2_778
10
1.0188168
20
96.3865572
11
1.0188168
21
96.7866572
0
LINE
8
DEFAULT_255_2_778
10
1.0188168
20
96.7866572
11
4.5187168
21
96.7866572
0
LINE
8
DEFAULT_255_2_778
10
4.5187168
20
96.7866572
11
4.5187168
21
96.3865572
0
LINE
8
DEFAULT_255_2_778
10
1.0188168
20
95.9867572
11
1.0188168
21
96.3865572
0
LINE
8
DEFAULT_255_2_778
10
1.0188168
20
96.3865572
11
4.5187168
21
96.3865572
0
LINE
8
DEFAULT_255_2_778
10
4.5187168
20
96.3865572
11
4.5187168
21
95.9867572
0
LINE
8
DEFAULT_255_2_778
10
1.0188168
20
95.0866572
11
1.0188168
21
95.9867572
0
LINE
8
DEFAULT_255_2_778
10
1.0188168
20
95.9867572
11
4.5187168
21
95.9867572
0
LINE
8
DEFAULT_255_2_778
10
4.5187168
20
95.9867572
11
4.5187168
21
95.0866572
0
LINE
8
DEFAULT_255_2_778
10
12.8436168
20
69.2472572
11
12.8436168
21
14.9269572
0
LINE
8
DEFAULT_255_2_778
10
12.8436168
20
14.9269572
11
6.8436168
21
15.9270572
0
LINE
8
DEFAULT_255_2_778
10
6.8436168
20
15.9270572
11
6.8436168
21
68.2470572
0
LINE
8
DEFAULT_255_2_778
10
6.8436168
20
68.2470572
11
12.8436168
21
69.2472572
0
LINE
8
DEFAULT_255_2_778
10
5.7186168
20
12.8470572
11
5.7186168
21
71.3268572
0
LINE
8
DEFAULT_255_2_778
10
5.7186168
20
71.3268572
11
13.9686168
21
71.3268572
0
LINE
8
DEFAULT_255_2_778
10
13.9686168
20
71.3268572
11
5.7186168
21
71.3268572
0
LINE
8
DEFAULT_255_2_778
10
5.7186168
20
71.3268572
11
5.7186168
21
12.8470572
0
LINE
8
DEFAULT_255_2_778
10
5.7186168
20
12.8470572
11
13.9686168
21
12.8470572
0
LINE
8
DEFAULT_255_2_778
10
5.9691595
20
71.3268405
11
5.9691595
21
76.8269405
0
LINE
8
DEFAULT_255_2_778
10
5.9691595
20
76.8269405
11
13.9688595
21
76.8269405
0
LINE
8
DEFAULT_255_2_778
10
13.9688595
20
76.8269405
11
13.9688595
21
7.3468405
0
LINE
8
DEFAULT_255_2_778
10
13.9688595
20
7.3468405
11
5.9691595
21
7.3468405
0
LINE
8
DEFAULT_255_2_778
10
5.9691595
20
7.3468405
11
5.9691595
21
12.8470405
0
LINE
8
DEFAULT_255_2_778
10
7.4685595
20
79.6868405
11
7.4685595
21
78.9904405
0
LINE
8
DEFAULT_255_2_778
10
7.4685595
20
82.3903405
11
7.4685595
21
81.6868405
0
LINE
8
DEFAULT_255_2_778
10
11.5185595
20
81.6368405
11
10.4686595
21
81.6368405
0
LINE
8
DEFAULT_255_2_778
10
11.5185595
20
79.7368405
11
10.4686595
21
79.7368405
0
LINE
8
DEFAULT_255_2_778
10
5.3685595
20
90.1868405
11
5.3685595
21
90.9869405
0
LINE
8
DEFAULT_255_2_778
10
5.3685595
20
90.9869405
11
6.5686595
21
90.9869405
0
LINE
8
DEFAULT_255_2_778
10
6.5686595
20
90.9869405
11
6.5686595
21
90.1868405
0
LINE
8
DEFAULT_255_2_778
10
6.5686595
20
90.1868405
11
5.3685595
21
90.1868405
0
LINE
8
DEFAULT_255_2_778
10
5.3685595
20
85.3867405
11
5.3685595
21
86.1868405
0
LINE
8
DEFAULT_255_2_778
10
5.3685595
20
86.1868405
11
6.5686595
21
86.1868405
0
LINE
8
DEFAULT_255_2_778
10
6.5686595
20
86.1868405
11
6.5686595
21
85.3867405
0
LINE
8
DEFAULT_255_2_778
10
6.5686595
20
85.3867405
11
5.3685595
21
85.3867405
0
LINE
8
DEFAULT_255_2_778
10
5.368525
20
86.9870177
11
5.368525
21
87.7868177
0
LINE
8
DEFAULT_255_2_778
10
5.368525
20
87.7868177
11
6.568625
21
87.7868177
0
LINE
8
DEFAULT_255_2_778
10
6.568625
20
87.7868177
11
6.568625
21
86.9870177
0
LINE
8
DEFAULT_255_2_778
10
6.568625
20
86.9870177
11
5.368525
21
86.9870177
0
LINE
8
DEFAULT_255_2_778
10
5.368525
20
88.5870177
11
5.368525
21
89.3868177
0
LINE
8
DEFAULT_255_2_778
10
5.368525
20
89.3868177
11
6.568625
21
89.3868177
0
LINE
8
DEFAULT_255_2_778
10
6.568625
20
89.3868177
11
6.568625
21
88.5870177
0
LINE
8
DEFAULT_255_2_778
10
6.568625
20
88.5870177
11
5.368525
21
88.5870177
0
LINE
8
DEFAULT_255_2_778
10
8.368325
20
86.9870177
11
8.368325
21
87.7868177
0
LINE
8
DEFAULT_255_2_778
10
8.368325
20
87.7868177
11
9.568425
21
87.7868177
0
LINE
8
DEFAULT_255_2_778
10
9.568425
20
87.7868177
11
9.568425
21
86.9870177
0
LINE
8
DEFAULT_255_2_778
10
9.568425
20
86.9870177
11
8.368325
21
86.9870177
0
LINE
8
DEFAULT_255_2_778
10
8.368325
20
88.5870177
11
8.368325
21
89.3868177
0
LINE
8
DEFAULT_255_2_778
10
8.368325
20
89.3868177
11
9.568425
21
89.3868177
0
LINE
8
DEFAULT_255_2_778
10
9.568425
20
89.3868177
11
9.568425
21
88.5870177
0
LINE
8
DEFAULT_255_2_778
10
9.568425
20
88.5870177
11
8.368325
21
88.5870177
0
LINE
8
DEFAULT_255_2_778
10
8.3683699
20
90.1868853
11
8.3683699
21
90.9869853
0
LINE
8
DEFAULT_255_2_778
10
8.3683699
20
90.9869853
11
9.5684699
21
90.9869853
0
LINE
8
DEFAULT_255_2_778
10
9.5684699
20
90.9869853
11
9.5684699
21
90.1868853
0
LINE
8
DEFAULT_255_2_778
10
9.5684699
20
90.1868853
11
8.3683699
21
90.1868853
0
LINE
8
DEFAULT_255_2_778
10
8.3683699
20
85.3867853
11
8.3683699
21
86.1868853
0
LINE
8
DEFAULT_255_2_778
10
8.3683699
20
86.1868853
11
9.5684699
21
86.1868853
0
LINE
8
DEFAULT_255_2_778
10
9.5684699
20
86.1868853
11
9.5684699
21
85.3867853
0
LINE
8
DEFAULT_255_2_778
10
9.5684699
20
85.3867853
11
8.3683699
21
85.3867853
0
LINE
8
DEFAULT_255_2_778
10
11.3684699
20
90.1868853
11
11.3684699
21
90.9869853
0
LINE
8
DEFAULT_255_2_778
10
11.3684699
20
90.9869853
11
12.5686699
21
90.9869853
0
LINE
8
DEFAULT_255_2_778
10
12.5686699
20
90.9869853
11
12.5686699
21
90.1868853
0
LINE
8
DEFAULT_255_2_778
10
12.5686699
20
90.1868853
11
11.3684699
21
90.1868853
0
LINE
8
DEFAULT_255_2_778
10
11.3684699
20
85.3867853
11
11.3684699
21
86.1868853
0
LINE
8
DEFAULT_255_2_778
10
11.3684699
20
86.1868853
11
12.5686699
21
86.1868853
0
LINE
8
DEFAULT_255_2_778
10
12.5686699
20
86.1868853
11
12.5686699
21
85.3867853
0
LINE
8
DEFAULT_255_2_778
10
12.5686699
20
85.3867853
11
11.3684699
21
85.3867853
0
LINE
8
DEFAULT_255_2_778
10
11.3684699
20
88.5869853
11
11.3684699
21
89.3867853
0
LINE
8
DEFAULT_255_2_778
10
11.3684699
20
89.3867853
11
12.5686699
21
89.3867853
0
LINE
8
DEFAULT_255_2_778
10
12.5686699
20
89.3867853
11
12.5686699
21
88.5869853
0
LINE
8
DEFAULT_255_2_778
10
12.5686699
20
88.5869853
11
11.3684699
21
88.5869853
0
LINE
8
DEFAULT_255_2_778
10
11.3684699
20
86.9869853
11
11.3684699
21
87.7868853
0
LINE
8
DEFAULT_255_2_778
10
11.3684699
20
87.7868853
11
12.5686699
21
87.7868853
0
LINE
8
DEFAULT_255_2_778
10
12.5686699
20
87.7868853
11
12.5686699
21
86.9869853
0
LINE
8
DEFAULT_255_2_778
10
12.5686699
20
86.9869853
11
11.3684699
21
86.9869853
0
LINE
8
DEFAULT_255_2_778
10
14.368625
20
86.9870177
11
14.368625
21
87.7868177
0
LINE
8
DEFAULT_255_2_778
10
14.368625
20
87.7868177
11
15.568725
21
87.7868177
0
LINE
8
DEFAULT_255_2_778
10
15.568725
20
87.7868177
11
15.568725
21
86.9870177
0
LINE
8
DEFAULT_255_2_778
10
15.568725
20
86.9870177
11
14.368625
21
86.9870177
0
LINE
8
DEFAULT_255_2_778
10
14.368625
20
90.1868853
11
14.368625
21
90.9869853
0
LINE
8
DEFAULT_255_2_778
10
14.368625
20
90.9869853
11
15.568725
21
90.9869853
0
LINE
8
DEFAULT_255_2_778
10
15.568725
20
90.9869853
11
15.568725
21
90.1868853
0
LINE
8
DEFAULT_255_2_778
10
15.568725
20
90.1868853
11
14.368625
21
90.1868853
0
LINE
8
DEFAULT_255_2_778
10
14.368625
20
85.3867853
11
14.368625
21
86.1868853
0
LINE
8
DEFAULT_255_2_778
10
14.368625
20
86.1868853
11
15.568725
21
86.1868853
0
LINE
8
DEFAULT_255_2_778
10
15.568725
20
86.1868853
11
15.568725
21
85.3867853
0
LINE
8
DEFAULT_255_2_778
10
15.568725
20
85.3867853
11
14.368625
21
85.3867853
0
LINE
8
DEFAULT_255_2_778
10
14.368625
20
88.5870177
11
14.368625
21
89.3868177
0
LINE
8
DEFAULT_255_2_778
10
14.368625
20
89.3868177
11
15.568725
21
89.3868177
0
LINE
8
DEFAULT_255_2_778
10
15.568725
20
89.3868177
11
15.568725
21
88.5870177
0
LINE
8
DEFAULT_255_2_778
10
15.568725
20
88.5870177
11
14.368625
21
88.5870177
0
ARC
8
DEFAULT_255_2_778
10
9.4662967
20
74.0798955
40
1.297198
50
148.2770855
51
180.1324007
0
ARC
8
DEFAULT_255_2_778
10
9.4654449
20
74.0804122
40
1.2962017
50
97.0226393
51
148.276717
0
ARC
8
DEFAULT_255_2_778
10
9.4686539
20
74.0526442
40
1.3241537
50
89.9849309
51
97.0135513
0
ARC
8
DEFAULT_255_2_778
10
9.4719997
20
74.0796033
40
1.297198
50
58.2770855
51
90.1324007
0
ARC
8
DEFAULT_255_2_778
10
9.4725165
20
74.0804551
40
1.2962017
50
7.0226393
51
58.276717
0
ARC
8
DEFAULT_255_2_778
10
9.4447484
20
74.0772461
40
1.3241537
50
359.9849309
51
7.0135513
0
ARC
8
DEFAULT_255_2_778
10
9.4717076
20
74.0739003
40
1.297198
50
328.2770855
51
0.1324007
0
ARC
8
DEFAULT_255_2_778
10
9.4725594
20
74.0733835
40
1.2962017
50
277.0226393
51
328.276717
0
ARC
8
DEFAULT_255_2_778
10
9.4693504
20
74.1011516
40
1.3241537
50
269.9849309
51
277.0135513
0
ARC
8
DEFAULT_255_2_778
10
9.4660045
20
74.0741924
40
1.297198
50
238.2770855
51
270.1324007
0
ARC
8
DEFAULT_255_2_778
10
9.4654878
20
74.0733406
40
1.2962017
50
187.0226393
51
238.276717
0
ARC
8
DEFAULT_255_2_778
10
9.4932558
20
74.0765496
40
1.3241537
50
179.9849309
51
187.0135513
0
LINE
8
DEFAULT_255_2_778
10
8.1691021
20
74.0768979
11
8.1691021
21
74.0768979
0
ARC
8
DEFAULT_255_2_778
10
9.465833
20
74.079655
40
1.1467155
50
145.3212297
51
180.1386974
0
ARC
8
DEFAULT_255_2_778
10
9.4658836
20
74.0801461
40
1.1464777
50
95.3099268
51
145.3428517
0
ARC
8
DEFAULT_255_2_778
10
9.4688346
20
74.0526849
40
1.1740943
50
89.9909081
51
95.3292962
0
ARC
8
DEFAULT_255_2_778
10
9.4717164
20
74.0802361
40
1.1465462
50
54.973098
51
90.1347026
0
ARC
8
DEFAULT_255_2_778
10
9.4721964
20
74.0798575
40
1.1465809
50
5.2831621
51
55.0035975
0
ARC
8
DEFAULT_255_2_778
10
9.4454272
20
74.0770645
40
1.1734936
50
359.9909512
51
5.2986083
0
ARC
8
DEFAULT_255_2_778
10
9.4724493
20
74.0742004
40
1.1464747
50
324.9695739
51
0.1338727
0
ARC
8
DEFAULT_255_2_778
10
9.4719209
20
74.0737886
40
1.1466712
50
275.285908
51
325.0015767
0
ARC
8
DEFAULT_255_2_778
10
9.4692053
20
74.1001615
40
1.1731823
50
269.9909948
51
275.2993129
0
ARC
8
DEFAULT_255_2_778
10
9.4663105
20
74.0734889
40
1.1465129
50
234.9701745
51
270.1354455
0
ARC
8
DEFAULT_255_2_778
10
9.4658872
20
74.0739211
40
1.146624
50
185.2832144
51
234.9998909
0
ARC
8
DEFAULT_255_2_778
10
9.4925837
20
74.0766969
40
1.1734628
50
179.9911041
51
185.2981504
0
LINE
8
DEFAULT_255_2_778
10
8.3191209
20
74.0768791
11
8.3191209
21
74.0768791
0
LINE
8
DEFAULT_255_2_778
10
12.9689
20
71.3267791
11
12.9689
21
76.8269791
0
ARC
8
DEFAULT_255_2_778
10
9.4662967
20
10.0999955
40
1.297198
50
148.2770855
51
180.1324007
0
ARC
8
DEFAULT_255_2_778
10
9.4654449
20
10.1005122
40
1.2962017
50
97.0226393
51
148.276717
0
ARC
8
DEFAULT_255_2_778
10
9.4686539
20
10.0727442
40
1.3241537
50
89.9849309
51
97.0135513
0
ARC
8
DEFAULT_255_2_778
10
9.4719997
20
10.0997033
40
1.297198
50
58.2770855
51
90.1324007
0
ARC
8
DEFAULT_255_2_778
10
9.4725165
20
10.1005551
40
1.2962017
50
7.0226393
51
58.276717
0
ARC
8
DEFAULT_255_2_778
10
9.4447484
20
10.0973461
40
1.3241537
50
359.9849309
51
7.0135513
0
ARC
8
DEFAULT_255_2_778
10
9.4717076
20
10.0940003
40
1.297198
50
328.2770855
51
0.1324007
0
ARC
8
DEFAULT_255_2_778
10
9.4725594
20
10.0934835
40
1.2962017
50
277.0226393
51
328.276717
0
ARC
8
DEFAULT_255_2_778
10
9.4693504
20
10.1212516
40
1.3241537
50
269.9849309
51
277.0135513
0
ARC
8
DEFAULT_255_2_778
10
9.4660045
20
10.0942924
40
1.297198
50
238.2770855
51
270.1324007
0
ARC
8
DEFAULT_255_2_778
10
9.4654878
20
10.0934406
40
1.2962017
50
187.0226393
51
238.276717
0
ARC
8
DEFAULT_255_2_778
10
9.4932558
20
10.0966496
40
1.3241537
50
179.9849309
51
187.0135513
0
LINE
8
DEFAULT_255_2_778
10
8.1691021
20
10.0969979
11
8.1691021
21
10.0969979
0
ARC
8
DEFAULT_255_2_778
10
9.465833
20
10.099755
40
1.1467155
50
145.3212297
51
180.1386974
0
ARC
8
DEFAULT_255_2_778
10
9.4658836
20
10.1002461
40
1.1464777
50
95.3099268
51
145.3428517
0
ARC
8
DEFAULT_255_2_778
10
9.4688346
20
10.0727849
40
1.1740943
50
89.9909081
51
95.3292962
0
ARC
8
DEFAULT_255_2_778
10
9.4717164
20
10.1003361
40
1.1465462
50
54.973098
51
90.1347026
0
ARC
8
DEFAULT_255_2_778
10
9.4721964
20
10.0999575
40
1.1465809
50
5.2831621
51
55.0035975
0
ARC
8
DEFAULT_255_2_778
10
9.4454272
20
10.0971645
40
1.1734936
50
359.9909512
51
5.2986083
0
ARC
8
DEFAULT_255_2_778
10
9.4724493
20
10.0943004
40
1.1464747
50
324.9695739
51
0.1338727
0
ARC
8
DEFAULT_255_2_778
10
9.4719209
20
10.0938886
40
1.1466712
50
275.285908
51
325.0015767
0
ARC
8
DEFAULT_255_2_778
10
9.4692053
20
10.1202615
40
1.1731823
50
269.9909948
51
275.2993129
0
ARC
8
DEFAULT_255_2_778
10
9.4663105
20
10.0935889
40
1.1465129
50
234.9701745
51
270.1354455
0
ARC
8
DEFAULT_255_2_778
10
9.4658872
20
10.0940211
40
1.146624
50
185.2832144
51
234.9998909
0
ARC
8
DEFAULT_255_2_778
10
9.4925837
20
10.0967969
40
1.1734628
50
179.9911041
51
185.2981504
0
LINE
8
DEFAULT_255_2_778
10
8.3191209
20
10.0969791
11
8.3191209
21
10.0969791
0
ARC
8
DEFAULT_255_2_778
10
10.468093
20
80.6869836
40
2.0003236
50
301.9967094
51
0.0026851
0
ARC
8
DEFAULT_255_2_778
10
10.4789669
20
80.6870765
40
1.9894497
50
0.0000229
51
0.1922554
0
ARC
8
DEFAULT_255_2_778
10
10.468125
20
80.6868449
40
2.0002925
50
0.1978476
51
58.3947687
0
LINE
8
DEFAULT_255_2_778
10
12.9690055
20
12.8471521
11
12.9690055
21
7.3469521
0
ARC
8
DEFAULT_255_2_778
10
14.2688213
20
80.6910702
40
1.69931
50
29.9826772
51
90.0066632
0
ARC
8
DEFAULT_255_2_778
10
14.2684096
20
80.6903212
40
1.7000409
50
3.0128079
51
29.997606
0
ARC
8
DEFAULT_255_2_778
10
14.2661635
20
80.6900599
40
1.7022977
50
0.0074124
51
3.0176166
0
LINE
8
DEFAULT_255_2_778
10
15.9684612
20
80.6902802
11
15.9684612
21
80.6900627
0
ARC
8
DEFAULT_255_2_778
10
14.2705738
20
80.6896877
40
1.6978874
50
331.0612434
51
0.0126536
0
ARC
8
DEFAULT_255_2_778
10
14.2655811
20
80.6922938
40
1.7035178
50
329.9901076
51
331.0657904
0
ARC
8
DEFAULT_255_2_778
10
14.2682804
20
80.6904272
40
1.7002469
50
270.0115701
51
329.9990808
0
ARC
8
DEFAULT_255_2_778
10
6.6658732
20
80.6828538
40
1.6926755
50
242.8879338
51
270.0863328
0
ARC
8
DEFAULT_255_2_778
10
6.6698956
20
80.6909482
40
1.7017136
50
188.7741742
51
242.8915878
0
ARC
8
DEFAULT_255_2_778
10
6.6819631
20
80.6896152
40
1.7134394
50
179.9811083
51
188.6685677
0
ARC
8
DEFAULT_255_2_778
10
6.6609328
20
80.6926676
40
1.6924109
50
152.885974
51
180.0842119
0
ARC
8
DEFAULT_255_2_778
10
6.669498
20
80.6885363
40
1.7019176
50
98.7520718
51
152.8935964
0
ARC
8
DEFAULT_255_2_778
10
6.6678655
20
80.6774919
40
1.7125883
50
89.9813234
51
98.6418684
0
LINE
8
DEFAULT_255_2_778
10
14.2686237
20
78.9901802
11
6.6684237
21
78.9901802
0
LINE
8
DEFAULT_255_2_778
10
6.6684237
20
82.3900802
11
14.2683237
21
82.3900802
0
ARC
8
DEFAULT_255_2_778
10
11.5184531
20
80.6870615
40
0.9498613
50
120.0021364
51
180.0008236
0
ARC
8
DEFAULT_255_2_778
10
11.5182811
20
80.6877037
40
0.9492192
50
89.9902995
51
120.0125249
0
ARC
8
DEFAULT_255_2_778
10
11.5186025
20
80.6877037
40
0.9492192
50
59.9874751
51
90.0097005
0
ARC
8
DEFAULT_255_2_778
10
11.5186404
20
80.6871828
40
0.9496513
50
359.9918603
51
60.0051789
0
ARC
8
DEFAULT_255_2_778
10
11.5183985
20
80.6870526
40
0.9498933
50
300.0032505
51
359.9997122
0
ARC
8
DEFAULT_255_2_778
10
11.5186025
20
80.686392
40
0.9492192
50
269.9902995
51
300.0125249
0
ARC
8
DEFAULT_255_2_778
10
11.5182811
20
80.686392
40
0.9492192
50
239.9874751
51
270.0097005
0
ARC
8
DEFAULT_255_2_778
10
11.5186956
20
80.6871742
40
0.9501038
50
180.0076187
51
239.9894212
0
LINE
8
DEFAULT_255_2_778
10
7.9685918
20
78.9905479
11
7.9685918
21
82.3904479
0
LINE
8
DEFAULT_255_2_778
10
6.9686918
20
78.9905479
11
6.9686918
21
82.3904479
0
LINE
8
DEFAULT_255_2_778
10
12.9686918
20
78.9905479
11
12.9686918
21
82.3904479
0
LINE
8
DEFAULT_255_2_778
10
13.9684918
20
78.9905479
11
13.9684918
21
82.3904479
0
LINE
8
DEFAULT_255_2_778
10
10.5685918
20
80.6870479
11
10.5685918
21
80.6870479
0
ARC
8
DEFAULT_255_2_778
10
10.4674125
20
80.6900148
40
0.9468887
50
89.9245449
51
134.2161869
0
ARC
8
DEFAULT_255_2_778
10
10.4657883
20
80.6881227
40
0.9471154
50
134.0659437
51
179.316464
0
ARC
8
DEFAULT_255_2_778
10
10.4870457
20
80.6869121
40
0.9683862
50
179.2598468
51
180.0005555
0
ARC
8
DEFAULT_255_2_778
10
10.465475
20
80.6856309
40
0.9468164
50
179.9230368
51
224.0489544
0
ARC
8
DEFAULT_255_2_778
10
10.4674673
20
80.6841091
40
0.9471934
50
223.899002
51
269.3120857
0
ARC
8
DEFAULT_255_2_778
10
10.4686655
20
80.7075481
40
0.9706454
50
269.2579718
51
269.9996443
0
ARC
8
DEFAULT_255_2_778
10
10.4678496
20
50.3880128
40
0.4989912
50
89.8725621
51
180.1159799
0
ARC
8
DEFAULT_255_2_778
10
10.4700546
20
50.3880978
40
0.4989061
50
359.8742308
51
90.1257692
0
ARC
8
DEFAULT_255_2_778
10
10.4700334
20
50.385829
40
0.4989275
50
269.8766725
51
0.1347798
0
ARC
8
DEFAULT_255_2_778
10
10.4678708
20
50.3859141
40
0.4990126
50
179.8750082
51
270.1249976
0
LINE
8
DEFAULT_255_2_778
10
13.9688595
20
79.6869027
11
13.2187595
21
79.6869027
0
LINE
8
DEFAULT_255_2_778
10
13.2187595
20
79.6869027
11
13.2187595
21
81.6869027
0
LINE
8
DEFAULT_255_2_778
10
13.2187595
20
81.6869027
11
13.9688595
21
81.6869027
0
LINE
8
DEFAULT_255_2_778
10
8.4842595
20
80.9368027
11
8.7187595
21
80.9368027
0
LINE
8
DEFAULT_255_2_778
10
8.7187595
20
80.9368027
11
8.7187595
21
80.4367027
0
LINE
8
DEFAULT_255_2_778
10
8.7187595
20
80.4367027
11
8.4842595
21
80.4367027
0
LINE
8
DEFAULT_255_2_778
10
6.9687595
20
79.6869027
11
7.7188595
21
79.6869027
0
LINE
8
DEFAULT_255_2_778
10
7.7188595
20
79.6869027
11
7.7188595
21
81.6869027
0
LINE
8
DEFAULT_255_2_778
10
7.7188595
20
81.6869027
11
6.9687595
21
81.6869027
0
LINE
8
DEFAULT_255_2_778
10
9.9688595
20
50.3870027
11
9.9688595
21
50.3870027
0
ARC
8
DEFAULT_255_2_778
10
0.7688503
20
5.3869582
40
0.3001094
50
180.0208901
51
269.9791099
0
ARC
8
DEFAULT_255_2_778
10
20.1689312
20
5.386959
40
0.3001102
50
269.9827635
51
314.9729322
0
ARC
8
DEFAULT_255_2_778
10
20.1687328
20
5.3867575
40
0.3001081
50
315.0269039
51
0.0174139
0
LINE
8
DEFAULT_255_2_778
10
0.4687409
20
94.7869488
11
0.4687409
21
5.3868488
0
LINE
8
DEFAULT_255_2_778
10
0.7687409
20
5.0868488
11
20.1688409
21
5.0868488
0
ENDSEC
0
EOF