0
SECTION
2
HEADER
9
$MEASUREMENT
70
1
0
ENDSEC
0
SECTION
2
TABLES
0
TABLE
2
LTYPE
0
LTYPE
72
65
70
64
2
CONTINUOUS
3
______
73
0
40
0
0
ENDTAB
0
TABLE
2
LAYER
0
LAYER
2
DEFAULT_255_2_778
70
0
62
255
6
CONTINUOUS
0
ENDTAB
0
ENDSEC
0
SECTION
2
ENTITIES
0
ARC
8
DEFAULT_255_2_778
10
0.3262264
20
94.9377308
40
0.1500547
50
90.0208901
51
179.9791099
0
ARC
8
DEFAULT_255_2_778
10
62.0256234
20
92.5873399
40
0.5004456
50
53.1471312
51
89.9944652
0
LINE
8
DEFAULT_255_2_778
10
28.0883717
20
95.0875855
11
28.0883717
21
95.9876855
0
LINE
8
DEFAULT_255_2_778
10
28.0883717
20
95.9876855
11
28.8882717
21
95.9876855
0
LINE
8
DEFAULT_255_2_778
10
28.8882717
20
95.9876855
11
28.8882717
21
96.3874855
0
LINE
8
DEFAULT_255_2_778
10
28.8882717
20
96.3874855
11
29.8883717
21
96.3874855
0
LINE
8
DEFAULT_255_2_778
10
29.8883717
20
96.3874855
11
29.8883717
21
96.7874855
0
LINE
8
DEFAULT_255_2_778
10
29.8883717
20
96.7874855
11
31.0884717
21
96.7874855
0
LINE
8
DEFAULT_255_2_778
10
31.0884717
20
96.7874855
11
31.0884717
21
97.1875855
0
LINE
8
DEFAULT_255_2_778
10
31.0884717
20
97.1875855
11
32.5884717
21
97.1875855
0
LINE
8
DEFAULT_255_2_778
10
32.5884717
20
97.1875855
11
32.5884717
21
97.5875855
0
LINE
8
DEFAULT_255_2_778
10
32.5884717
20
97.5875855
11
37.5884717
21
97.5875855
0
LINE
8
DEFAULT_255_2_778
10
37.5884717
20
97.5875855
11
37.5884717
21
97.1875855
0
LINE
8
DEFAULT_255_2_778
10
37.5884717
20
97.1875855
11
39.0884717
21
97.1875855
0
LINE
8
DEFAULT_255_2_778
10
39.0884717
20
97.1875855
11
39.0884717
21
96.7874855
0
LINE
8
DEFAULT_255_2_778
10
39.0884717
20
96.7874855
11
40.2883717
21
96.7874855
0
LINE
8
DEFAULT_255_2_778
10
40.2883717
20
96.7874855
11
40.2883717
21
96.3874855
0
LINE
8
DEFAULT_255_2_778
10
40.2883717
20
96.3874855
11
41.2884717
21
96.3874855
0
LINE
8
DEFAULT_255_2_778
10
41.2884717
20
96.3874855
11
41.2884717
21
95.9876855
0
LINE
8
DEFAULT_255_2_778
10
41.2884717
20
95.9876855
11
42.0885717
21
95.9876855
0
LINE
8
DEFAULT_255_2_778
10
42.0885717
20
95.9876855
11
42.0885717
21
95.0875855
0
LINE
8
DEFAULT_255_2_778
10
64.8760717
20
95.0877855
11
0.3261717
21
95.0877855
0
LINE
8
DEFAULT_255_2_778
10
7.3757717
20
82.8875855
11
8.5758717
21
82.8875855
0
LINE
8
DEFAULT_255_2_778
10
8.5758717
20
82.8875855
11
8.5758717
21
74.8876855
0
LINE
8
DEFAULT_255_2_778
10
8.5758717
20
74.8876855
11
7.3757717
21
74.8876855
0
LINE
8
DEFAULT_255_2_778
10
7.3757717
20
63.6875855
11
8.5758717
21
63.6875855
0
LINE
8
DEFAULT_255_2_778
10
8.5758717
20
63.6875855
11
8.5758717
21
55.6876855
0
LINE
8
DEFAULT_255_2_778
10
8.5758717
20
55.6876855
11
7.3757717
21
55.6876855
0
LINE
8
DEFAULT_255_2_778
10
61.1758717
20
64.0074855
11
61.1758717
21
68.0875855
0
LINE
8
DEFAULT_255_2_778
10
61.1758717
20
32.6876855
11
61.1758717
21
61.9677855
0
LINE
8
DEFAULT_255_2_778
10
65.1758717
20
68.0875855
11
65.1758717
21
70.5876855
0
LINE
8
DEFAULT_255_2_778
10
65.1758717
20
70.5876855
11
65.0257717
21
70.5876855
0
LINE
8
DEFAULT_255_2_778
10
62.0256717
20
93.0877855
11
65.1758717
21
93.0877855
0
LINE
8
DEFAULT_255_2_778
10
65.1758717
20
93.0877855
11
65.1758717
21
94.7877855
0
LINE
8
DEFAULT_255_2_778
10
61.1758717
20
32.6876855
11
62.6757717
21
32.6876855
0
LINE
8
DEFAULT_255_2_778
10
62.6757717
20
32.6876855
11
65.1758717
21
32.1875855
0
LINE
8
DEFAULT_255_2_778
10
30.8757717
20
95.0877855
11
29.8756717
21
93.0877855
0
LINE
8
DEFAULT_255_2_778
10
29.8756717
20
93.0877855
11
16.8758717
21
93.0877855
0
LINE
8
DEFAULT_255_2_778
10
16.8758717
20
93.0877855
11
15.8757717
21
95.0877855
0
LINE
8
DEFAULT_255_2_778
10
29.876017
20
95.0878675
11
29.876017
21
93.0878675
0
LINE
8
DEFAULT_255_2_778
10
16.875917
20
95.0878675
11
16.875917
21
93.0878675
0
LINE
8
DEFAULT_255_2_778
10
14.875117
20
5.0877675
11
14.875117
21
7.9878675
0
LINE
8
DEFAULT_255_2_778
10
14.875117
20
7.9878675
11
8.075917
21
7.9878675
0
LINE
8
DEFAULT_255_2_778
10
8.075917
20
7.9878675
11
8.075917
21
7.8878675
0
LINE
8
DEFAULT_255_2_778
10
8.075917
20
7.9878675
11
7.375817
21
8.6879675
0
LINE
8
DEFAULT_255_2_778
10
14.8751279
20
95.0878103
11
14.8751279
21
92.1880103
0
LINE
8
DEFAULT_255_2_778
10
14.8751279
20
92.1880103
11
8.0759279
21
92.1880103
0
LINE
8
DEFAULT_255_2_778
10
8.0759279
20
92.1880103
11
7.3758279
21
91.4879103
0
LINE
8
DEFAULT_255_2_778
10
61.3757279
20
93.0878103
11
61.3757279
21
92.6875103
0
LINE
8
DEFAULT_255_2_778
10
61.3757279
20
70.9877103
11
61.3757279
21
70.5876103
0
LINE
8
DEFAULT_255_2_778
10
60.6258279
20
70.5876103
11
65.1759279
21
70.5876103
0
LINE
8
DEFAULT_255_2_778
10
65.1761279
20
68.0876103
11
61.1762279
21
68.0876103
0
LINE
8
DEFAULT_255_2_778
10
48.1759279
20
45.5877103
11
45.7261279
21
45.5877103
0
LINE
8
DEFAULT_255_2_778
10
45.7261279
20
45.5877103
11
45.7261279
21
42.8876103
0
LINE
8
DEFAULT_255_2_778
10
45.7261279
20
42.8876103
11
46.9760279
21
42.8876103
0
LINE
8
DEFAULT_255_2_778
10
52.6759279
20
42.8876103
11
53.9258279
21
42.8876103
0
LINE
8
DEFAULT_255_2_778
10
53.9258279
20
42.8876103
11
53.9258279
21
45.5877103
0
LINE
8
DEFAULT_255_2_778
10
53.9258279
20
45.5877103
11
51.4760279
21
45.5877103
0
LINE
8
DEFAULT_255_2_778
10
51.4760279
20
16.6375103
11
51.4760279
21
14.9876103
0
LINE
8
DEFAULT_255_2_778
10
51.4760279
20
14.9876103
11
48.1759279
21
14.9876103
0
LINE
8
DEFAULT_255_2_778
10
48.1759279
20
14.9876103
11
48.1759279
21
16.6375103
0
LINE
8
DEFAULT_255_2_778
10
48.1759279
20
16.6375103
11
51.4760279
21
16.6375103
0
LINE
8
DEFAULT_255_2_778
10
51.4760279
20
45.7877103
11
51.4760279
21
44.1378103
0
LINE
8
DEFAULT_255_2_778
10
51.4760279
20
44.1378103
11
48.1759279
21
44.1378103
0
LINE
8
DEFAULT_255_2_778
10
48.1759279
20
44.1378103
11
48.1759279
21
45.7877103
0
LINE
8
DEFAULT_255_2_778
10
48.1759279
20
45.7877103
11
51.4760279
21
45.7877103
0
LINE
8
DEFAULT_255_2_778
10
52.6759279
20
42.2876103
11
54.0261279
21
42.2876103
0
LINE
8
DEFAULT_255_2_778
10
54.0261279
20
42.2876103
11
54.0261279
21
18.4875103
0
LINE
8
DEFAULT_255_2_778
10
54.0261279
20
18.4875103
11
52.6759279
21
18.4875103
0
LINE
8
DEFAULT_255_2_778
10
52.6759279
20
18.4875103
11
52.6759279
21
43.3874103
0
LINE
8
DEFAULT_255_2_778
10
52.6759279
20
43.3874103
11
46.9760279
21
43.3874103
0
LINE
8
DEFAULT_255_2_778
10
46.9760279
20
43.3874103
11
46.9760279
21
17.3876103
0
LINE
8
DEFAULT_255_2_778
10
48.175912
20
15.1875914
11
45.726112
21
15.1875914
0
LINE
8
DEFAULT_255_2_778
10
45.726112
20
15.1875914
11
45.726112
21
17.8876914
0
LINE
8
DEFAULT_255_2_778
10
45.726112
20
17.8876914
11
46.976212
21
17.8876914
0
LINE
8
DEFAULT_255_2_778
10
52.675912
20
17.8876914
11
53.925812
21
17.8876914
0
LINE
8
DEFAULT_255_2_778
10
53.925812
20
17.8876914
11
53.925812
21
15.1875914
0
LINE
8
DEFAULT_255_2_778
10
53.925812
20
15.1875914
11
51.476012
21
15.1875914
0
LINE
8
DEFAULT_255_2_778
10
52.675612
20
18.4874914
11
52.675612
21
17.3875914
0
LINE
8
DEFAULT_255_2_778
10
52.675612
20
17.3875914
11
46.975712
21
17.3875914
0
LINE
8
DEFAULT_255_2_778
10
46.975712
20
17.3875914
11
46.975712
21
18.4874914
0
LINE
8
DEFAULT_255_2_778
10
46.975712
20
18.4874914
11
45.625512
21
18.4874914
0
LINE
8
DEFAULT_255_2_778
10
45.625512
20
18.4874914
11
45.625512
21
42.2875914
0
LINE
8
DEFAULT_255_2_778
10
45.625512
20
42.2875914
11
46.975712
21
42.2875914
0
LINE
8
DEFAULT_255_2_778
10
28.088412
20
5.0876914
11
28.088412
21
4.1877914
0
LINE
8
DEFAULT_255_2_778
10
28.088412
20
4.1877914
11
28.888312
21
4.1877914
0
LINE
8
DEFAULT_255_2_778
10
28.888312
20
4.1877914
11
28.888312
21
3.7877914
0
LINE
8
DEFAULT_255_2_778
10
28.888312
20
3.7877914
11
29.888112
21
3.7877914
0
LINE
8
DEFAULT_255_2_778
10
29.888112
20
3.7877914
11
29.888112
21
3.3876914
0
LINE
8
DEFAULT_255_2_778
10
29.888112
20
3.3876914
11
31.088312
21
3.3876914
0
LINE
8
DEFAULT_255_2_778
10
31.088312
20
3.3876914
11
31.088312
21
2.9876914
0
LINE
8
DEFAULT_255_2_778
10
31.088312
20
2.9876914
11
32.588212
21
2.9876914
0
LINE
8
DEFAULT_255_2_778
10
32.588212
20
2.9876914
11
32.588212
21
2.5875914
0
LINE
8
DEFAULT_255_2_778
10
32.588212
20
2.5875914
11
37.588312
21
2.5875914
0
LINE
8
DEFAULT_255_2_778
10
37.588312
20
2.5875914
11
37.588312
21
2.9876914
0
LINE
8
DEFAULT_255_2_778
10
37.588312
20
2.9876914
11
39.088212
21
2.9876914
0
LINE
8
DEFAULT_255_2_778
10
39.088212
20
2.9876914
11
39.088212
21
3.3876914
0
LINE
8
DEFAULT_255_2_778
10
39.088212
20
3.3876914
11
40.288112
21
3.3876914
0
LINE
8
DEFAULT_255_2_778
10
40.288112
20
3.3876914
11
40.288112
21
3.7877914
0
LINE
8
DEFAULT_255_2_778
10
40.288112
20
3.7877914
11
41.288212
21
3.7877914
0
LINE
8
DEFAULT_255_2_778
10
41.288212
20
3.7877914
11
41.288212
21
4.1877914
0
LINE
8
DEFAULT_255_2_778
10
41.288212
20
4.1877914
11
42.088312
21
4.1877914
0
LINE
8
DEFAULT_255_2_778
10
42.088312
20
4.1877914
11
42.088312
21
5.0876914
0
LINE
8
DEFAULT_255_2_778
10
13.376012
20
95.0877914
11
13.376012
21
92.2876914
0
LINE
8
DEFAULT_255_2_778
10
0.1759582
20
94.940481
11
0.1759582
21
5.087681
0
LINE
8
DEFAULT_255_2_778
10
0.1759582
20
5.087681
11
64.8758582
21
5.087681
0
ARC
8
DEFAULT_255_2_778
10
5.8758679
20
91.7876279
40
0.5000969
50
89.9996485
51
180.0003515
0
ARC
8
DEFAULT_255_2_778
10
5.8758465
20
91.7877004
40
0.5000756
50
180.0086621
51
270.0028016
0
LINE
8
DEFAULT_255_2_778
10
5.8760709
20
8.8876248
11
7.3759709
21
8.8876248
0
LINE
8
DEFAULT_255_2_778
10
13.3759709
20
7.8877248
11
13.3759709
21
5.0877248
0
LINE
8
DEFAULT_255_2_778
10
13.3778709
20
92.2877248
11
5.8758709
21
92.2877248
0
LINE
8
DEFAULT_255_2_778
10
5.8758709
20
91.2876248
11
7.3757709
21
91.2876248
0
ARC
8
DEFAULT_255_2_778
10
5.8758679
20
8.3875656
40
0.5000969
50
89.9996485
51
180.0003515
0
ARC
8
DEFAULT_255_2_778
10
5.8758467
20
8.3876381
40
0.5000757
50
180.0086621
51
270.0027821
0
LINE
8
DEFAULT_255_2_778
10
5.8758709
20
7.8875625
11
13.3778709
21
7.8875625
0
LINE
8
DEFAULT_255_2_778
10
7.3760925
20
7.8846363
11
7.3760925
21
91.2876363
0
LINE
8
DEFAULT_255_2_778
10
65.1758925
20
1.7875363
11
61.2759925
21
1.7875363
0
LINE
8
DEFAULT_255_2_778
10
65.1759073
20
4.8377156
11
63.1759073
21
4.8377156
0
LINE
8
DEFAULT_255_2_778
10
63.1759073
20
4.8377156
11
63.1759073
21
5.0877156
0
LINE
8
DEFAULT_255_2_778
10
61.2759209
20
5.0877287
11
61.2759209
21
-0.2124713
0
LINE
8
DEFAULT_255_2_778
10
61.2759209
20
-0.2124713
11
65.1759209
21
-0.2124713
0
LINE
8
DEFAULT_255_2_778
10
65.1759209
20
-0.2124713
11
65.1759209
21
32.1876287
0
LINE
8
DEFAULT_255_2_778
10
64.8009209
20
32.2625287
11
63.3759209
21
34.6374287
0
LINE
8
DEFAULT_255_2_778
10
63.3759209
20
34.6374287
11
62.3758209
21
34.6374287
0
LINE
8
DEFAULT_255_2_778
10
62.3758209
20
34.6374287
11
62.1988209
21
32.6877287
0
ARC
8
DEFAULT_255_2_778
10
26.876136
20
91.8864891
40
0.2012237
50
90.0992231
51
134.8238335
0
ARC
8
DEFAULT_255_2_778
10
26.8748753
20
91.8882468
40
0.1990886
50
134.9231062
51
180.1537693
0
ARC
8
DEFAULT_255_2_778
10
47.526136
20
91.8864891
40
0.2012237
50
90.0992231
51
134.8238335
0
ARC
8
DEFAULT_255_2_778
10
47.5248753
20
91.8882468
40
0.1990886
50
134.9231062
51
180.1537693
0
ARC
8
DEFAULT_255_2_778
10
26.876136
20
10.8863891
40
0.2012237
50
90.0992231
51
134.8238335
0
ARC
8
DEFAULT_255_2_778
10
26.8748753
20
10.8881468
40
0.1990886
50
134.9231062
51
180.1537693
0
ARC
8
DEFAULT_255_2_778
10
47.526136
20
10.8863891
40
0.2012237
50
90.0992231
51
134.8238335
0
ARC
8
DEFAULT_255_2_778
10
47.5248753
20
10.8881468
40
0.1990886
50
134.9231062
51
180.1537693
0
ARC
8
DEFAULT_255_2_778
10
64.876091
20
5.3870646
40
0.2994383
50
269.9485929
51
315.0531964
0
ARC
8
DEFAULT_255_2_778
10
64.8764842
20
5.3874578
40
0.2994383
50
314.9468036
51
0.0514071
0
ARC
8
DEFAULT_255_2_778
10
34.1781038
20
50.0911962
40
2.0023845
50
156.5733489
51
180.0992821
0
ARC
8
DEFAULT_255_2_778
10
34.1709258
20
50.0921432
40
1.9954226
50
100.1929838
51
156.5163563
0
ARC
8
DEFAULT_255_2_778
10
34.1747018
20
50.0599228
40
2.0278038
50
89.9711642
51
100.1368845
0
ARC
8
DEFAULT_255_2_778
10
34.1791921
20
50.0853449
40
2.0023845
50
66.5733489
51
90.0992821
0
ARC
8
DEFAULT_255_2_778
10
34.1801391
20
50.092523
40
1.9954226
50
10.1929838
51
66.5163563
0
ARC
8
DEFAULT_255_2_778
10
34.1479187
20
50.088747
40
2.0278038
50
359.9711642
51
10.1368845
0
ARC
8
DEFAULT_255_2_778
10
34.1733408
20
50.0842567
40
2.0023845
50
336.5733489
51
0.0992821
0
ARC
8
DEFAULT_255_2_778
10
34.1805189
20
50.0833097
40
1.9954226
50
280.1929838
51
336.5163563
0
ARC
8
DEFAULT_255_2_778
10
34.1767429
20
50.1155301
40
2.0278038
50
269.9711642
51
280.1368845
0
ARC
8
DEFAULT_255_2_778
10
34.1722526
20
50.0901079
40
2.0023845
50
246.5733489
51
270.0992821
0
ARC
8
DEFAULT_255_2_778
10
34.1713056
20
50.0829299
40
1.9954226
50
190.1929838
51
246.5163563
0
ARC
8
DEFAULT_255_2_778
10
34.203526
20
50.0867059
40
2.0278038
50
179.9711642
51
190.1368845
0
LINE
8
DEFAULT_255_2_778
10
32.1757223
20
50.0877264
11
32.1757223
21
50.0877264
0
ARC
8
DEFAULT_255_2_778
10
60.626136
20
92.8865891
40
0.2012237
50
90.0992231
51
134.8238335
0
ARC
8
DEFAULT_255_2_778
10
60.6248753
20
92.8883468
40
0.1990886
50
134.9231062
51
180.1537693
0
ARC
8
DEFAULT_255_2_778
10
60.6257893
20
70.7876592
40
0.2000302
50
179.9800103
51
269.9913489
0
ARC
8
DEFAULT_255_2_778
10
60.0790192
20
62.9867596
40
1.4973095
50
317.1166681
51
336.8396037
0
ARC
8
DEFAULT_255_2_778
10
60.0750289
20
62.9870813
40
1.5011054
50
336.8882178
51
0.0213789
0
LINE
8
DEFAULT_255_2_778
10
61.5761341
20
62.9876415
11
61.5761341
21
62.9878165
0
ARC
8
DEFAULT_255_2_778
10
60.078106
20
62.9887089
40
1.4980283
50
359.9658692
51
31.1309717
0
ARC
8
DEFAULT_255_2_778
10
60.0726774
20
62.9838492
40
1.5051883
50
31.1824838
51
42.8515163
0
LINE
8
DEFAULT_255_2_778
10
35.8028591
20
97.787629
11
35.8028591
21
97.587629
0
LINE
8
DEFAULT_255_2_778
10
33.0329591
20
97.587629
11
33.0329591
21
97.787629
0
LINE
8
DEFAULT_255_2_778
10
33.0329591
20
97.787629
11
37.1884591
21
97.787629
0
LINE
8
DEFAULT_255_2_778
10
37.1884591
20
97.787629
11
37.1884591
21
97.587629
0
LINE
8
DEFAULT_255_2_778
10
11.8757591
20
7.987829
11
11.8757591
21
7.887729
0
LINE
8
DEFAULT_255_2_778
10
11.3757591
20
7.987829
11
11.3757591
21
7.887729
0
LINE
8
DEFAULT_255_2_778
10
10.3758591
20
7.987829
11
10.3758591
21
7.887729
0
LINE
8
DEFAULT_255_2_778
10
9.4757591
20
7.987829
11
9.4757591
21
7.887729
0
LINE
8
DEFAULT_255_2_778
10
55.1258591
20
28.887729
11
56.6258591
21
28.787729
0
LINE
8
DEFAULT_255_2_778
10
56.6258591
20
28.787729
11
56.6258591
21
12.487829
0
LINE
8
DEFAULT_255_2_778
10
56.6258591
20
12.487829
11
43.0259591
21
12.487829
0
LINE
8
DEFAULT_255_2_778
10
43.0259591
20
12.487829
11
43.0259591
21
48.287829
0
LINE
8
DEFAULT_255_2_778
10
43.0259591
20
48.287829
11
56.6258591
21
48.287829
0
LINE
8
DEFAULT_255_2_778
10
56.6258591
20
48.287829
11
56.6258591
21
31.987829
0
LINE
8
DEFAULT_255_2_778
10
56.6258591
20
31.987829
11
55.1258591
21
31.887829
0
LINE
8
DEFAULT_255_2_778
10
44.5258591
20
13.987729
11
55.1258591
21
13.987729
0
LINE
8
DEFAULT_255_2_778
10
55.1258591
20
13.987729
11
55.1258591
21
46.787629
0
LINE
8
DEFAULT_255_2_778
10
55.1258591
20
46.787629
11
44.5258591
21
46.787629
0
LINE
8
DEFAULT_255_2_778
10
44.5258591
20
46.787629
11
44.5258591
21
13.987729
0
LINE
8
DEFAULT_255_2_778
10
62.4961591
20
93.087829
11
60.5757591
21
93.087829
0
LINE
8
DEFAULT_255_2_778
10
61.6759591
20
92.987529
11
65.1758591
21
92.987529
0
LINE
8
DEFAULT_255_2_778
10
65.1758591
20
92.987529
11
65.1758591
21
70.687729
0
LINE
8
DEFAULT_255_2_778
10
65.1758591
20
70.687729
11
61.6759591
21
70.687729
0
LINE
8
DEFAULT_255_2_778
10
61.6759591
20
70.687729
11
60.6757591
21
71.687829
0
LINE
8
DEFAULT_255_2_778
10
60.6757591
20
71.687829
11
60.6757591
21
81.587429
0
LINE
8
DEFAULT_255_2_778
10
60.6757591
20
81.587429
11
63.5248591
21
81.587429
0
LINE
8
DEFAULT_255_2_778
10
63.5248591
20
81.587429
11
63.5248591
21
82.087529
0
LINE
8
DEFAULT_255_2_778
10
63.5248591
20
82.087529
11
60.6757591
21
82.087529
0
LINE
8
DEFAULT_255_2_778
10
60.6757591
20
82.087529
11
60.6757591
21
91.987429
0
LINE
8
DEFAULT_255_2_778
10
60.6757591
20
91.987429
11
61.6759591
21
92.987529
0
LINE
8
DEFAULT_255_2_778
10
61.3758591
20
82.087529
11
61.3758591
21
81.587429
0
LINE
8
DEFAULT_255_2_778
10
62.5257591
20
82.087529
11
62.5257591
21
81.587429
0
ARC
8
DEFAULT_255_2_778
10
14.9254671
20
65.3375451
40
0.5000956
50
180.0053149
51
225.0041129
0
ARC
8
DEFAULT_255_2_778
10
14.9253059
20
65.337324
40
0.4998253
50
224.9992549
51
270.0189774
0
ARC
8
DEFAULT_255_2_778
10
54.4253175
20
65.3375527
40
0.500054
50
270.0061838
51
359.9938162
0
ARC
8
DEFAULT_255_2_778
10
54.425296
20
84.8376233
40
0.5000755
50
359.9971846
51
89.9913517
0
ARC
8
DEFAULT_255_2_778
10
14.9254458
20
84.8377769
40
0.4999219
50
89.9970574
51
135.0123564
0
ARC
8
DEFAULT_255_2_778
10
14.9254671
20
84.8375524
40
0.5000956
50
134.9958871
51
179.9946851
0
LINE
8
DEFAULT_255_2_778
10
60.4258715
20
92.8877987
11
60.4258715
21
70.7876987
0
LINE
8
DEFAULT_255_2_778
10
14.9254715
20
64.8374987
11
54.4253715
21
64.8374987
0
LINE
8
DEFAULT_255_2_778
10
54.9253715
20
65.3374987
11
54.9253715
21
84.8375987
0
LINE
8
DEFAULT_255_2_778
10
54.4253715
20
85.3376987
11
14.9254715
21
85.3376987
0
LINE
8
DEFAULT_255_2_778
10
14.4253715
20
84.8375987
11
14.4253715
21
65.3374987
0
LINE
8
DEFAULT_255_2_778
10
35.8028715
20
2.3875987
11
35.8028715
21
2.5875987
0
ARC
8
DEFAULT_255_2_778
10
64.8757379
20
94.7876945
40
0.3001094
50
0.0208901
51
89.9791099
0
LINE
8
DEFAULT_255_2_778
10
33.0329473
20
2.5876039
11
33.0329473
21
2.3876039
0
LINE
8
DEFAULT_255_2_778
10
33.0329473
20
2.3876039
11
37.1884473
21
2.3876039
0
LINE
8
DEFAULT_255_2_778
10
37.1884473
20
2.3876039
11
37.1884473
21
2.5876039
0
LINE
8
DEFAULT_255_2_778
10
65.0258473
20
93.0878039
11
65.0258473
21
92.9878039
0
ARC
8
DEFAULT_255_2_778
10
31.4747611
20
91.8875049
40
0.2011265
50
0.0591294
51
44.7947668
0
ARC
8
DEFAULT_255_2_778
10
31.4763543
20
91.88822
40
0.199493
50
44.9714167
51
90.1340596
0
LINE
8
DEFAULT_255_2_778
10
31.4758771
20
92.0877
11
26.8758771
21
92.0877
0
ARC
8
DEFAULT_255_2_778
10
31.4759434
20
89.2876214
40
0.2000087
50
270.0025037
51
359.9974617
0
ARC
8
DEFAULT_255_2_778
10
26.8758611
20
89.2876214
40
0.2000089
50
180.0025627
51
269.9974373
0
LINE
8
DEFAULT_255_2_778
10
31.4759522
20
89.0876125
11
26.8758522
21
89.0876125
0
LINE
8
DEFAULT_255_2_778
10
26.6758522
20
89.2876302
11
26.6758522
21
91.8877302
0
LINE
8
DEFAULT_255_2_778
10
31.6759522
20
91.8877302
11
31.6759522
21
89.2876302
0
ARC
8
DEFAULT_255_2_778
10
52.1246611
20
91.8875049
40
0.2011265
50
0.0591294
51
44.7947668
0
ARC
8
DEFAULT_255_2_778
10
52.1262543
20
91.88822
40
0.199493
50
44.9714167
51
90.1340596
0
LINE
8
DEFAULT_255_2_778
10
52.1257771
20
92.0877
11
47.5257771
21
92.0877
0
ARC
8
DEFAULT_255_2_778
10
52.1258434
20
89.2876214
40
0.2000087
50
270.0025037
51
359.9974617
0
ARC
8
DEFAULT_255_2_778
10
47.5257611
20
89.2876214
40
0.2000089
50
180.0025627
51
269.9974373
0
LINE
8
DEFAULT_255_2_778
10
52.1258522
20
89.0876125
11
47.5257522
21
89.0876125
0
LINE
8
DEFAULT_255_2_778
10
47.3257522
20
89.2876302
11
47.3257522
21
91.8877302
0
LINE
8
DEFAULT_255_2_778
10
52.3258522
20
91.8877302
11
52.3258522
21
89.2876302
0
ARC
8
DEFAULT_255_2_778
10
31.4747611
20
10.8874049
40
0.2011265
50
0.0591294
51
44.7947668
0
ARC
8
DEFAULT_255_2_778
10
31.4763543
20
10.88812
40
0.199493
50
44.9714167
51
90.1340596
0
LINE
8
DEFAULT_255_2_778
10
31.4758771
20
11.0877
11
26.8758771
21
11.0877
0
ARC
8
DEFAULT_255_2_778
10
31.4759434
20
8.2878214
40
0.2000087
50
270.0025037
51
359.9974617
0
ARC
8
DEFAULT_255_2_778
10
26.8758611
20
8.2878214
40
0.2000089
50
180.0025627
51
269.9974373
0
LINE
8
DEFAULT_255_2_778
10
31.4759522
20
8.0878125
11
26.8758522
21
8.0878125
0
LINE
8
DEFAULT_255_2_778
10
31.6759522
20
8.2875302
11
31.6759522
21
10.8876302
0
LINE
8
DEFAULT_255_2_778
10
26.6758522
20
10.8876302
11
26.6758522
21
8.2875302
0
ARC
8
DEFAULT_255_2_778
10
52.1246611
20
10.8874049
40
0.2011265
50
0.0591294
51
44.7947668
0
ARC
8
DEFAULT_255_2_778
10
52.1262543
20
10.88812
40
0.199493
50
44.9714167
51
90.1340596
0
LINE
8
DEFAULT_255_2_778
10
52.1257771
20
11.0877
11
47.5257771
21
11.0877
0
ARC
8
DEFAULT_255_2_778
10
52.1258434
20
8.2878214
40
0.2000087
50
270.0025037
51
359.9974617
0
ARC
8
DEFAULT_255_2_778
10
47.5257611
20
8.2878214
40
0.2000089
50
180.0025627
51
269.9974373
0
LINE
8
DEFAULT_255_2_778
10
52.1258522
20
8.0878125
11
47.5257522
21
8.0878125
0
ARC
8
DEFAULT_255_2_778
10
62.0257747
20
71.0875958
40
0.4999331
50
269.997435
51
306.8724443
0
LINE
8
DEFAULT_255_2_778
10
52.3258523
20
8.2875627
11
52.3258523
21
10.8875627
0
LINE
8
DEFAULT_255_2_778
10
47.3257523
20
10.8875627
11
47.3257523
21
8.2875627
0
LINE
8
DEFAULT_255_2_778
10
65.0258523
20
70.6876627
11
65.0258523
21
70.5876627
0
ENDSEC
0
EOF