0
SECTION
2
HEADER
9
$MEASUREMENT
70
1
0
ENDSEC
0
SECTION
2
TABLES
0
TABLE
2
LTYPE
0
LTYPE
72
65
70
64
2
CONTINUOUS
3
______
73
0
40
0
0
ENDTAB
0
TABLE
2
LAYER
0
LAYER
2
DEFAULT_255_2_778
70
0
62
255
6
CONTINUOUS
0
ENDTAB
0
ENDSEC
0
SECTION
2
ENTITIES
0
ARC
8
DEFAULT_255_2_778
10
5.8761512
20
91.7877133
40
0.5000542
50
90.0062155
51
179.9937869
0
ARC
8
DEFAULT_255_2_778
10
5.8761726
20
91.7877431
40
0.5000756
50
179.9972001
51
269.9913338
0
ARC
8
DEFAULT_255_2_778
10
5.8758237
20
8.3880432
40
0.4999244
50
89.9916033
51
150.0182385
0
ARC
8
DEFAULT_255_2_778
10
5.8755722
20
8.3879557
40
0.4997502
50
149.9951466
51
180.0101141
0
ARC
8
DEFAULT_255_2_778
10
5.8755722
20
8.3877793
40
0.4997502
50
179.9898859
51
210.0048534
0
ARC
8
DEFAULT_255_2_778
10
5.8758336
20
8.3879089
40
0.5000414
50
210.0027369
51
270.0072602
0
LINE
8
DEFAULT_255_2_778
10
13.375997
20
95.0878675
11
13.375997
21
92.2877675
0
LINE
8
DEFAULT_255_2_778
10
13.375997
20
92.2877675
11
5.876097
21
92.2877675
0
LINE
8
DEFAULT_255_2_778
10
5.876097
20
91.2876675
11
7.375997
21
91.2876675
0
LINE
8
DEFAULT_255_2_778
10
7.375797
20
8.8879675
11
5.875897
21
8.8879675
0
LINE
8
DEFAULT_255_2_778
10
5.875897
20
7.8878675
11
13.375997
21
7.8878675
0
LINE
8
DEFAULT_255_2_778
10
13.375997
20
7.8878675
11
13.375997
21
5.0877675
0
ARC
8
DEFAULT_255_2_778
10
0.3262106
20
94.9371789
40
0.1506887
50
90.08249
51
134.873199
0
ARC
8
DEFAULT_255_2_778
10
0.3266822
20
94.9376505
40
0.1506887
50
135.126801
51
179.91751
0
ARC
8
DEFAULT_255_2_778
10
0.3260483
20
5.2378222
40
0.1500547
50
180.0208901
51
269.9791099
0
LINE
8
DEFAULT_255_2_778
10
64.8763936
20
95.0878675
11
0.3259936
21
95.0878675
0
LINE
8
DEFAULT_255_2_778
10
0.1759936
20
94.9378675
11
0.1759936
21
5.2377675
0
LINE
8
DEFAULT_255_2_778
10
0.3259936
20
5.0877675
11
64.8760936
21
5.0877675
0
ARC
8
DEFAULT_255_2_778
10
62.025689
20
92.5881536
40
0.4998139
50
53.103898
51
89.9918406
0
ARC
8
DEFAULT_255_2_778
10
64.8757293
20
94.7880366
40
0.3001309
50
0.0249951
51
89.9941098
0
ARC
8
DEFAULT_255_2_778
10
64.8760749
20
5.3879426
40
0.2997853
50
314.9743446
51
0.023866
0
ARC
8
DEFAULT_255_2_778
10
64.8759944
20
5.3878299
40
0.2997625
50
269.9552365
51
315.0004592
0
LINE
8
DEFAULT_255_2_778
10
7.3760602
20
8.6879675
11
7.3760602
21
91.4882675
0
LINE
8
DEFAULT_255_2_778
10
7.3760602
20
91.4882675
11
8.0761602
21
92.1880675
0
LINE
8
DEFAULT_255_2_778
10
7.3757602
20
82.8879675
11
8.5758602
21
82.8879675
0
LINE
8
DEFAULT_255_2_778
10
8.5758602
20
82.8879675
11
8.5758602
21
74.8880675
0
LINE
8
DEFAULT_255_2_778
10
8.5758602
20
74.8880675
11
7.3757602
21
74.8880675
0
LINE
8
DEFAULT_255_2_778
10
7.3757602
20
63.6879675
11
8.5758602
21
63.6879675
0
LINE
8
DEFAULT_255_2_778
10
8.5758602
20
63.6879675
11
8.5758602
21
55.6879675
0
LINE
8
DEFAULT_255_2_778
10
8.5758602
20
55.6879675
11
7.3757602
21
55.6879675
0
LINE
8
DEFAULT_255_2_778
10
61.1758602
20
64.0080675
11
61.1758602
21
68.0879675
0
LINE
8
DEFAULT_255_2_778
10
61.1758602
20
32.6880675
11
61.1758602
21
61.9681675
0
LINE
8
DEFAULT_255_2_778
10
65.1758602
20
68.0879675
11
65.1758602
21
70.5879675
0
LINE
8
DEFAULT_255_2_778
10
65.1758602
20
70.5879675
11
65.0258602
21
70.5879675
0
LINE
8
DEFAULT_255_2_778
10
62.0257602
20
93.0879675
11
65.1758602
21
93.0879675
0
LINE
8
DEFAULT_255_2_778
10
65.1758602
20
93.0879675
11
65.1758602
21
94.7881675
0
LINE
8
DEFAULT_255_2_778
10
61.1758602
20
32.6880675
11
62.6757602
21
32.6880675
0
LINE
8
DEFAULT_255_2_778
10
62.6757602
20
32.6880675
11
65.1758602
21
32.1879675
0
LINE
8
DEFAULT_255_2_778
10
65.1758602
20
32.1879675
11
65.1758602
21
5.3880675
0
LINE
8
DEFAULT_255_2_778
10
29.8759602
20
95.0878675
11
29.8759602
21
93.0879675
0
LINE
8
DEFAULT_255_2_778
10
29.8759602
20
93.0879675
11
16.8761602
21
93.0879675
0
LINE
8
DEFAULT_255_2_778
10
16.8761602
20
93.0879675
11
15.8760602
21
95.0878675
0
ARC
8
DEFAULT_255_2_778
10
14.9262558
20
65.3379555
40
0.5000956
50
180.0053149
51
225.0041129
0
ARC
8
DEFAULT_255_2_778
10
14.9261383
20
65.3374985
40
0.4996894
50
224.9765911
51
270.0025105
0
ARC
8
DEFAULT_255_2_778
10
54.4260847
20
65.3378845
40
0.5000754
50
270.0086483
51
0.0028154
0
ARC
8
DEFAULT_255_2_778
10
54.4260846
20
84.8379336
40
0.5000756
50
359.9971984
51
89.9913379
0
ARC
8
DEFAULT_255_2_778
10
14.9261384
20
84.8383193
40
0.4996898
50
89.9974993
51
135.0233811
0
ARC
8
DEFAULT_255_2_778
10
14.9259076
20
84.838007
40
0.4997474
50
134.9793514
51
180.0112208
0
LINE
8
DEFAULT_255_2_778
10
30.8760602
20
95.0879091
11
29.8759602
21
93.0879091
0
LINE
8
DEFAULT_255_2_778
10
16.8759602
20
95.0879091
11
16.8759602
21
93.0879091
0
LINE
8
DEFAULT_255_2_778
10
14.8751602
20
5.0880091
11
14.8751602
21
7.9881091
0
LINE
8
DEFAULT_255_2_778
10
14.8751602
20
7.9881091
11
8.0758602
21
7.9881091
0
LINE
8
DEFAULT_255_2_778
10
8.0758602
20
7.9881091
11
8.0758602
21
7.8881091
0
LINE
8
DEFAULT_255_2_778
10
8.0761602
20
7.9879091
11
7.3760602
21
8.6880091
0
LINE
8
DEFAULT_255_2_778
10
14.8751602
20
95.0879091
11
14.8751602
21
92.1881091
0
LINE
8
DEFAULT_255_2_778
10
14.8751602
20
92.1881091
11
8.0758602
21
92.1881091
0
LINE
8
DEFAULT_255_2_778
10
61.3759602
20
93.0879091
11
61.3759602
21
92.6876091
0
LINE
8
DEFAULT_255_2_778
10
61.3759602
20
70.9881091
11
61.3759602
21
70.5880091
0
LINE
8
DEFAULT_255_2_778
10
65.1761602
20
68.0880091
11
61.1761602
21
68.0880091
0
LINE
8
DEFAULT_255_2_778
10
14.4261602
20
84.8379091
11
14.4261602
21
65.3379091
0
LINE
8
DEFAULT_255_2_778
10
14.9261602
20
64.8378091
11
54.4261602
21
64.8378091
0
LINE
8
DEFAULT_255_2_778
10
54.9261602
20
65.3379091
11
54.9261602
21
84.8379091
0
LINE
8
DEFAULT_255_2_778
10
54.4261602
20
85.3380091
11
14.9261602
21
85.3380091
0
LINE
8
DEFAULT_255_2_778
10
65.1758602
20
1.7879091
11
61.2759602
21
1.7879091
0
LINE
8
DEFAULT_255_2_778
10
65.1759073
20
4.8380156
11
63.1759073
21
4.8380156
0
LINE
8
DEFAULT_255_2_778
10
63.1759073
20
4.8380156
11
63.1759073
21
5.0880156
0
LINE
8
DEFAULT_255_2_778
10
61.2759209
20
5.087761
11
61.2759209
21
-0.212339
0
LINE
8
DEFAULT_255_2_778
10
61.2759209
20
-0.212339
11
65.1759209
21
-0.212339
0
LINE
8
DEFAULT_255_2_778
10
65.1759209
20
-0.212339
11
65.1759209
21
31.637661
0
LINE
8
DEFAULT_255_2_778
10
64.8007209
20
32.262861
11
63.3759209
21
34.637761
0
ARC
8
DEFAULT_255_2_778
10
52.125852
20
89.287992
40
0.2000089
50
270.0025627
51
359.9974373
0
ARC
8
DEFAULT_255_2_778
10
52.125852
20
8.288192
40
0.2000089
50
270.0025627
51
359.9974373
0
LINE
8
DEFAULT_255_2_778
10
63.3759609
20
34.6377831
11
62.3758609
21
34.6377831
0
LINE
8
DEFAULT_255_2_778
10
62.3758609
20
34.6377831
11
62.1985609
21
32.6880831
0
LINE
8
DEFAULT_255_2_778
10
28.0884609
20
5.0880831
11
28.0884609
21
4.1879831
0
LINE
8
DEFAULT_255_2_778
10
28.0884609
20
4.1879831
11
28.8882609
21
4.1879831
0
LINE
8
DEFAULT_255_2_778
10
28.8882609
20
4.1879831
11
28.8882609
21
3.7881831
0
LINE
8
DEFAULT_255_2_778
10
28.8882609
20
3.7881831
11
29.8881609
21
3.7881831
0
LINE
8
DEFAULT_255_2_778
10
29.8881609
20
3.7881831
11
29.8881609
21
3.3880831
0
LINE
8
DEFAULT_255_2_778
10
29.8881609
20
3.3880831
11
31.0882609
21
3.3880831
0
LINE
8
DEFAULT_255_2_778
10
31.0882609
20
3.3880831
11
31.0882609
21
2.9880831
0
LINE
8
DEFAULT_255_2_778
10
31.0882609
20
2.9880831
11
32.5882609
21
2.9880831
0
LINE
8
DEFAULT_255_2_778
10
32.5882609
20
2.9880831
11
32.5882609
21
2.5879831
0
LINE
8
DEFAULT_255_2_778
10
32.5882609
20
2.5879831
11
37.5883609
21
2.5879831
0
LINE
8
DEFAULT_255_2_778
10
37.5883609
20
2.5879831
11
37.5883609
21
2.9880831
0
LINE
8
DEFAULT_255_2_778
10
37.5883609
20
2.9880831
11
39.0882609
21
2.9880831
0
LINE
8
DEFAULT_255_2_778
10
39.0882609
20
2.9880831
11
39.0882609
21
3.3880831
0
LINE
8
DEFAULT_255_2_778
10
39.0882609
20
3.3880831
11
40.2881609
21
3.3880831
0
LINE
8
DEFAULT_255_2_778
10
40.2881609
20
3.3880831
11
40.2881609
21
3.7881831
0
LINE
8
DEFAULT_255_2_778
10
40.2881609
20
3.7881831
11
41.2882609
21
3.7881831
0
LINE
8
DEFAULT_255_2_778
10
41.2882609
20
3.7881831
11
41.2882609
21
4.1879831
0
LINE
8
DEFAULT_255_2_778
10
41.2882609
20
4.1879831
11
42.0883609
21
4.1879831
0
LINE
8
DEFAULT_255_2_778
10
42.0883609
20
4.1879831
11
42.0883609
21
5.0880831
0
LINE
8
DEFAULT_255_2_778
10
48.1758609
20
45.5878831
11
45.7261609
21
45.5878831
0
LINE
8
DEFAULT_255_2_778
10
45.7261609
20
45.5878831
11
45.7261609
21
42.8877831
0
LINE
8
DEFAULT_255_2_778
10
45.7261609
20
42.8877831
11
46.9759609
21
42.8877831
0
LINE
8
DEFAULT_255_2_778
10
52.6759609
20
42.8877831
11
53.9258609
21
42.8877831
0
LINE
8
DEFAULT_255_2_778
10
53.9258609
20
42.8877831
11
53.9258609
21
45.5878831
0
LINE
8
DEFAULT_255_2_778
10
53.9258609
20
45.5878831
11
51.4760609
21
45.5878831
0
LINE
8
DEFAULT_255_2_778
10
51.4760609
20
45.7878831
11
51.4760609
21
44.1378831
0
LINE
8
DEFAULT_255_2_778
10
51.4760609
20
44.1378831
11
48.1758609
21
44.1378831
0
LINE
8
DEFAULT_255_2_778
10
48.1758609
20
44.1378831
11
48.1758609
21
45.7878831
0
LINE
8
DEFAULT_255_2_778
10
48.1758609
20
45.7878831
11
51.4760609
21
45.7878831
0
LINE
8
DEFAULT_255_2_778
10
48.1758609
20
15.1877831
11
45.7261609
21
15.1877831
0
LINE
8
DEFAULT_255_2_778
10
45.7261609
20
15.1877831
11
45.7261609
21
17.8877831
0
LINE
8
DEFAULT_255_2_778
10
45.7261609
20
17.8877831
11
46.9762609
21
17.8877831
0
LINE
8
DEFAULT_255_2_778
10
52.6759609
20
17.8877831
11
53.9258609
21
17.8877831
0
LINE
8
DEFAULT_255_2_778
10
53.9258609
20
17.8877831
11
53.9258609
21
15.1877831
0
LINE
8
DEFAULT_255_2_778
10
53.9258609
20
15.1877831
11
51.4760609
21
15.1877831
0
LINE
8
DEFAULT_255_2_778
10
28.0884609
20
95.0879831
11
28.0884609
21
95.9877831
0
LINE
8
DEFAULT_255_2_778
10
28.0884609
20
95.9877831
11
28.8882609
21
95.9877831
0
LINE
8
DEFAULT_255_2_778
10
28.8882609
20
95.9877831
11
28.8882609
21
96.3878831
0
LINE
8
DEFAULT_255_2_778
10
28.8882609
20
96.3878831
11
29.8884609
21
96.3878831
0
LINE
8
DEFAULT_255_2_778
10
29.8884609
20
96.3878831
11
29.8884609
21
96.7878831
0
LINE
8
DEFAULT_255_2_778
10
29.8884609
20
96.7878831
11
31.0885609
21
96.7878831
0
LINE
8
DEFAULT_255_2_778
10
31.0885609
20
96.7878831
11
31.0885609
21
97.1879831
0
LINE
8
DEFAULT_255_2_778
10
31.0885609
20
97.1879831
11
32.5884609
21
97.1879831
0
LINE
8
DEFAULT_255_2_778
10
32.5884609
20
97.1879831
11
32.5884609
21
97.5879831
0
LINE
8
DEFAULT_255_2_778
10
32.5884609
20
97.5879831
11
37.5885609
21
97.5879831
0
LINE
8
DEFAULT_255_2_778
10
37.5885609
20
97.5879831
11
37.5885609
21
97.1879831
0
LINE
8
DEFAULT_255_2_778
10
37.5885609
20
97.1879831
11
39.0885609
21
97.1879831
0
LINE
8
DEFAULT_255_2_778
10
39.0885609
20
97.1879831
11
39.0885609
21
96.7878831
0
LINE
8
DEFAULT_255_2_778
10
39.0885609
20
96.7878831
11
40.2883609
21
96.7878831
0
LINE
8
DEFAULT_255_2_778
10
40.2883609
20
96.7878831
11
40.2883609
21
96.3875831
0
LINE
8
DEFAULT_255_2_778
10
40.2883609
20
96.3875831
11
41.2885609
21
96.3875831
0
LINE
8
DEFAULT_255_2_778
10
41.2885609
20
96.3875831
11
41.2885609
21
95.9877831
0
LINE
8
DEFAULT_255_2_778
10
41.2885609
20
95.9877831
11
42.0886609
21
95.9877831
0
LINE
8
DEFAULT_255_2_778
10
42.0886609
20
95.9877831
11
42.0886609
21
95.0879831
0
ARC
8
DEFAULT_255_2_778
10
34.1783187
20
50.0915394
40
2.0023845
50
156.5733489
51
180.0992821
0
ARC
8
DEFAULT_255_2_778
10
34.1711407
20
50.0924864
40
1.9954226
50
100.1929838
51
156.5163563
0
ARC
8
DEFAULT_255_2_778
10
34.1749166
20
50.060266
40
2.0278038
50
89.9711642
51
100.1368845
0
ARC
8
DEFAULT_255_2_778
10
34.1794069
20
50.0856882
40
2.0023845
50
66.5733489
51
90.0992821
0
ARC
8
DEFAULT_255_2_778
10
34.1803539
20
50.0928662
40
1.9954226
50
10.1929838
51
66.5163563
0
ARC
8
DEFAULT_255_2_778
10
34.1481336
20
50.0890902
40
2.0278038
50
359.9711642
51
10.1368845
0
ARC
8
DEFAULT_255_2_778
10
34.1738442
20
50.0846017
40
2.002096
50
336.5280408
51
0.0992451
0
ARC
8
DEFAULT_255_2_778
10
34.1807372
20
50.0837766
40
1.9954456
50
280.1860908
51
336.4709419
0
ARC
8
DEFAULT_255_2_778
10
34.1769551
20
50.1160097
40
2.0278404
50
269.9712399
51
280.1302094
0
ARC
8
DEFAULT_255_2_778
10
34.1724697
20
50.0905821
40
2.0024154
50
246.5736611
51
270.0992166
0
ARC
8
DEFAULT_255_2_778
10
34.1714816
20
50.0833572
40
1.995394
50
190.1947202
51
246.5172172
0
ARC
8
DEFAULT_255_2_778
10
34.2034238
20
50.0870506
40
2.0274868
50
179.9712021
51
190.13768
0
ARC
8
DEFAULT_255_2_778
10
62.0259777
20
71.0873483
40
0.4992787
50
269.9724018
51
306.8974856
0
ARC
8
DEFAULT_255_2_778
10
60.0790185
20
62.9870704
40
1.4972736
50
317.1169558
51
336.8407537
0
ARC
8
DEFAULT_255_2_778
10
60.0748777
20
62.9874603
40
1.5012346
50
336.8892271
51
0.0213487
0
ARC
8
DEFAULT_255_2_778
10
60.078182
20
62.9891072
40
1.4979306
50
359.9584016
51
31.1301642
0
ARC
8
DEFAULT_255_2_778
10
60.0731207
20
62.9844458
40
1.5046733
50
31.1824649
51
42.8564203
0
ARC
8
DEFAULT_255_2_778
10
31.4758428
20
8.2879639
40
0.2000943
50
269.9983871
51
359.9730068
0
ARC
8
DEFAULT_255_2_778
10
31.474481
20
10.8876253
40
0.2014565
50
0.0979357
51
44.7965103
0
ARC
8
DEFAULT_255_2_778
10
31.476342
20
10.8883272
40
0.1996429
50
45.0298851
51
90.1448645
0
ARC
8
DEFAULT_255_2_778
10
26.8760936
20
10.8872094
40
0.2007603
50
89.9875687
51
134.8377858
0
ARC
8
DEFAULT_255_2_778
10
26.8753572
20
10.8885078
40
0.1993207
50
134.9508428
51
180.1546843
0
ARC
8
DEFAULT_255_2_778
10
26.8761316
20
8.2879641
40
0.2000945
50
180.027031
51
270.0015954
0
ARC
8
DEFAULT_255_2_778
10
31.4755649
20
91.8867887
40
0.2012812
50
45.1828992
51
89.922489
0
ARC
8
DEFAULT_255_2_778
10
31.4768487
20
91.8886037
40
0.1990892
50
359.8462956
51
45.0768099
0
ARC
8
DEFAULT_255_2_778
10
31.4758428
20
89.288064
40
0.2000944
50
269.9984004
51
359.9729791
0
ARC
8
DEFAULT_255_2_778
10
26.8760674
20
89.2879999
40
0.2000302
50
180.0086511
51
270.0199897
0
ARC
8
DEFAULT_255_2_778
10
26.8772589
20
91.8877218
40
0.201222
50
135.1759492
51
179.9009609
0
ARC
8
DEFAULT_255_2_778
10
26.8755991
20
91.8887498
40
0.1993206
50
89.8453155
51
135.049198
0
LINE
8
DEFAULT_255_2_778
10
32.1759372
20
50.0880697
11
32.1759372
21
50.0880697
0
LINE
8
DEFAULT_255_2_778
10
31.4761372
20
11.0879697
11
26.8761372
21
11.0879697
0
LINE
8
DEFAULT_255_2_778
10
31.4761372
20
8.0878697
11
26.8761372
21
8.0878697
0
LINE
8
DEFAULT_255_2_778
10
31.4761372
20
89.0879697
11
26.8761372
21
89.0879697
0
LINE
8
DEFAULT_255_2_778
10
31.4761372
20
92.0880697
11
26.8761372
21
92.0880697
0
LINE
8
DEFAULT_255_2_778
10
31.6759372
20
8.2878697
11
31.6759372
21
10.8879697
0
LINE
8
DEFAULT_255_2_778
10
26.6760372
20
10.8879697
11
26.6760372
21
8.2878697
0
LINE
8
DEFAULT_255_2_778
10
31.6759372
20
91.8880697
11
31.6759372
21
89.2879697
0
LINE
8
DEFAULT_255_2_778
10
26.6760372
20
89.2879697
11
26.6760372
21
91.8880697
0
LINE
8
DEFAULT_255_2_778
10
11.8758372
20
7.9881697
11
11.8758372
21
7.8881697
0
LINE
8
DEFAULT_255_2_778
10
11.3760372
20
7.9881697
11
11.3760372
21
7.8881697
0
LINE
8
DEFAULT_255_2_778
10
10.3758372
20
7.9881697
11
10.3758372
21
7.8881697
0
LINE
8
DEFAULT_255_2_778
10
9.4760372
20
7.9881697
11
9.4760372
21
7.8881697
0
LINE
8
DEFAULT_255_2_778
10
55.1261372
20
28.8880697
11
56.6261372
21
28.7880697
0
LINE
8
DEFAULT_255_2_778
10
56.6261372
20
28.7880697
11
56.6261372
21
12.4881697
0
LINE
8
DEFAULT_255_2_778
10
56.6261372
20
12.4881697
11
43.0262372
21
12.4881697
0
LINE
8
DEFAULT_255_2_778
10
43.0262372
20
12.4881697
11
43.0262372
21
48.2881697
0
LINE
8
DEFAULT_255_2_778
10
43.0262372
20
48.2881697
11
56.6261372
21
48.2881697
0
LINE
8
DEFAULT_255_2_778
10
56.6261372
20
48.2881697
11
56.6261372
21
31.9879697
0
LINE
8
DEFAULT_255_2_778
10
56.6261372
20
31.9879697
11
55.1261372
21
31.8879697
0
LINE
8
DEFAULT_255_2_778
10
55.1259973
20
46.7878789
11
55.1259973
21
13.9880789
0
LINE
8
DEFAULT_255_2_778
10
55.1259973
20
13.9880789
11
44.5259973
21
13.9880789
0
LINE
8
DEFAULT_255_2_778
10
44.5259973
20
13.9880789
11
44.5259973
21
46.7878789
0
LINE
8
DEFAULT_255_2_778
10
44.5259973
20
46.7878789
11
55.1259973
21
46.7878789
0
LINE
8
DEFAULT_255_2_778
10
62.4961973
20
93.0878789
11
60.5758973
21
93.0878789
0
LINE
8
DEFAULT_255_2_778
10
37.1884973
20
2.3878789
11
33.0329973
21
2.3878789
0
LINE
8
DEFAULT_255_2_778
10
33.0329973
20
2.3878789
11
33.0329973
21
2.5879789
0
LINE
8
DEFAULT_255_2_778
10
35.8029117
20
2.3878838
11
35.8029117
21
2.5879838
0
LINE
8
DEFAULT_255_2_778
10
37.1888117
20
2.3878838
11
37.1888117
21
2.5879838
0
LINE
8
DEFAULT_255_2_778
10
52.6759117
20
42.2875838
11
54.0261117
21
42.2875838
0
LINE
8
DEFAULT_255_2_778
10
54.0261117
20
42.2875838
11
54.0261117
21
18.4875838
0
LINE
8
DEFAULT_255_2_778
10
54.0261117
20
18.4875838
11
52.6759117
21
18.4875838
0
LINE
8
DEFAULT_255_2_778
10
52.6759117
20
18.4875838
11
52.6759117
21
43.3874838
0
LINE
8
DEFAULT_255_2_778
10
52.6759117
20
43.3874838
11
46.9760117
21
43.3874838
0
LINE
8
DEFAULT_255_2_778
10
46.9760117
20
43.3874838
11
46.9760117
21
17.3876838
0
ARC
8
DEFAULT_255_2_778
10
60.6261876
20
92.8874166
40
0.2007979
50
90.049254
51
134.873846
0
ARC
8
DEFAULT_255_2_778
10
60.6251034
20
92.8887486
40
0.1990891
50
134.9231669
51
180.1537125
0
ARC
8
DEFAULT_255_2_778
10
60.6260452
20
70.7880447
40
0.2000302
50
179.9800103
51
269.9913489
0
LINE
8
DEFAULT_255_2_778
10
46.975915
20
18.4879145
11
45.625715
21
18.4879145
0
LINE
8
DEFAULT_255_2_778
10
45.625715
20
18.4879145
11
45.625715
21
42.2879145
0
LINE
8
DEFAULT_255_2_778
10
45.625715
20
42.2879145
11
46.975915
21
42.2879145
0
LINE
8
DEFAULT_255_2_778
10
52.675815
20
18.4879145
11
52.675815
21
17.3880145
0
LINE
8
DEFAULT_255_2_778
10
52.675815
20
17.3880145
11
46.975915
21
17.3880145
0
LINE
8
DEFAULT_255_2_778
10
46.975915
20
17.3880145
11
46.975915
21
18.4879145
0
LINE
8
DEFAULT_255_2_778
10
51.475915
20
16.6379145
11
51.475915
21
14.9880145
0
LINE
8
DEFAULT_255_2_778
10
51.475915
20
14.9880145
11
48.175815
21
14.9880145
0
LINE
8
DEFAULT_255_2_778
10
48.175815
20
14.9880145
11
48.175815
21
16.6379145
0
LINE
8
DEFAULT_255_2_778
10
48.175815
20
16.6379145
11
51.475915
21
16.6379145
0
LINE
8
DEFAULT_255_2_778
10
61.675915
20
92.9879145
11
60.675815
21
91.9878145
0
LINE
8
DEFAULT_255_2_778
10
60.675815
20
91.9878145
11
60.675815
21
82.0879145
0
LINE
8
DEFAULT_255_2_778
10
60.675815
20
82.0879145
11
63.524815
21
82.0879145
0
LINE
8
DEFAULT_255_2_778
10
63.524815
20
82.0879145
11
63.524815
21
81.5878145
0
LINE
8
DEFAULT_255_2_778
10
63.524815
20
81.5878145
11
60.675815
21
81.5878145
0
LINE
8
DEFAULT_255_2_778
10
60.675815
20
81.5878145
11
60.675815
21
71.6876145
0
LINE
8
DEFAULT_255_2_778
10
60.675815
20
71.6876145
11
61.675915
21
70.6875145
0
LINE
8
DEFAULT_255_2_778
10
61.675915
20
70.6875145
11
65.175815
21
70.6875145
0
LINE
8
DEFAULT_255_2_778
10
65.175815
20
70.6875145
11
65.175815
21
92.9879145
0
LINE
8
DEFAULT_255_2_778
10
65.175815
20
92.9879145
11
61.675915
21
92.9879145
0
LINE
8
DEFAULT_255_2_778
10
61.375915
20
82.0879145
11
61.375915
21
81.5878145
0
LINE
8
DEFAULT_255_2_778
10
62.525715
20
82.0879145
11
62.525715
21
81.5878145
0
LINE
8
DEFAULT_255_2_778
10
60.426015
20
92.8882145
11
60.426015
21
70.7881145
0
LINE
8
DEFAULT_255_2_778
10
60.626015
20
70.5880145
11
65.176115
21
70.5880145
0
LINE
8
DEFAULT_255_2_778
10
35.802815
20
97.7880145
11
35.802815
21
97.5880145
0
LINE
8
DEFAULT_255_2_778
10
33.032915
20
97.5880145
11
33.032915
21
97.7880145
0
LINE
8
DEFAULT_255_2_778
10
33.032915
20
97.7880145
11
37.188415
21
97.7880145
0
LINE
8
DEFAULT_255_2_778
10
37.188415
20
97.7880145
11
37.188415
21
97.5880145
0
ARC
8
DEFAULT_255_2_778
10
47.5257611
20
89.287964
40
0.200009
50
180.0025382
51
269.9974272
0
ARC
8
DEFAULT_255_2_778
10
52.1246298
20
91.8877069
40
0.2012227
50
0.0991619
51
44.8240077
0
ARC
8
DEFAULT_255_2_778
10
52.1263863
20
91.8889668
40
0.199089
50
44.9231816
51
90.1537286
0
ARC
8
DEFAULT_255_2_778
10
47.5261003
20
91.886833
40
0.2012224
50
90.0991214
51
134.8240219
0
ARC
8
DEFAULT_255_2_778
10
47.5248403
20
91.8885894
40
0.1990888
50
134.9231527
51
180.153753
0
LINE
8
DEFAULT_255_2_778
10
47.3257522
20
89.2879552
11
47.3257522
21
91.8880552
0
LINE
8
DEFAULT_255_2_778
10
52.3258522
20
91.8880552
11
52.3258522
21
89.2879552
0
LINE
8
DEFAULT_255_2_778
10
52.1258522
20
89.0879552
11
47.5257522
21
89.0879552
0
ARC
8
DEFAULT_255_2_778
10
47.5257608
20
8.2881659
40
0.2000087
50
180.0025037
51
269.9975106
0
ARC
8
DEFAULT_255_2_778
10
52.124396
20
10.8876125
40
0.2014565
50
0.0980219
51
44.7965714
0
ARC
8
DEFAULT_255_2_778
10
52.1263529
20
10.8885465
40
0.1994111
50
45.0023211
51
90.1438913
0
LINE
8
DEFAULT_255_2_778
10
52.1258522
20
92.0880572
11
47.5257522
21
92.0880572
0
ARC
8
DEFAULT_255_2_778
10
47.5261003
20
10.886733
40
0.2012224
50
90.0991214
51
134.8240219
0
ARC
8
DEFAULT_255_2_778
10
47.5248403
20
10.8884894
40
0.1990888
50
134.9231527
51
180.153753
0
LINE
8
DEFAULT_255_2_778
10
52.3258522
20
8.2878552
11
52.3258522
21
10.8879552
0
LINE
8
DEFAULT_255_2_778
10
47.3257522
20
10.8879552
11
47.3257522
21
8.2878552
0
LINE
8
DEFAULT_255_2_778
10
52.1258522
20
11.0879552
11
47.5257522
21
11.0879552
0
LINE
8
DEFAULT_255_2_778
10
52.1258522
20
8.0878552
11
47.5257522
21
8.0878552
0
ENDSEC
0
EOF