0
SECTION
2
HEADER
9
$MEASUREMENT
70
1
0
ENDSEC
0
SECTION
2
TABLES
0
TABLE
2
LTYPE
0
LTYPE
72
65
70
64
2
CONTINUOUS
3
______
73
0
40
0
0
ENDTAB
0
TABLE
2
LAYER
0
LAYER
2
DEFAULT_255_2_778
70
0
62
255
6
CONTINUOUS
0
ENDTAB
0
ENDSEC
0
SECTION
2
ENTITIES
0
ARC
8
DEFAULT_255_2_778
10
21.1179708
20
3.2997541
40
1.9929158
50
179.926605
51
204.3113989
0
ARC
8
DEFAULT_255_2_778
10
21.1268141
20
3.3048072
40
2.0030556
50
204.3389823
51
260.1972101
0
ARC
8
DEFAULT_255_2_778
10
21.1244416
20
3.3154685
40
2.0131615
50
260.3154071
51
270.0175033
0
ARC
8
DEFAULT_255_2_778
10
21.1276159
20
3.2951192
40
1.9928139
50
269.9264183
51
294.3120318
0
ARC
8
DEFAULT_255_2_778
10
21.1224229
20
3.3041429
40
2.0031756
50
294.34113
51
350.1955271
0
ARC
8
DEFAULT_255_2_778
10
21.1114554
20
3.3018766
40
2.0136013
50
350.3122132
51
0.0122462
0
LINE
8
DEFAULT_255_2_778
10
0.5750566
20
70.351907
11
0.1750566
21
70.351907
0
LINE
8
DEFAULT_255_2_778
10
0.1750566
20
70.351907
11
0.1750566
21
92.352007
0
LINE
8
DEFAULT_255_2_778
10
0.1750566
20
92.352007
11
0.5750566
21
92.352007
0
LINE
8
DEFAULT_255_2_778
10
2.0752566
20
2.102107
11
2.0752566
21
1.902107
0
LINE
8
DEFAULT_255_2_778
10
2.0752566
20
1.902107
11
3.6752566
21
1.902107
0
LINE
8
DEFAULT_255_2_778
10
3.6752566
20
1.902107
11
3.6752566
21
2.102107
0
LINE
8
DEFAULT_255_2_778
10
1.1251566
20
4.602207
11
1.1251566
21
2.102107
0
LINE
8
DEFAULT_255_2_778
10
1.1251566
20
2.102107
11
4.6250566
21
2.102107
0
LINE
8
DEFAULT_255_2_778
10
4.6250566
20
2.102107
11
4.6250566
21
4.602207
0
LINE
8
DEFAULT_255_2_778
10
3.6752566
20
97.102107
11
3.6752566
21
97.302107
0
LINE
8
DEFAULT_255_2_778
10
3.6752566
20
97.302107
11
2.0752566
21
97.302107
0
LINE
8
DEFAULT_255_2_778
10
2.0752566
20
97.302107
11
2.0752566
21
97.102107
0
LINE
8
DEFAULT_255_2_778
10
4.6253566
20
94.602007
11
4.6253566
21
97.102107
0
LINE
8
DEFAULT_255_2_778
10
4.6253566
20
97.102107
11
1.1251566
21
97.102107
0
LINE
8
DEFAULT_255_2_778
10
1.1251566
20
97.102107
11
1.1251566
21
94.602007
0
LINE
8
DEFAULT_255_2_778
10
23.1250566
20
3.302307
11
25.6250566
21
3.302307
0
LINE
8
DEFAULT_255_2_778
10
25.6250566
20
3.302307
11
25.6250566
21
4.302407
0
LINE
8
DEFAULT_255_2_778
10
25.6250566
20
4.302407
11
16.6249566
21
4.302407
0
LINE
8
DEFAULT_255_2_778
10
16.6249566
20
4.302407
11
16.6249566
21
3.302307
0
LINE
8
DEFAULT_255_2_778
10
16.6249566
20
3.302307
11
19.1250566
21
3.302307
0
LINE
8
DEFAULT_255_2_778
10
27.0625566
20
4.602207
11
27.0625566
21
1.802107
0
LINE
8
DEFAULT_255_2_778
10
27.0625566
20
1.802107
11
24.6249566
21
-0.197893
0
LINE
8
DEFAULT_255_2_778
10
24.6249566
20
-0.197893
11
17.6251566
21
-0.197893
0
LINE
8
DEFAULT_255_2_778
10
17.6251566
20
-0.197893
11
15.1875566
21
1.802107
0
LINE
8
DEFAULT_255_2_778
10
15.1875566
20
1.802107
11
15.1875566
21
4.602207
0
ARC
8
DEFAULT_255_2_778
10
16.0740374
20
49.9030453
40
0.4989912
50
89.8725621
51
180.1159799
0
ARC
8
DEFAULT_255_2_778
10
16.0762424
20
49.9031303
40
0.4989061
50
359.8742308
51
90.1257692
0
ARC
8
DEFAULT_255_2_778
10
16.0761574
20
49.9009253
40
0.4989912
50
269.8840201
51
0.1274379
0
ARC
8
DEFAULT_255_2_778
10
16.0741225
20
49.9010104
40
0.4990763
50
179.88235
51
270.11765
0
LINE
8
DEFAULT_255_2_778
10
15.5750473
20
49.9020352
11
15.5750473
21
49.9020352
0
LINE
8
DEFAULT_255_2_778
10
31.5749473
20
94.6020352
11
31.5749473
21
4.6021352
0
LINE
8
DEFAULT_255_2_778
10
31.5749473
20
4.6021352
11
0.5750473
21
4.6021352
0
LINE
8
DEFAULT_255_2_778
10
0.5750473
20
4.6021352
11
0.5750473
21
94.6020352
0
LINE
8
DEFAULT_255_2_778
10
0.5750473
20
94.6020352
11
31.5749473
21
94.6020352
0
LINE
8
DEFAULT_255_2_778
10
3.275166
20
88.1019853
11
3.275166
21
90.5019853
0
LINE
8
DEFAULT_255_2_778
10
3.275166
20
90.5019853
11
3.675166
21
90.5019853
0
LINE
8
DEFAULT_255_2_778
10
3.675166
20
90.5019853
11
3.675166
21
88.1019853
0
LINE
8
DEFAULT_255_2_778
10
3.675166
20
88.1019853
11
3.275166
21
88.1019853
0
LINE
8
DEFAULT_255_2_778
10
3.275166
20
84.9020853
11
3.275166
21
87.3021853
0
LINE
8
DEFAULT_255_2_778
10
3.275166
20
87.3021853
11
3.675166
21
87.3021853
0
LINE
8
DEFAULT_255_2_778
10
3.675166
20
87.3021853
11
3.675166
21
84.9020853
0
LINE
8
DEFAULT_255_2_778
10
3.675166
20
84.9020853
11
3.275166
21
84.9020853
0
LINE
8
DEFAULT_255_2_778
10
26.525166
20
84.9020853
11
26.525166
21
85.7021853
0
LINE
8
DEFAULT_255_2_778
10
26.525166
20
85.7021853
11
27.625066
21
85.7021853
0
LINE
8
DEFAULT_255_2_778
10
27.625066
20
85.7021853
11
27.625066
21
84.9020853
0
LINE
8
DEFAULT_255_2_778
10
27.625066
20
84.9020853
11
26.525166
21
84.9020853
0
LINE
8
DEFAULT_255_2_778
10
26.525166
20
86.5020853
11
26.525166
21
87.3021853
0
LINE
8
DEFAULT_255_2_778
10
26.525166
20
87.3021853
11
27.625066
21
87.3021853
0
LINE
8
DEFAULT_255_2_778
10
27.625066
20
87.3021853
11
27.625066
21
86.5020853
0
LINE
8
DEFAULT_255_2_778
10
27.625066
20
86.5020853
11
26.525166
21
86.5020853
0
LINE
8
DEFAULT_255_2_778
10
27.625066
20
88.9020853
11
27.625066
21
88.1019853
0
LINE
8
DEFAULT_255_2_778
10
27.625066
20
88.1019853
11
26.525166
21
88.1019853
0
LINE
8
DEFAULT_255_2_778
10
26.525166
20
88.1019853
11
26.525166
21
88.9020853
0
LINE
8
DEFAULT_255_2_778
10
26.525166
20
88.9020853
11
27.625066
21
88.9020853
0
LINE
8
DEFAULT_255_2_778
10
26.525166
20
89.7021853
11
26.525166
21
90.5022853
0
LINE
8
DEFAULT_255_2_778
10
26.525166
20
90.5022853
11
27.625066
21
90.5022853
0
LINE
8
DEFAULT_255_2_778
10
27.625066
20
90.5022853
11
27.625066
21
89.7021853
0
LINE
8
DEFAULT_255_2_778
10
27.625066
20
89.7021853
11
26.525166
21
89.7021853
0
LINE
8
DEFAULT_255_2_778
10
9.565066
20
87.3021853
11
8.465266
21
87.3021853
0
LINE
8
DEFAULT_255_2_778
10
8.465266
20
87.3021853
11
8.465266
21
86.5020853
0
LINE
8
DEFAULT_255_2_778
10
8.465266
20
86.5020853
11
9.565066
21
86.5020853
0
LINE
8
DEFAULT_255_2_778
10
9.565066
20
84.9020853
11
8.465266
21
84.9020853
0
LINE
8
DEFAULT_255_2_778
10
8.465266
20
84.9020853
11
8.465266
21
85.7021853
0
LINE
8
DEFAULT_255_2_778
10
8.465266
20
85.7021853
11
9.565066
21
85.7021853
0
LINE
8
DEFAULT_255_2_778
10
9.565066
20
88.9020853
11
8.465266
21
88.9020853
0
LINE
8
DEFAULT_255_2_778
10
8.465266
20
88.9020853
11
8.465266
21
88.1019853
0
LINE
8
DEFAULT_255_2_778
10
8.465266
20
88.1019853
11
9.565066
21
88.1019853
0
LINE
8
DEFAULT_255_2_778
10
9.565066
20
89.7018853
11
8.465266
21
89.7018853
0
LINE
8
DEFAULT_255_2_778
10
8.465266
20
89.7018853
11
8.465266
21
90.5019853
0
LINE
8
DEFAULT_255_2_778
10
8.465266
20
90.5019853
11
9.565066
21
90.5019853
0
LINE
8
DEFAULT_255_2_778
10
9.5650992
20
86.5020176
11
9.5650992
21
87.3021176
0
LINE
8
DEFAULT_255_2_778
10
5.5251992
20
87.3021176
11
5.5251992
21
86.5020176
0
LINE
8
DEFAULT_255_2_778
10
5.5251992
20
86.5020176
11
6.6250992
21
86.5020176
0
LINE
8
DEFAULT_255_2_778
10
6.6250992
20
86.5020176
11
6.6250992
21
87.3021176
0
LINE
8
DEFAULT_255_2_778
10
6.6250992
20
87.3021176
11
5.5251992
21
87.3021176
0
LINE
8
DEFAULT_255_2_778
10
9.5650992
20
84.9021176
11
9.5650992
21
85.7022176
0
LINE
8
DEFAULT_255_2_778
10
5.5251992
20
85.7022176
11
5.5251992
21
84.9021176
0
LINE
8
DEFAULT_255_2_778
10
5.5251992
20
84.9021176
11
6.6250992
21
84.9021176
0
LINE
8
DEFAULT_255_2_778
10
6.6250992
20
84.9021176
11
6.6250992
21
85.7022176
0
LINE
8
DEFAULT_255_2_778
10
6.6250992
20
85.7022176
11
5.5251992
21
85.7022176
0
LINE
8
DEFAULT_255_2_778
10
9.5650992
20
88.1022176
11
9.5650992
21
88.9023176
0
LINE
8
DEFAULT_255_2_778
10
5.5251992
20
88.9023176
11
5.5251992
21
88.1022176
0
LINE
8
DEFAULT_255_2_778
10
5.5251992
20
88.1022176
11
6.6250992
21
88.1022176
0
LINE
8
DEFAULT_255_2_778
10
6.6250992
20
88.1022176
11
6.6250992
21
88.9023176
0
LINE
8
DEFAULT_255_2_778
10
6.6250992
20
88.9023176
11
5.5251992
21
88.9023176
0
LINE
8
DEFAULT_255_2_778
10
9.5650992
20
89.7024176
11
9.5650992
21
90.5025176
0
LINE
8
DEFAULT_255_2_778
10
5.5251992
20
90.5025176
11
5.5251992
21
89.7024176
0
LINE
8
DEFAULT_255_2_778
10
5.5251992
20
89.7024176
11
6.6250992
21
89.7024176
0
LINE
8
DEFAULT_255_2_778
10
6.6250992
20
89.7024176
11
6.6250992
21
90.5025176
0
LINE
8
DEFAULT_255_2_778
10
6.6250992
20
90.5025176
11
5.5251992
21
90.5025176
0
LINE
8
DEFAULT_255_2_778
10
24.6849992
20
87.3021176
11
24.6849992
21
86.5020176
0
LINE
8
DEFAULT_255_2_778
10
24.6849992
20
86.5020176
11
23.5850992
21
86.5020176
0
LINE
8
DEFAULT_255_2_778
10
23.5850992
20
86.5020176
11
23.5850992
21
87.3021176
0
LINE
8
DEFAULT_255_2_778
10
23.5850992
20
87.3021176
11
24.6849992
21
87.3021176
0
LINE
8
DEFAULT_255_2_778
10
24.6849992
20
85.7022176
11
24.6849992
21
84.9021176
0
LINE
8
DEFAULT_255_2_778
10
24.6849992
20
84.9021176
11
23.5850992
21
84.9021176
0
LINE
8
DEFAULT_255_2_778
10
23.5850992
20
84.9021176
11
23.5850992
21
85.7022176
0
LINE
8
DEFAULT_255_2_778
10
23.5850992
20
85.7022176
11
24.6849992
21
85.7022176
0
LINE
8
DEFAULT_255_2_778
10
24.6849992
20
88.9020176
11
24.6849992
21
88.1019176
0
LINE
8
DEFAULT_255_2_778
10
24.6849992
20
88.1019176
11
23.5850992
21
88.1019176
0
LINE
8
DEFAULT_255_2_778
10
23.5850992
20
88.1019176
11
23.5850992
21
88.9020176
0
LINE
8
DEFAULT_255_2_778
10
23.5850992
20
88.9020176
11
24.6849992
21
88.9020176
0
LINE
8
DEFAULT_255_2_778
10
23.5850992
20
89.7021176
11
24.6849992
21
89.7021176
0
LINE
8
DEFAULT_255_2_778
10
24.6849992
20
89.7021176
11
24.6849992
21
90.5022176
0
LINE
8
DEFAULT_255_2_778
10
24.6849992
20
90.5022176
11
23.5850992
21
90.5022176
0
LINE
8
DEFAULT_255_2_778
10
23.5850992
20
90.5022176
11
23.5850992
21
89.7021176
0
LINE
8
DEFAULT_255_2_778
10
9.5651096
20
86.5020176
11
23.5851096
21
86.5020176
0
LINE
8
DEFAULT_255_2_778
10
9.5651096
20
87.3021176
11
23.5851096
21
87.3021176
0
LINE
8
DEFAULT_255_2_778
10
9.5651096
20
85.7019176
11
23.5851096
21
85.7019176
0
LINE
8
DEFAULT_255_2_778
10
9.5651096
20
84.9021176
11
23.5851096
21
84.9021176
0
LINE
8
DEFAULT_255_2_778
10
9.5651096
20
88.1020176
11
23.5851096
21
88.1020176
0
LINE
8
DEFAULT_255_2_778
10
9.5651096
20
88.9021176
11
23.5851096
21
88.9021176
0
LINE
8
DEFAULT_255_2_778
10
9.5651096
20
89.7019176
11
23.5851096
21
89.7019176
0
LINE
8
DEFAULT_255_2_778
10
9.5651096
20
90.5020176
11
23.5851096
21
90.5020176
0
LINE
8
DEFAULT_255_2_778
10
6.0750096
20
7.6520176
11
24.9750096
21
7.6520176
0
LINE
8
DEFAULT_255_2_778
10
12.9751034
20
9.1522425
11
12.9751034
21
16.3922425
0
LINE
8
DEFAULT_255_2_778
10
12.9751034
20
16.3922425
11
11.6752034
21
16.3922425
0
LINE
8
DEFAULT_255_2_778
10
11.6752034
20
16.3922425
11
11.6752034
21
18.2321425
0
LINE
8
DEFAULT_255_2_778
10
11.6752034
20
18.2321425
11
9.2751034
21
18.2321425
0
LINE
8
DEFAULT_255_2_778
10
9.2751034
20
18.2321425
11
9.2751034
21
16.3922425
0
LINE
8
DEFAULT_255_2_778
10
9.2751034
20
16.3922425
11
7.9750034
21
16.3922425
0
LINE
8
DEFAULT_255_2_778
10
7.9750034
20
16.3922425
11
7.9750034
21
9.1522425
0
LINE
8
DEFAULT_255_2_778
10
11.9749034
20
16.3922425
11
11.9749034
21
19.0143425
0
LINE
8
DEFAULT_255_2_778
10
11.9749034
20
19.0143425
11
8.9751034
21
19.0143425
0
LINE
8
DEFAULT_255_2_778
10
8.9751034
20
19.0143425
11
8.9751034
21
16.3922425
0
LINE
8
DEFAULT_255_2_778
10
7.3651034
20
16.3920425
11
6.3750034
21
16.3920425
0
LINE
8
DEFAULT_255_2_778
10
16.5750034
20
11.0519425
11
15.0751034
21
11.0519425
0
LINE
8
DEFAULT_255_2_778
10
15.0751034
20
11.0519425
11
15.0751034
21
15.9020425
0
LINE
8
DEFAULT_255_2_778
10
14.5750034
20
9.2929425
11
16.5750034
21
9.2755425
0
LINE
8
DEFAULT_255_2_778
10
6.0750034
20
8.3899425
11
25.0750034
21
8.2240425
0
LINE
8
DEFAULT_255_2_778
10
8.8550034
20
20.4221425
11
9.0995034
21
20.1776425
0
LINE
8
DEFAULT_255_2_778
10
9.0995034
20
20.1776425
11
9.3109034
21
20.1776425
0
LINE
8
DEFAULT_255_2_778
10
9.3109034
20
20.1776425
11
9.3109034
21
19.9662425
0
LINE
8
DEFAULT_255_2_778
10
9.3109034
20
19.9662425
11
9.0995034
21
19.9662425
0
LINE
8
DEFAULT_255_2_778
10
9.0995034
20
19.9662425
11
9.0995034
21
20.1776425
0
LINE
8
DEFAULT_255_2_778
10
9.0993845
20
19.9664214
11
8.8850845
21
19.7521214
0
LINE
8
DEFAULT_255_2_778
10
12.0949845
20
19.7220214
11
11.8505845
21
19.9664214
0
LINE
8
DEFAULT_255_2_778
10
11.8505845
20
19.9664214
11
11.6390845
21
19.9664214
0
LINE
8
DEFAULT_255_2_778
10
11.6390845
20
19.9664214
11
11.6390845
21
20.1778214
0
LINE
8
DEFAULT_255_2_778
10
11.6390845
20
20.1778214
11
11.8505845
21
20.1778214
0
LINE
8
DEFAULT_255_2_778
10
11.8505845
20
20.1778214
11
11.8505845
21
19.9664214
0
LINE
8
DEFAULT_255_2_778
10
11.6393845
20
19.9664214
11
11.3951845
21
19.7220214
0
LINE
8
DEFAULT_255_2_778
10
9.5549845
20
19.7220214
11
9.3105845
21
19.9664214
0
LINE
8
DEFAULT_255_2_778
10
11.6390845
20
20.1776214
11
11.3948845
21
20.4220214
0
LINE
8
DEFAULT_255_2_778
10
9.5549845
20
20.4220214
11
9.3105845
21
20.1776214
0
LINE
8
DEFAULT_255_2_778
10
12.9749845
20
56.9020214
11
12.9749845
21
46.6121214
0
LINE
8
DEFAULT_255_2_778
10
12.9749845
20
46.6121214
11
11.6750845
21
46.6121214
0
LINE
8
DEFAULT_255_2_778
10
11.6750845
20
46.6121214
11
11.6750845
21
44.7722214
0
LINE
8
DEFAULT_255_2_778
10
11.6750845
20
44.7722214
11
9.2750845
21
44.7722214
0
LINE
8
DEFAULT_255_2_778
10
9.2750845
20
44.7722214
11
9.2750845
21
46.6121214
0
LINE
8
DEFAULT_255_2_778
10
9.2750845
20
46.6121214
11
7.9748845
21
46.6121214
0
LINE
8
DEFAULT_255_2_778
10
7.9748845
20
46.6121214
11
7.9748845
21
53.8521214
0
LINE
8
DEFAULT_255_2_778
10
10.9540845
20
56.4197214
11
12.9749845
21
56.4019214
0
LINE
8
DEFAULT_255_2_778
10
7.3650845
20
46.6121214
11
6.3749845
21
46.6121214
0
LINE
8
DEFAULT_255_2_778
10
11.9751448
20
46.6121989
11
11.9751448
21
43.9901989
0
LINE
8
DEFAULT_255_2_778
10
11.9751448
20
43.9901989
11
8.9750448
21
43.9901989
0
LINE
8
DEFAULT_255_2_778
10
8.9750448
20
43.9901989
11
8.9750448
21
46.6121989
0
LINE
8
DEFAULT_255_2_778
10
9.3108448
20
42.8262989
11
9.0994448
21
42.8262989
0
LINE
8
DEFAULT_255_2_778
10
9.0994448
20
42.8262989
11
9.0994448
21
43.0376989
0
LINE
8
DEFAULT_255_2_778
10
9.0994448
20
43.0376989
11
9.3108448
21
43.0376989
0
LINE
8
DEFAULT_255_2_778
10
9.3108448
20
43.0376989
11
9.3108448
21
42.8262989
0
LINE
8
DEFAULT_255_2_778
10
9.3108448
20
42.8262989
11
9.5552448
21
42.5817989
0
LINE
8
DEFAULT_255_2_778
10
11.6394898
20
43.037641
11
11.3949898
21
43.282041
0
LINE
8
DEFAULT_255_2_778
10
9.5550898
20
43.282041
11
9.3105898
21
43.037641
0
LINE
8
DEFAULT_255_2_778
10
9.0994898
20
43.037641
11
8.8549898
21
43.281841
0
LINE
8
DEFAULT_255_2_778
10
9.0994898
20
42.826241
11
8.8549898
21
42.582041
0
LINE
8
DEFAULT_255_2_778
10
11.6394898
20
42.826441
11
11.3949898
21
42.582041
0
LINE
8
DEFAULT_255_2_778
10
12.0950898
20
43.282041
11
12.0950898
21
42.582041
0
LINE
8
DEFAULT_255_2_778
10
12.0950898
20
42.582041
11
11.8505898
21
42.826441
0
LINE
8
DEFAULT_255_2_778
10
10.9514898
20
56.589541
11
6.0749898
21
56.589341
0
LINE
8
DEFAULT_255_2_778
10
10.9514898
20
53.851941
11
10.9514898
21
56.589541
0
LINE
8
DEFAULT_255_2_778
10
16.5749898
20
53.402141
11
14.5749898
21
53.402141
0
LINE
8
DEFAULT_255_2_778
10
14.5749898
20
52.652041
11
16.5749898
21
52.652041
0
LINE
8
DEFAULT_255_2_778
10
15.1750898
20
56.401941
11
15.1750898
21
53.401841
0
LINE
8
DEFAULT_255_2_778
10
22.5881898
20
56.902041
11
22.5881898
21
53.851941
0
LINE
8
DEFAULT_255_2_778
10
19.5247898
20
56.401941
11
19.5247898
21
53.851941
0
LINE
8
DEFAULT_255_2_778
10
14.1749898
20
53.851941
11
14.1749898
21
56.401941
0
LINE
8
DEFAULT_255_2_778
10
14.1749898
20
56.401941
11
22.5878898
21
56.401941
0
LINE
8
DEFAULT_255_2_778
10
23.1752898
20
9.152141
11
23.1752898
21
16.392241
0
LINE
8
DEFAULT_255_2_778
10
23.1752898
20
16.392241
11
21.8753898
21
16.392241
0
LINE
8
DEFAULT_255_2_778
10
21.8753898
20
16.392241
11
21.8753898
21
18.232141
0
LINE
8
DEFAULT_255_2_778
10
21.8753898
20
18.232141
11
19.4753898
21
18.232141
0
LINE
8
DEFAULT_255_2_778
10
19.4753898
20
18.232141
11
19.4753898
21
16.392241
0
LINE
8
DEFAULT_255_2_778
10
19.4753898
20
16.392241
11
18.1754898
21
16.392241
0
LINE
8
DEFAULT_255_2_778
10
18.1754898
20
16.392241
11
18.1754898
21
9.152141
0
LINE
8
DEFAULT_255_2_778
10
19.1755898
20
16.392241
11
19.1755898
21
19.014241
0
LINE
8
DEFAULT_255_2_778
10
19.1755898
20
19.014241
11
22.1751898
21
19.014241
0
LINE
8
DEFAULT_255_2_778
10
22.1751898
20
19.014241
11
22.1751898
21
16.392241
0
LINE
8
DEFAULT_255_2_778
10
23.7850898
20
16.391941
11
24.7751898
21
16.391941
0
LINE
8
DEFAULT_255_2_778
10
21.5951898
20
19.722041
11
21.8393898
21
19.966441
0
LINE
8
DEFAULT_255_2_778
10
21.8393898
20
19.966441
11
22.0507898
21
19.966441
0
LINE
8
DEFAULT_255_2_778
10
22.0507898
20
19.966441
11
22.2650898
21
19.752141
0
LINE
8
DEFAULT_255_2_778
10
16.5749898
20
16.391941
11
17.5650898
21
16.391941
0
LINE
8
DEFAULT_255_2_778
10
14.5749898
20
16.391941
11
13.5848898
21
16.391941
0
LINE
8
DEFAULT_255_2_778
10
14.5749898
20
15.901941
11
16.5749898
21
15.901941
0
LINE
8
DEFAULT_255_2_778
10
19.5107898
20
20.177641
11
19.7552898
21
20.422041
0
LINE
8
DEFAULT_255_2_778
10
19.2993461
20
20.1776631
11
19.2993461
21
19.9662631
0
LINE
8
DEFAULT_255_2_778
10
21.8393461
20
19.9662631
11
21.8393461
21
20.1776631
0
LINE
8
DEFAULT_255_2_778
10
22.0507461
20
19.9662631
11
22.0507461
21
20.1776631
0
LINE
8
DEFAULT_255_2_778
10
19.2993461
20
42.8264631
11
19.5104461
21
42.8264631
0
LINE
8
DEFAULT_255_2_778
10
19.5104461
20
42.8264631
11
19.7549461
21
42.5820631
0
LINE
8
DEFAULT_255_2_778
10
19.2993461
20
43.0376631
11
19.5104461
21
43.0376631
0
LINE
8
DEFAULT_255_2_778
10
19.5104461
20
43.0376631
11
19.7546461
21
43.2821631
0
LINE
8
DEFAULT_255_2_778
10
19.5107461
20
42.8262631
11
19.5107461
21
43.0376631
0
LINE
8
DEFAULT_255_2_778
10
21.8396461
20
43.0376631
11
21.8396461
21
42.8262631
0
LINE
8
DEFAULT_255_2_778
10
22.0510461
20
43.0376631
11
22.0510461
21
42.8262631
0
LINE
8
DEFAULT_255_2_778
10
23.1752461
20
53.8519631
11
23.1752461
21
46.6118631
0
LINE
8
DEFAULT_255_2_778
10
23.1752461
20
46.6118631
11
21.8753461
21
46.6118631
0
LINE
8
DEFAULT_255_2_778
10
21.8753461
20
46.6118631
11
21.8753461
21
44.7719631
0
LINE
8
DEFAULT_255_2_778
10
21.8753461
20
44.7719631
11
19.4752461
21
44.7719631
0
LINE
8
DEFAULT_255_2_778
10
19.4752461
20
44.7719631
11
19.4752461
21
46.6118631
0
LINE
8
DEFAULT_255_2_778
10
19.4752461
20
46.6118631
11
18.1753461
21
46.6118631
0
LINE
8
DEFAULT_255_2_778
10
18.1753461
20
46.6118631
11
18.1753461
21
53.8519631
0
LINE
8
DEFAULT_255_2_778
10
19.1755461
20
46.6118631
11
19.1755461
21
43.9898631
0
LINE
8
DEFAULT_255_2_778
10
19.1755461
20
43.9898631
11
22.1750461
21
43.9898631
0
LINE
8
DEFAULT_255_2_778
10
22.1750461
20
43.9898631
11
22.1750461
21
46.6118631
0
LINE
8
DEFAULT_255_2_778
10
23.7850461
20
46.6121631
11
24.7751461
21
46.6121631
0
LINE
8
DEFAULT_255_2_778
10
16.5749461
20
46.6121631
11
17.5649461
21
46.6121631
0
LINE
8
DEFAULT_255_2_778
10
14.5749461
20
46.6121631
11
13.5848461
21
46.6121631
0
LINE
8
DEFAULT_255_2_778
10
11.8748461
20
37.5020631
11
11.8748461
21
38.2021631
0
LINE
8
DEFAULT_255_2_778
10
11.8748461
20
40.0420631
11
11.8748461
21
40.7421631
0
LINE
8
DEFAULT_255_2_778
10
12.0947461
20
38.2021631
11
11.3946461
21
38.2021631
0
LINE
8
DEFAULT_255_2_778
10
11.3946461
20
38.2021631
11
11.3946461
21
37.5020631
0
LINE
8
DEFAULT_255_2_778
10
11.3946461
20
37.5020631
11
12.0947461
21
37.5020631
0
LINE
8
DEFAULT_255_2_778
10
12.0947461
20
37.5020631
11
12.0947461
21
38.2021631
0
LINE
8
DEFAULT_255_2_778
10
11.3946461
20
40.7421631
11
11.3946461
21
40.0420631
0
LINE
8
DEFAULT_255_2_778
10
11.3946461
20
40.0420631
11
12.0947461
21
40.0420631
0
LINE
8
DEFAULT_255_2_778
10
12.0947461
20
40.0420631
11
12.0947461
21
40.7421631
0
LINE
8
DEFAULT_255_2_778
10
12.0947461
20
40.7421631
11
11.3946461
21
40.7421631
0
LINE
8
DEFAULT_255_2_778
10
11.8502461
20
43.0376631
11
11.8502461
21
42.8262631
0
LINE
8
DEFAULT_255_2_778
10
11.8502461
20
42.8262631
11
11.6388461
21
42.8262631
0
LINE
8
DEFAULT_255_2_778
10
11.6388461
20
42.8262631
11
11.6388461
21
43.0376631
0
LINE
8
DEFAULT_255_2_778
10
11.6388461
20
43.0376631
11
11.8502461
21
43.0376631
0
LINE
8
DEFAULT_255_2_778
10
11.8502461
20
43.0376631
11
12.0947461
21
43.2821631
0
LINE
8
DEFAULT_255_2_778
10
12.0947461
20
43.2821631
11
11.3946461
21
43.2821631
0
LINE
8
DEFAULT_255_2_778
10
11.3946461
20
43.2821631
11
11.3946461
21
42.5820631
0
LINE
8
DEFAULT_255_2_778
10
11.3946461
20
42.5820631
11
12.0947461
21
42.5820631
0
LINE
8
DEFAULT_255_2_778
10
9.5547461
20
37.5020631
11
9.5547461
21
38.2021631
0
LINE
8
DEFAULT_255_2_778
10
9.5547461
20
38.2021631
11
8.8546461
21
38.2021631
0
LINE
8
DEFAULT_255_2_778
10
8.8546461
20
38.2021631
11
8.8546461
21
37.5020631
0
LINE
8
DEFAULT_255_2_778
10
8.8546461
20
37.5020631
11
9.5547461
21
37.5020631
0
LINE
8
DEFAULT_255_2_778
10
8.8546461
20
43.2821631
11
8.8546461
21
42.5820631
0
LINE
8
DEFAULT_255_2_778
10
8.8546461
20
42.5820631
11
9.5547461
21
42.5820631
0
LINE
8
DEFAULT_255_2_778
10
9.5547461
20
42.5820631
11
9.5547461
21
43.2821631
0
LINE
8
DEFAULT_255_2_778
10
9.5547461
20
43.2821631
11
8.8546461
21
43.2821631
0
LINE
8
DEFAULT_255_2_778
10
8.8546461
20
40.7421631
11
8.8546461
21
40.0420631
0
LINE
8
DEFAULT_255_2_778
10
8.8546461
20
40.0420631
11
9.5547461
21
40.0420631
0
LINE
8
DEFAULT_255_2_778
10
9.5547461
20
40.0420631
11
9.5547461
21
40.7421631
0
LINE
8
DEFAULT_255_2_778
10
9.5547461
20
40.7421631
11
8.8546461
21
40.7421631
0
LINE
8
DEFAULT_255_2_778
10
11.3949461
20
24.8020631
11
11.3949461
21
25.5021631
0
LINE
8
DEFAULT_255_2_778
10
11.3949461
20
25.5021631
11
12.0950461
21
25.5021631
0
LINE
8
DEFAULT_255_2_778
10
12.0950461
20
25.5021631
11
12.0950461
21
24.8020631
0
LINE
8
DEFAULT_255_2_778
10
12.0950461
20
24.8020631
11
11.3949461
21
24.8020631
0
LINE
8
DEFAULT_255_2_778
10
12.0950461
20
22.9621631
11
12.0950461
21
22.2620631
0
LINE
8
DEFAULT_255_2_778
10
12.0950461
20
22.2620631
11
11.3949461
21
22.2620631
0
LINE
8
DEFAULT_255_2_778
10
11.3949461
20
22.2620631
11
11.3949461
21
22.9621631
0
LINE
8
DEFAULT_255_2_778
10
11.3949461
20
22.9621631
11
12.0950461
21
22.9621631
0
LINE
8
DEFAULT_255_2_778
10
11.8505461
20
20.1776631
11
12.0950461
21
20.4221631
0
LINE
8
DEFAULT_255_2_778
10
12.0950461
20
20.4221631
11
12.0950461
21
19.7220631
0
LINE
8
DEFAULT_255_2_778
10
12.0950461
20
19.7220631
11
11.3949461
21
19.7220631
0
LINE
8
DEFAULT_255_2_778
10
11.3949461
20
19.7220631
11
11.3949461
21
20.4221631
0
LINE
8
DEFAULT_255_2_778
10
11.3949461
20
20.4221631
11
12.0950461
21
20.4221631
0
LINE
8
DEFAULT_255_2_778
10
11.8751461
20
24.8020631
11
11.8751461
21
25.5021631
0
LINE
8
DEFAULT_255_2_778
10
11.8751461
20
22.2620631
11
11.8751461
21
22.9621631
0
LINE
8
DEFAULT_255_2_778
10
9.5550461
20
25.5021631
11
9.5550461
21
24.8020631
0
LINE
8
DEFAULT_255_2_778
10
9.5550461
20
24.8020631
11
8.8549461
21
24.8020631
0
LINE
8
DEFAULT_255_2_778
10
8.8549461
20
24.8020631
11
8.8549461
21
25.5021631
0
LINE
8
DEFAULT_255_2_778
10
8.8549461
20
25.5021631
11
9.5550461
21
25.5021631
0
LINE
8
DEFAULT_255_2_778
10
8.8549461
20
21.1221631
11
9.5550461
21
21.1221631
0
LINE
8
DEFAULT_255_2_778
10
8.8549461
20
22.9621631
11
9.5550461
21
22.9621631
0
LINE
8
DEFAULT_255_2_778
10
9.5550461
20
22.9621631
11
9.5550461
21
22.2620631
0
LINE
8
DEFAULT_255_2_778
10
9.5550461
20
22.2620631
11
8.8549461
21
22.2620631
0
LINE
8
DEFAULT_255_2_778
10
8.8549461
20
22.2620631
11
8.8549461
21
22.9621631
0
LINE
8
DEFAULT_255_2_778
10
9.5550461
20
20.4221631
11
9.5550461
21
19.7220631
0
LINE
8
DEFAULT_255_2_778
10
9.5550461
20
19.7220631
11
8.8549461
21
19.7220631
0
LINE
8
DEFAULT_255_2_778
10
8.8549461
20
19.7220631
11
8.8549461
21
20.4221631
0
LINE
8
DEFAULT_255_2_778
10
8.8549461
20
20.4221631
11
9.5550461
21
20.4221631
0
LINE
8
DEFAULT_255_2_778
10
22.0750273
20
24.8020993
11
22.0750273
21
25.5020993
0
LINE
8
DEFAULT_255_2_778
10
22.2949273
20
25.5020993
11
22.2949273
21
24.8020993
0
LINE
8
DEFAULT_255_2_778
10
22.2949273
20
24.8020993
11
21.5948273
21
24.8020993
0
LINE
8
DEFAULT_255_2_778
10
21.5948273
20
24.8020993
11
21.5948273
21
25.5020993
0
LINE
8
DEFAULT_255_2_778
10
21.5948273
20
25.5020993
11
22.2949273
21
25.5020993
0
LINE
8
DEFAULT_255_2_778
10
21.5948273
20
22.9620993
11
21.5948273
21
22.2620993
0
LINE
8
DEFAULT_255_2_778
10
21.5948273
20
22.2620993
11
22.2949273
21
22.2620993
0
LINE
8
DEFAULT_255_2_778
10
22.2949273
20
22.2620993
11
22.2949273
21
22.9620993
0
LINE
8
DEFAULT_255_2_778
10
22.2949273
20
22.9620993
11
21.5948273
21
22.9620993
0
LINE
8
DEFAULT_255_2_778
10
21.5948273
20
20.4220993
11
21.5948273
21
19.7220993
0
LINE
8
DEFAULT_255_2_778
10
21.5948273
20
19.7220993
11
22.2949273
21
19.7220993
0
LINE
8
DEFAULT_255_2_778
10
22.2949273
20
19.7220993
11
22.2949273
21
20.4220993
0
LINE
8
DEFAULT_255_2_778
10
22.2949273
20
20.4220993
11
21.5948273
21
20.4220993
0
LINE
8
DEFAULT_255_2_778
10
21.5948273
20
20.4220993
11
21.8393273
21
20.1776993
0
LINE
8
DEFAULT_255_2_778
10
21.8393273
20
20.1776993
11
22.0507273
21
20.1776993
0
LINE
8
DEFAULT_255_2_778
10
22.0507273
20
20.1776993
11
22.2952273
21
20.4220993
0
LINE
8
DEFAULT_255_2_778
10
19.7552273
20
24.8020993
11
19.0551273
21
24.8020993
0
LINE
8
DEFAULT_255_2_778
10
19.0551273
20
24.8020993
11
19.0551273
21
25.5020993
0
LINE
8
DEFAULT_255_2_778
10
19.0551273
20
25.5020993
11
19.7552273
21
25.5020993
0
LINE
8
DEFAULT_255_2_778
10
19.7552273
20
25.5020993
11
19.7552273
21
24.8020993
0
LINE
8
DEFAULT_255_2_778
10
19.7552273
20
22.2620993
11
19.7552273
21
22.9620993
0
LINE
8
DEFAULT_255_2_778
10
19.7552273
20
22.9620993
11
19.0551273
21
22.9620993
0
LINE
8
DEFAULT_255_2_778
10
19.0551273
20
22.9620993
11
19.0551273
21
22.2620993
0
LINE
8
DEFAULT_255_2_778
10
19.0551273
20
22.2620993
11
19.7552273
21
22.2620993
0
LINE
8
DEFAULT_255_2_778
10
19.5107273
20
19.9664993
11
19.5107273
21
20.1778993
0
LINE
8
DEFAULT_255_2_778
10
19.5107273
20
20.1778993
11
19.2996273
21
20.1778993
0
LINE
8
DEFAULT_255_2_778
10
19.2996273
20
20.1778993
11
19.0551273
21
20.4223993
0
LINE
8
DEFAULT_255_2_778
10
19.0551273
20
20.4223993
11
19.0551273
21
19.7222993
0
LINE
8
DEFAULT_255_2_778
10
19.0551273
20
19.7222993
11
19.7552273
21
19.7222993
0
LINE
8
DEFAULT_255_2_778
10
19.7552273
20
19.7222993
11
19.7552273
21
20.4223993
0
LINE
8
DEFAULT_255_2_778
10
19.7552273
20
20.4223993
11
19.0551273
21
20.4223993
0
LINE
8
DEFAULT_255_2_778
10
19.0551273
20
19.7222993
11
19.2996273
21
19.9667993
0
LINE
8
DEFAULT_255_2_778
10
19.2996273
20
19.9667993
11
19.5107273
21
19.9667993
0
LINE
8
DEFAULT_255_2_778
10
19.5107273
20
19.9667993
11
19.7549273
21
19.7222993
0
LINE
8
DEFAULT_255_2_778
10
19.7552273
20
38.2020993
11
19.0551273
21
38.2020993
0
LINE
8
DEFAULT_255_2_778
10
19.0551273
20
38.2020993
11
19.0551273
21
37.5020993
0
LINE
8
DEFAULT_255_2_778
10
19.0551273
20
37.5020993
11
19.7552273
21
37.5020993
0
LINE
8
DEFAULT_255_2_778
10
19.7552273
20
37.5020993
11
19.7552273
21
38.2020993
0
LINE
8
DEFAULT_255_2_778
10
19.0551273
20
40.7420993
11
19.7552273
21
40.7420993
0
LINE
8
DEFAULT_255_2_778
10
19.7552273
20
40.7420993
11
19.7552273
21
40.0420993
0
LINE
8
DEFAULT_255_2_778
10
19.7552273
20
40.0420993
11
19.0551273
21
40.0420993
0
LINE
8
DEFAULT_255_2_778
10
19.0551273
20
40.0420993
11
19.0551273
21
40.7420993
0
LINE
8
DEFAULT_255_2_778
10
19.0551273
20
42.5820993
11
19.2996273
21
42.8264993
0
LINE
8
DEFAULT_255_2_778
10
19.2996273
20
42.8264993
11
19.2996273
21
43.0378993
0
LINE
8
DEFAULT_255_2_778
10
19.2996273
20
43.0378993
11
19.0551273
21
43.2823993
0
LINE
8
DEFAULT_255_2_778
10
19.0551273
20
43.2823993
11
19.0551273
21
42.5822993
0
LINE
8
DEFAULT_255_2_778
10
19.0551273
20
42.5822993
11
19.7552273
21
42.5822993
0
LINE
8
DEFAULT_255_2_778
10
19.7552273
20
42.5822993
11
19.7552273
21
43.2823993
0
LINE
8
DEFAULT_255_2_778
10
19.7552273
20
43.2823993
11
19.0551273
21
43.2823993
0
LINE
8
DEFAULT_255_2_778
10
22.0750273
20
37.5022993
11
22.0750273
21
38.2023993
0
LINE
8
DEFAULT_255_2_778
10
22.2949273
20
38.2023993
11
21.5948273
21
38.2023993
0
LINE
8
DEFAULT_255_2_778
10
21.5948273
20
38.2023993
11
21.5948273
21
37.5022993
0
LINE
8
DEFAULT_255_2_778
10
21.5948273
20
37.5022993
11
22.2949273
21
37.5022993
0
LINE
8
DEFAULT_255_2_778
10
22.2949273
20
37.5022993
11
22.2949273
21
38.2023993
0
LINE
8
DEFAULT_255_2_778
10
21.5948273
20
40.0422993
11
21.5948273
21
40.7423993
0
LINE
8
DEFAULT_255_2_778
10
21.5948273
20
40.7423993
11
22.2949273
21
40.7423993
0
LINE
8
DEFAULT_255_2_778
10
22.2949273
20
40.7423993
11
22.2949273
21
40.0422993
0
LINE
8
DEFAULT_255_2_778
10
22.2949273
20
40.0422993
11
21.5948273
21
40.0422993
0
LINE
8
DEFAULT_255_2_778
10
21.5948273
20
42.5822993
11
21.8393273
21
42.8267993
0
LINE
8
DEFAULT_255_2_778
10
21.8393273
20
42.8267993
11
22.0507273
21
42.8267993
0
LINE
8
DEFAULT_255_2_778
10
22.0507273
20
42.8267993
11
22.2952273
21
42.5825993
0
LINE
8
DEFAULT_255_2_778
10
21.5951273
20
43.2823993
11
22.2952273
21
43.2823993
0
LINE
8
DEFAULT_255_2_778
10
22.2952273
20
43.2823993
11
22.2952273
21
42.5822993
0
LINE
8
DEFAULT_255_2_778
10
22.2952273
20
42.5822993
11
21.5951273
21
42.5822993
0
LINE
8
DEFAULT_255_2_778
10
21.5951273
20
42.5822993
11
21.5951273
21
43.2823993
0
LINE
8
DEFAULT_255_2_778
10
21.5951273
20
43.2823993
11
21.8396273
21
43.0378993
0
LINE
8
DEFAULT_255_2_778
10
21.8396273
20
43.0378993
11
22.0510273
21
43.0378993
0
LINE
8
DEFAULT_255_2_778
10
22.0510273
20
43.0378993
11
22.2954273
21
43.2820993
0
LINE
8
DEFAULT_255_2_778
10
9.5550273
20
25.5020993
11
9.5550273
21
37.5020993
0
LINE
8
DEFAULT_255_2_778
10
8.8549273
20
37.5020993
11
8.8549273
21
25.5020993
0
LINE
8
DEFAULT_255_2_778
10
6.0749273
20
56.9020993
11
6.0749273
21
6.1020993
0
LINE
8
DEFAULT_255_2_778
10
7.9749273
20
16.2919993
11
7.3647273
21
16.2919993
0
LINE
8
DEFAULT_255_2_778
10
7.3647273
20
16.2919993
11
7.3647273
21
46.7121993
0
LINE
8
DEFAULT_255_2_778
10
7.3647273
20
46.7121993
11
7.9749273
21
46.7121993
0
LINE
8
DEFAULT_255_2_778
10
12.0950701
20
25.5020993
11
12.0950701
21
37.5019993
0
LINE
8
DEFAULT_255_2_778
10
11.3949701
20
37.5019993
11
11.3949701
21
25.5020993
0
LINE
8
DEFAULT_255_2_778
10
18.1751701
20
46.7121993
11
17.5653701
21
46.7121993
0
LINE
8
DEFAULT_255_2_778
10
17.5653701
20
46.7121993
11
17.5653701
21
16.2919993
0
LINE
8
DEFAULT_255_2_778
10
17.5653701
20
16.2919993
11
18.1751701
21
16.2919993
0
LINE
8
DEFAULT_255_2_778
10
24.7752701
20
53.8518993
11
16.5749701
21
53.8518993
0
LINE
8
DEFAULT_255_2_778
10
16.5749701
20
53.8518993
11
16.5749701
21
9.1518993
0
LINE
8
DEFAULT_255_2_778
10
16.5749701
20
9.1518993
11
24.7749701
21
9.1518993
0
LINE
8
DEFAULT_255_2_778
10
24.7749701
20
9.1518993
11
24.7749701
21
53.8518993
0
LINE
8
DEFAULT_255_2_778
10
12.9747701
20
46.7118993
11
13.5846701
21
46.7118993
0
LINE
8
DEFAULT_255_2_778
10
13.5846701
20
46.7118993
11
13.5846701
21
16.2919993
0
LINE
8
DEFAULT_255_2_778
10
13.5846701
20
16.2919993
11
12.9747701
21
16.2919993
0
LINE
8
DEFAULT_255_2_778
10
6.3750701
20
53.8518993
11
14.5749701
21
53.8518993
0
LINE
8
DEFAULT_255_2_778
10
14.5749701
20
53.8518993
11
14.5749701
21
9.1518993
0
LINE
8
DEFAULT_255_2_778
10
14.5749701
20
9.1518993
11
6.3750701
21
9.1518993
0
LINE
8
DEFAULT_255_2_778
10
6.3750701
20
9.1518993
11
6.3750701
21
53.8518993
0
LINE
8
DEFAULT_255_2_778
10
25.5999701
20
6.1017993
11
25.5999701
21
56.9017993
0
LINE
8
DEFAULT_255_2_778
10
25.5999701
20
56.9017993
11
5.5500701
21
56.9017993
0
LINE
8
DEFAULT_255_2_778
10
5.5500701
20
56.9017993
11
5.5500701
21
6.1017993
0
LINE
8
DEFAULT_255_2_778
10
5.5500701
20
6.1017993
11
25.5999701
21
6.1017993
0
LINE
8
DEFAULT_255_2_778
10
22.2952678
20
25.5020993
11
22.2952678
21
37.5020993
0
LINE
8
DEFAULT_255_2_778
10
21.5951678
20
37.5020993
11
21.5951678
21
25.5020993
0
LINE
8
DEFAULT_255_2_778
10
19.7552678
20
25.5020993
11
19.7552678
21
37.5020993
0
LINE
8
DEFAULT_255_2_778
10
19.0551678
20
37.5020993
11
19.0551678
21
25.5020993
0
LINE
8
DEFAULT_255_2_778
10
25.0752678
20
56.9020993
11
25.0752678
21
6.1020993
0
LINE
8
DEFAULT_255_2_778
10
23.1752678
20
16.2919993
11
23.7853678
21
16.2919993
0
LINE
8
DEFAULT_255_2_778
10
23.7853678
20
16.2919993
11
23.7853678
21
46.7121993
0
LINE
8
DEFAULT_255_2_778
10
23.7853678
20
46.7121993
11
23.1752678
21
46.7121993
0
ENDSEC
0
EOF