0
SECTION
2
HEADER
9
$MEASUREMENT
70
1
0
ENDSEC
0
SECTION
2
TABLES
0
TABLE
2
LTYPE
0
LTYPE
72
65
70
64
2
CONTINUOUS
3
______
73
0
40
0
0
ENDTAB
0
TABLE
2
LAYER
0
LAYER
2
DEFAULT_255_2_778
70
0
62
255
6
CONTINUOUS
0
ENDTAB
0
ENDSEC
0
SECTION
2
ENTITIES
0
ARC
8
DEFAULT_255_2_778
10
20.4020718
20
100.1541029
40
0.5000969
50
89.9996485
51
180.0003515
0
ARC
8
DEFAULT_255_2_778
10
20.4020718
20
100.1540967
40
0.5000969
50
179.9996485
51
270.0003515
0
LINE
8
DEFAULT_255_2_778
10
20.4020749
20
100.6541998
11
27.9021749
21
100.6541998
0
LINE
8
DEFAULT_255_2_778
10
27.9021749
20
100.6541998
11
27.9021749
21
103.4541998
0
LINE
8
DEFAULT_255_2_778
10
20.4020749
20
99.6539998
11
21.9019749
21
99.6539998
0
LINE
8
DEFAULT_255_2_778
10
20.4020749
20
17.2542998
11
21.9019749
21
17.2542998
0
LINE
8
DEFAULT_255_2_778
10
20.4017749
20
16.2541998
11
27.9016749
21
16.2541998
0
LINE
8
DEFAULT_255_2_778
10
27.9016749
20
16.2541998
11
27.9016749
21
13.4540998
0
LINE
8
DEFAULT_255_2_778
10
27.9016749
20
13.4540998
11
14.8518749
21
13.4540998
0
LINE
8
DEFAULT_255_2_778
10
79.4017749
20
103.4544998
11
14.7018749
21
103.4541998
0
LINE
8
DEFAULT_255_2_778
10
14.7018749
20
103.4541998
11
14.7018749
21
13.6040998
0
LINE
8
DEFAULT_255_2_778
10
79.5517749
20
78.9542998
11
79.7017749
21
78.9542998
0
LINE
8
DEFAULT_255_2_778
10
79.7017749
20
78.9542998
11
79.7017749
21
76.4542998
0
LINE
8
DEFAULT_255_2_778
10
75.1517749
20
78.9542998
11
79.7020749
21
78.9542998
0
LINE
8
DEFAULT_255_2_778
10
79.7023749
20
76.4542998
11
75.7023749
21
76.4542998
0
LINE
8
DEFAULT_255_2_778
10
75.7023749
20
76.4542998
11
75.7023749
21
41.0543998
0
LINE
8
DEFAULT_255_2_778
10
77.9983886
20
73.9548011
11
79.7022886
21
73.9548011
0
LINE
8
DEFAULT_255_2_778
10
79.7022886
20
73.9548011
11
79.7022886
21
78.9538011
0
LINE
8
DEFAULT_255_2_778
10
79.7020886
20
10.1542011
11
75.8020886
21
10.1542011
0
LINE
8
DEFAULT_255_2_778
10
75.8020479
20
13.4543153
11
75.8020479
21
8.1542153
0
LINE
8
DEFAULT_255_2_778
10
75.8020479
20
8.1542153
11
79.7020479
21
8.1542153
0
LINE
8
DEFAULT_255_2_778
10
79.7020479
20
8.1542153
11
79.7020479
21
40.5542153
0
LINE
8
DEFAULT_255_2_778
10
79.7020479
20
40.5542153
11
77.2017479
21
41.0543153
0
LINE
8
DEFAULT_255_2_778
10
75.2020479
20
100.3543153
11
75.2020479
21
90.4544153
0
LINE
8
DEFAULT_255_2_778
10
75.2020479
20
90.4544153
11
78.0510479
21
90.4544153
0
LINE
8
DEFAULT_255_2_778
10
78.0510479
20
90.4544153
11
78.0510479
21
89.9543153
0
LINE
8
DEFAULT_255_2_778
10
78.0510479
20
89.9543153
11
75.2020479
21
89.9543153
0
LINE
8
DEFAULT_255_2_778
10
75.2020479
20
89.9543153
11
75.2020479
21
80.0544153
0
LINE
8
DEFAULT_255_2_778
10
75.2020479
20
80.0544153
11
76.2018479
21
79.0546153
0
LINE
8
DEFAULT_255_2_778
10
76.2018479
20
79.0546153
11
79.7017479
21
79.0546153
0
LINE
8
DEFAULT_255_2_778
10
79.7017479
20
79.0546153
11
79.7017479
21
103.1544153
0
LINE
8
DEFAULT_255_2_778
10
7.4020479
20
82.2192153
11
14.4020479
21
82.2192153
0
LINE
8
DEFAULT_255_2_778
10
7.4017479
20
18.4891153
11
14.4018479
21
18.4891153
0
LINE
8
DEFAULT_255_2_778
10
7.4016311
20
18.4891252
11
7.4016311
21
23.2892252
0
LINE
8
DEFAULT_255_2_778
10
0.2018311
20
77.4192252
11
14.4020311
21
77.4190252
0
LINE
8
DEFAULT_255_2_778
10
0.2018311
20
23.2892252
11
14.4017311
21
23.2889252
0
LINE
8
DEFAULT_255_2_778
10
7.4019311
20
82.2193252
11
7.4019311
21
77.4192252
0
LINE
8
DEFAULT_255_2_778
10
14.4020311
20
18.4888252
11
14.4020311
21
82.2190252
0
LINE
8
DEFAULT_255_2_778
10
62.7019311
20
23.5540252
11
60.2519311
21
23.5540252
0
LINE
8
DEFAULT_255_2_778
10
60.2519311
20
23.5540252
11
60.2519311
21
26.2541252
0
LINE
8
DEFAULT_255_2_778
10
60.2519491
20
51.2540475
11
60.2519491
21
53.9541475
0
LINE
8
DEFAULT_255_2_778
10
60.2519491
20
53.9541475
11
62.7017491
21
53.9541475
0
LINE
8
DEFAULT_255_2_778
10
66.0018491
20
53.9541475
11
68.4516491
21
53.9541475
0
LINE
8
DEFAULT_255_2_778
10
68.4516491
20
53.9541475
11
68.4516491
21
51.2540475
0
LINE
8
DEFAULT_255_2_778
10
68.4516491
20
26.2541475
11
68.4516491
21
23.5540475
0
LINE
8
DEFAULT_255_2_778
10
68.4516491
20
23.5540475
11
66.0018491
21
23.5540475
0
ARC
8
DEFAULT_255_2_778
10
29.9484035
20
52.4556803
40
0.9963655
50
138.3627204
51
180.0820926
0
ARC
8
DEFAULT_255_2_778
10
29.950971
20
52.4567528
40
0.9975748
50
91.7415476
51
138.5067354
0
ARC
8
DEFAULT_255_2_778
10
29.9521109
20
52.4356557
40
1.018697
50
90.0096655
51
91.7695716
0
ARC
8
DEFAULT_255_2_778
10
48.9518121
20
52.4538377
40
1.000515
50
45.0116647
51
89.9927292
0
ARC
8
DEFAULT_255_2_778
10
48.9515228
20
52.4541252
40
1.0005164
50
0.0073027
51
44.9883058
0
LINE
8
DEFAULT_255_2_778
10
66.0019391
20
25.0042527
11
66.0019391
21
23.3542527
0
LINE
8
DEFAULT_255_2_778
10
66.0019391
20
23.3542527
11
62.7017391
21
23.3542527
0
LINE
8
DEFAULT_255_2_778
10
62.7017391
20
23.3542527
11
62.7017391
21
25.0042527
0
LINE
8
DEFAULT_255_2_778
10
62.7017391
20
25.0042527
11
66.0019391
21
25.0042527
0
LINE
8
DEFAULT_255_2_778
10
61.5021391
20
26.8542527
11
60.1519391
21
26.8542527
0
LINE
8
DEFAULT_255_2_778
10
60.1519391
20
26.8542527
11
60.1519391
21
50.6542527
0
LINE
8
DEFAULT_255_2_778
10
60.1519391
20
50.6542527
11
61.5021391
21
50.6542527
0
LINE
8
DEFAULT_255_2_778
10
67.2018391
20
50.6542527
11
68.5519391
21
50.6542527
0
LINE
8
DEFAULT_255_2_778
10
68.5519391
20
50.6542527
11
68.5519391
21
26.8542527
0
LINE
8
DEFAULT_255_2_778
10
68.5519391
20
26.8542527
11
67.2018391
21
26.8542527
0
LINE
8
DEFAULT_255_2_778
10
29.9519391
20
53.4543527
11
48.9519391
21
53.4543527
0
LINE
8
DEFAULT_255_2_778
10
29.9519391
20
22.4544527
11
48.9519391
21
22.4544527
0
LINE
8
DEFAULT_255_2_778
10
28.9520391
20
23.4545527
11
28.9520391
21
52.4544527
0
LINE
8
DEFAULT_255_2_778
10
49.9517602
20
23.4545666
11
49.9517602
21
52.4544666
0
LINE
8
DEFAULT_255_2_778
10
77.5020602
20
43.5541666
11
79.0728602
21
40.6976666
0
LINE
8
DEFAULT_255_2_778
10
76.8506602
20
41.0543666
11
77.0022602
21
43.5541666
0
LINE
8
DEFAULT_255_2_778
10
77.0022602
20
43.5541666
11
77.5022602
21
43.5541666
0
LINE
8
DEFAULT_255_2_778
10
21.9019602
20
91.2542666
11
23.1020602
21
91.2542666
0
LINE
8
DEFAULT_255_2_778
10
23.1020602
20
91.2542666
11
23.1020602
21
83.2543666
0
LINE
8
DEFAULT_255_2_778
10
23.1020602
20
83.2543666
11
21.9019602
21
83.2543666
0
LINE
8
DEFAULT_255_2_778
10
21.9019602
20
72.0542666
11
23.1020602
21
72.0542666
0
LINE
8
DEFAULT_255_2_778
10
23.1020602
20
72.0542666
11
23.1020602
21
64.0542666
0
LINE
8
DEFAULT_255_2_778
10
23.1020602
20
64.0542666
11
21.9019602
21
64.0542666
0
LINE
8
DEFAULT_255_2_778
10
21.9019602
20
13.4543666
11
79.7020602
21
13.4543666
0
ARC
8
DEFAULT_255_2_778
10
68.9519621
20
93.2042497
40
0.5000543
50
0.0062114
51
89.9937771
0
ARC
8
DEFAULT_255_2_778
10
29.4518548
20
93.2047102
40
0.4995937
50
89.9814727
51
135.01174
0
ARC
8
DEFAULT_255_2_778
10
29.452112
20
93.2042575
40
0.5000956
50
134.9958871
51
179.9946851
0
LINE
8
DEFAULT_255_2_778
10
21.9019164
20
17.0543039
11
21.9019164
21
99.8546039
0
LINE
8
DEFAULT_255_2_778
10
29.4012164
20
13.4541039
11
29.4012164
21
16.3542039
0
LINE
8
DEFAULT_255_2_778
10
29.4012164
20
16.3542039
11
22.6020164
21
16.3542039
0
LINE
8
DEFAULT_255_2_778
10
22.6020164
20
16.3542039
11
21.9019164
21
17.0543039
0
LINE
8
DEFAULT_255_2_778
10
75.7020164
20
41.0544039
11
77.2017164
21
41.0544039
0
LINE
8
DEFAULT_255_2_778
10
68.4519164
20
26.2541039
11
67.2020164
21
26.2541039
0
LINE
8
DEFAULT_255_2_778
10
61.5021164
20
26.2541039
11
60.2519164
21
26.2541039
0
LINE
8
DEFAULT_255_2_778
10
45.3924164
20
103.4542039
11
45.3924164
21
104.3543039
0
LINE
8
DEFAULT_255_2_778
10
45.3924164
20
104.3543039
11
46.1922164
21
104.3543039
0
LINE
8
DEFAULT_255_2_778
10
46.1922164
20
104.3543039
11
46.1922164
21
104.7541039
0
LINE
8
DEFAULT_255_2_778
10
46.1922164
20
104.7541039
11
47.1921164
21
104.7541039
0
LINE
8
DEFAULT_255_2_778
10
47.1921164
20
104.7541039
11
47.1921164
21
105.1542039
0
LINE
8
DEFAULT_255_2_778
10
47.1921164
20
105.1542039
11
48.3922164
21
105.1542039
0
LINE
8
DEFAULT_255_2_778
10
48.3922164
20
105.1542039
11
48.3922164
21
105.5542039
0
LINE
8
DEFAULT_255_2_778
10
48.3922164
20
105.5542039
11
49.8922164
21
105.5542039
0
LINE
8
DEFAULT_255_2_778
10
49.8922164
20
105.5542039
11
49.8922164
21
105.9543039
0
LINE
8
DEFAULT_255_2_778
10
49.8922164
20
105.9543039
11
50.3367164
21
105.9543039
0
LINE
8
DEFAULT_255_2_778
10
50.3367164
20
105.9543039
11
50.3367164
21
106.1543039
0
LINE
8
DEFAULT_255_2_778
10
50.3367164
20
106.1543039
11
54.4922164
21
106.1543039
0
LINE
8
DEFAULT_255_2_778
10
54.4922164
20
106.1543039
11
54.4922164
21
105.9543039
0
LINE
8
DEFAULT_255_2_778
10
54.4922164
20
105.9543039
11
54.8923164
21
105.9543039
0
LINE
8
DEFAULT_255_2_778
10
54.8923164
20
105.9543039
11
54.8923164
21
105.5542039
0
LINE
8
DEFAULT_255_2_778
10
54.8923164
20
105.5542039
11
56.3922164
21
105.5542039
0
LINE
8
DEFAULT_255_2_778
10
56.3922164
20
105.5542039
11
56.3922164
21
105.1542039
0
LINE
8
DEFAULT_255_2_778
10
56.3922164
20
105.1542039
11
57.5921164
21
105.1542039
0
LINE
8
DEFAULT_255_2_778
10
57.5921164
20
105.1542039
11
57.5921164
21
104.7541039
0
LINE
8
DEFAULT_255_2_778
10
57.5921164
20
104.7541039
11
58.5919164
21
104.7541039
0
LINE
8
DEFAULT_255_2_778
10
58.5919164
20
104.7541039
11
58.5919164
21
104.3543039
0
LINE
8
DEFAULT_255_2_778
10
58.5919164
20
104.3543039
11
59.3923164
21
104.3543039
0
LINE
8
DEFAULT_255_2_778
10
59.3923164
20
104.3543039
11
59.3923164
21
103.4545039
0
LINE
8
DEFAULT_255_2_778
10
68.9520164
20
93.7043039
11
29.4520164
21
93.7043039
0
LINE
8
DEFAULT_255_2_778
10
28.9519829
20
73.7042058
11
28.9522829
21
93.2042058
0
LINE
8
DEFAULT_255_2_778
10
69.4519829
20
73.7042058
11
69.4519829
21
93.2042058
0
LINE
8
DEFAULT_255_2_778
10
68.9521829
20
73.2044058
11
29.4520829
21
73.2044058
0
LINE
8
DEFAULT_255_2_778
10
44.4017829
20
103.4542058
11
44.4017829
21
101.4542058
0
LINE
8
DEFAULT_255_2_778
10
44.4017829
20
101.4542058
11
31.4017829
21
101.4542058
0
LINE
8
DEFAULT_255_2_778
10
31.4017829
20
101.4542058
11
30.4018829
21
103.4542058
0
LINE
8
DEFAULT_255_2_778
10
45.4019185
20
103.4541868
11
44.4018185
21
101.4541868
0
LINE
8
DEFAULT_255_2_778
10
31.4018185
20
103.4541868
11
31.4018185
21
101.4541868
0
LINE
8
DEFAULT_255_2_778
10
29.4012185
20
103.4541868
11
29.4012185
21
100.5543868
0
LINE
8
DEFAULT_255_2_778
10
29.4012185
20
100.5543868
11
22.6020185
21
100.5543868
0
LINE
8
DEFAULT_255_2_778
10
22.6020185
20
100.5543868
11
21.9019185
21
99.8544868
0
LINE
8
DEFAULT_255_2_778
10
76.6982185
20
76.4547868
11
77.2982185
21
74.9548868
0
LINE
8
DEFAULT_255_2_778
10
77.9981185
20
73.9546868
11
77.2980185
21
74.9548868
0
LINE
8
DEFAULT_255_2_778
10
60.2519185
20
51.2539868
11
61.5018185
21
51.2539868
0
LINE
8
DEFAULT_255_2_778
10
67.2020185
20
51.2539868
11
68.4519185
21
51.2539868
0
LINE
8
DEFAULT_255_2_778
10
75.2019185
20
100.3540868
11
76.2021185
21
101.3538868
0
LINE
8
DEFAULT_255_2_778
10
75.9018515
20
101.4542789
11
75.9018515
21
101.0539789
0
LINE
8
DEFAULT_255_2_778
10
75.9018515
20
79.3543789
11
75.9018515
21
78.9543789
0
LINE
8
DEFAULT_255_2_778
10
56.3922515
20
11.7544789
11
57.5921515
21
11.7544789
0
LINE
8
DEFAULT_255_2_778
10
57.5921515
20
11.7544789
11
57.5921515
21
12.1544789
0
LINE
8
DEFAULT_255_2_778
10
57.5921515
20
12.1544789
11
58.5922515
21
12.1544789
0
LINE
8
DEFAULT_255_2_778
10
58.5922515
20
12.1544789
11
58.5922515
21
12.5545789
0
LINE
8
DEFAULT_255_2_778
10
58.5922515
20
12.5545789
11
59.3923515
21
12.5545789
0
LINE
8
DEFAULT_255_2_778
10
59.3923515
20
12.5545789
11
59.3923515
21
13.4543789
0
LINE
8
DEFAULT_255_2_778
10
45.3919515
20
13.4543789
11
45.3919515
21
12.5545789
0
LINE
8
DEFAULT_255_2_778
10
45.3919515
20
12.5545789
11
46.1917515
21
12.5545789
0
LINE
8
DEFAULT_255_2_778
10
46.1917515
20
12.5545789
11
46.1917515
21
12.1547789
0
LINE
8
DEFAULT_255_2_778
10
46.1917515
20
12.1547789
11
47.1916515
21
12.1547789
0
LINE
8
DEFAULT_255_2_778
10
47.1916515
20
12.1547789
11
47.1916515
21
11.7546789
0
LINE
8
DEFAULT_255_2_778
10
47.1919515
20
11.7544789
11
48.3920515
21
11.7544789
0
LINE
8
DEFAULT_255_2_778
10
48.3920515
20
11.7544789
11
48.3920515
21
11.3543789
0
LINE
8
DEFAULT_255_2_778
10
48.3920515
20
11.3543789
11
49.8919515
21
11.3543789
0
LINE
8
DEFAULT_255_2_778
10
49.8919515
20
11.3543789
11
49.8919515
21
10.9543789
0
LINE
8
DEFAULT_255_2_778
10
49.8919515
20
10.9543789
11
50.3364515
21
10.9543789
0
LINE
8
DEFAULT_255_2_778
10
50.3364515
20
10.9543789
11
50.3364515
21
10.7542789
0
LINE
8
DEFAULT_255_2_778
10
50.3364515
20
10.7542789
11
54.4922515
21
10.7542789
0
LINE
8
DEFAULT_255_2_778
10
54.4920515
20
10.9543789
11
54.8920515
21
10.9543789
0
LINE
8
DEFAULT_255_2_778
10
54.8920515
20
10.9543789
11
54.8920515
21
11.3543789
0
ARC
8
DEFAULT_255_2_778
10
20.4017041
20
16.7542625
40
0.5000414
50
89.9927398
51
149.9972631
0
ARC
8
DEFAULT_255_2_778
10
20.4015563
20
16.7543617
40
0.4998638
50
149.9986326
51
180.0123531
0
ARC
8
DEFAULT_255_2_778
10
20.4015563
20
16.7541461
40
0.4998638
50
179.9876469
51
210.0013674
0
ARC
8
DEFAULT_255_2_778
10
20.4017035
20
16.7542443
40
0.5000404
50
210.0026728
51
270.0073343
0
ARC
8
DEFAULT_255_2_778
10
48.704249
20
58.4578736
40
2.0023845
50
156.5733489
51
180.0992821
0
ARC
8
DEFAULT_255_2_778
10
48.697071
20
58.4588206
40
1.9954226
50
100.1929838
51
156.5163563
0
ARC
8
DEFAULT_255_2_778
10
48.7008469
20
58.4266003
40
2.0278038
50
89.9711642
51
100.1368845
0
ARC
8
DEFAULT_255_2_778
10
48.7053354
20
58.452311
40
2.002096
50
66.5280408
51
90.0992451
0
ARC
8
DEFAULT_255_2_778
10
48.7061606
20
58.4592039
40
1.9954456
50
10.1860908
51
66.4709419
0
ARC
8
DEFAULT_255_2_778
10
48.6739274
20
58.4554218
40
2.0278404
50
359.9712399
51
10.1302094
0
ARC
8
DEFAULT_255_2_778
10
48.6995347
20
58.4509449
40
2.0022357
50
336.528987
51
0.0989822
0
ARC
8
DEFAULT_255_2_778
10
48.7064948
20
58.4500332
40
1.9954894
50
280.1900393
51
336.4734043
0
ARC
8
DEFAULT_255_2_778
10
48.7028851
20
58.4816991
40
2.0272956
50
269.9712417
51
280.1321216
0
ARC
8
DEFAULT_255_2_778
10
48.6984059
20
58.4566622
40
2.0022612
50
246.5715666
51
270.0990563
0
ARC
8
DEFAULT_255_2_778
10
48.6975586
20
58.4497047
40
1.9955414
50
190.1944457
51
246.5144618
0
ARC
8
DEFAULT_255_2_778
10
48.7294128
20
58.4533866
40
2.0275455
50
179.9712527
51
190.1375314
0
ARC
8
DEFAULT_255_2_778
10
29.9484877
20
23.4531865
40
0.9965208
50
179.9357533
51
221.6437695
0
ARC
8
DEFAULT_255_2_778
10
29.9510252
20
23.4521851
40
0.9977545
50
221.503967
51
268.2518664
0
ARC
8
DEFAULT_255_2_778
10
29.952208
20
23.4727
40
1.0182961
50
268.2205577
51
269.9808415
0
ARC
8
DEFAULT_255_2_778
10
48.9532908
20
23.4506079
40
0.996405
50
269.9181564
51
311.6355769
0
ARC
8
DEFAULT_255_2_778
10
48.9544868
20
23.4530738
40
0.9974568
50
311.4901231
51
358.2563827
0
ARC
8
DEFAULT_255_2_778
10
48.933635
20
23.4541757
40
1.0183326
50
358.2301104
51
359.9903326
0
ARC
8
DEFAULT_255_2_778
10
79.4016366
20
103.154373
40
0.3001309
50
0.0249951
51
89.9941098
0
ARC
8
DEFAULT_255_2_778
10
75.1519977
20
79.1543341
40
0.2000302
50
179.9800103
51
269.9913489
0
ARC
8
DEFAULT_255_2_778
10
76.5519425
20
100.9549281
40
0.4993758
50
53.0871376
51
90.0086074
0
ARC
8
DEFAULT_255_2_778
10
76.5519427
20
79.4536791
40
0.4993752
50
269.991376
51
306.9128928
0
LINE
8
DEFAULT_255_2_778
10
54.4919675
20
10.7543039
11
54.4919675
21
10.9543039
0
LINE
8
DEFAULT_255_2_778
10
54.8920675
20
11.3544039
11
56.3919675
21
11.3544039
0
LINE
8
DEFAULT_255_2_778
10
56.3919675
20
11.3544039
11
56.3919675
21
11.7544039
0
LINE
8
DEFAULT_255_2_778
10
46.7018675
20
58.4544039
11
46.7018675
21
58.4544039
0
ARC
8
DEFAULT_255_2_778
10
29.4520995
20
73.7042443
40
0.5000956
50
180.0053149
51
225.0041129
0
ARC
8
DEFAULT_255_2_778
10
29.4520781
20
73.7040198
40
0.4999218
50
224.9876425
51
270.0029459
0
ARC
8
DEFAULT_255_2_778
10
68.9519923
20
73.7041095
40
0.5000116
50
270.0013268
51
0.0101312
0
LINE
8
DEFAULT_255_2_778
10
79.7020038
20
1.754198
11
75.8020038
21
1.754198
0
LINE
8
DEFAULT_255_2_778
10
75.8020209
20
8.1541957
11
75.8020209
21
-0.2458043
0
LINE
8
DEFAULT_255_2_778
10
75.8020209
20
-0.2458043
11
79.7020209
21
-0.2458043
0
LINE
8
DEFAULT_255_2_778
10
79.7020209
20
-0.2458043
11
79.7020209
21
8.1541957
0
LINE
8
DEFAULT_255_2_778
10
77.7020271
20
8.1542469
11
77.7020271
21
4.8043469
0
LINE
8
DEFAULT_255_2_778
10
77.7020271
20
4.8043469
11
79.7019271
21
4.8043469
0
LINE
8
DEFAULT_255_2_778
10
0.2018271
20
77.4192469
11
0.2018271
21
23.2889469
0
LINE
8
DEFAULT_255_2_778
10
1.6017271
20
77.4192469
11
1.6017271
21
23.2889469
0
LINE
8
DEFAULT_255_2_778
10
57.5518271
20
56.6544469
11
71.1519271
21
56.6544469
0
LINE
8
DEFAULT_255_2_778
10
71.1519271
20
56.6544469
11
71.1519271
21
40.3545469
0
LINE
8
DEFAULT_255_2_778
10
71.1519271
20
40.3545469
11
69.7303271
21
40.2595469
0
LINE
8
DEFAULT_255_2_778
10
66.0018271
20
54.1541469
11
66.0018271
21
52.5042469
0
LINE
8
DEFAULT_255_2_778
10
66.0018271
20
52.5042469
11
62.7017271
21
52.5042469
0
LINE
8
DEFAULT_255_2_778
10
62.7017271
20
52.5042469
11
62.7017271
21
54.1541469
0
LINE
8
DEFAULT_255_2_778
10
62.7017271
20
54.1541469
11
66.0018271
21
54.1541469
0
LINE
8
DEFAULT_255_2_778
10
69.7303931
20
37.2490468
11
71.1519931
21
37.1543468
0
LINE
8
DEFAULT_255_2_778
10
71.1519931
20
37.1543468
11
71.1519931
21
20.8544468
0
LINE
8
DEFAULT_255_2_778
10
71.1519931
20
20.8544468
11
57.5521931
21
20.8544468
0
LINE
8
DEFAULT_255_2_778
10
57.5521931
20
20.8544468
11
57.5518931
21
56.6544468
0
LINE
8
DEFAULT_255_2_778
10
58.9737931
20
22.2757468
11
69.7306931
21
22.2757468
0
LINE
8
DEFAULT_255_2_778
10
69.7306931
20
22.2757468
11
69.7306931
21
55.2328468
0
LINE
8
DEFAULT_255_2_778
10
69.7306931
20
55.2328468
11
58.9737931
21
55.2328468
0
LINE
8
DEFAULT_255_2_778
10
58.9737931
20
55.2328468
11
58.9737931
21
22.2757468
0
LINE
8
DEFAULT_255_2_778
10
61.5018931
20
25.7540468
11
61.5018931
21
51.7538468
0
LINE
8
DEFAULT_255_2_778
10
61.5018931
20
51.7538468
11
67.2017931
21
51.7538468
0
LINE
8
DEFAULT_255_2_778
10
67.2017931
20
51.7538468
11
67.2017931
21
25.7537468
0
LINE
8
DEFAULT_255_2_778
10
67.2017931
20
25.7537468
11
61.5018931
21
25.7537468
0
LINE
8
DEFAULT_255_2_778
10
66.6519931
20
97.4542468
11
62.0519931
21
97.4542468
0
LINE
8
DEFAULT_255_2_778
10
66.6519931
20
100.4543468
11
62.0519931
21
100.4543468
0
LINE
8
DEFAULT_255_2_778
10
46.0019931
20
97.4542468
11
41.4019931
21
97.4542468
0
ARC
8
DEFAULT_255_2_778
10
66.6519791
20
16.6542285
40
0.2000088
50
270.0025484
51
359.9974719
0
ARC
8
DEFAULT_255_2_778
10
66.6517588
20
19.2540823
40
0.2002292
50
0.0393168
51
44.9409594
0
ARC
8
DEFAULT_255_2_778
10
66.6520506
20
19.25379
40
0.2002294
50
45.0591307
51
89.9606874
0
ARC
8
DEFAULT_255_2_778
10
62.0521948
20
19.2536819
40
0.2006379
50
90.0590545
51
134.8927793
0
ARC
8
DEFAULT_255_2_778
10
62.0524961
20
19.2544498
40
0.2003081
50
135.1088416
51
179.9800077
0
ARC
8
DEFAULT_255_2_778
10
62.0522182
20
16.6544499
40
0.2000302
50
179.9800103
51
269.9913489
0
ARC
8
DEFAULT_255_2_778
10
66.6519179
20
100.254011
40
0.2003087
50
45.1089258
51
89.9799424
0
ARC
8
DEFAULT_255_2_778
10
66.6507533
20
100.2542912
40
0.2009348
50
0.0081154
51
44.8172635
0
ARC
8
DEFAULT_255_2_778
10
66.6515937
20
97.654314
40
0.2000944
50
270.0270209
51
0.0016198
0
ARC
8
DEFAULT_255_2_778
10
62.0517266
20
97.654358
40
0.1998385
50
179.9536387
51
270.0749676
0
ARC
8
DEFAULT_255_2_778
10
62.0531097
20
100.2542718
40
0.201222
50
135.1759492
51
179.9009609
0
ARC
8
DEFAULT_255_2_778
10
62.0513761
20
100.2554761
40
0.1991438
50
89.9102566
51
135.0700995
0
LINE
8
DEFAULT_255_2_778
10
46.001988
20
100.4543197
11
41.401988
21
100.4543197
0
LINE
8
DEFAULT_255_2_778
10
66.851988
20
16.6542197
11
66.851988
21
19.2542197
0
LINE
8
DEFAULT_255_2_778
10
61.852188
20
19.2545197
11
61.852188
21
16.6545197
0
LINE
8
DEFAULT_255_2_778
10
66.851688
20
100.2543197
11
66.851688
21
97.6543197
0
LINE
8
DEFAULT_255_2_778
10
61.851888
20
97.6545197
11
61.851888
21
100.2546197
0
LINE
8
DEFAULT_255_2_778
10
77.051988
20
90.4541197
11
77.051988
21
89.9541197
0
LINE
8
DEFAULT_255_2_778
10
74.951988
20
101.2544197
11
74.951988
21
79.1543197
0
LINE
8
DEFAULT_255_2_778
10
75.901788
20
90.4541197
11
75.901788
21
89.9541197
0
LINE
8
DEFAULT_255_2_778
10
77.022088
20
101.4542197
11
75.151688
21
101.4542197
0
LINE
8
DEFAULT_255_2_778
10
79.551988
20
101.4542197
11
79.701988
21
101.4542197
0
LINE
8
DEFAULT_255_2_778
10
79.701988
20
101.4542197
11
76.551888
21
101.4542197
0
LINE
8
DEFAULT_255_2_778
10
46.001988
20
16.4542197
11
41.401988
21
16.4542197
0
LINE
8
DEFAULT_255_2_778
10
46.0020097
20
19.4543552
11
41.4020097
21
19.4543552
0
LINE
8
DEFAULT_255_2_778
10
66.6520097
20
16.4542552
11
62.0520097
21
16.4542552
0
ARC
8
DEFAULT_255_2_778
10
46.0020237
20
97.6542433
40
0.200009
50
270.0025484
51
359.997423
0
ARC
8
DEFAULT_255_2_778
10
46.0004794
20
100.2539505
40
0.2015536
50
0.1090921
51
44.7448285
0
ARC
8
DEFAULT_255_2_778
10
46.0025729
20
100.2550178
40
0.1993166
50
44.9505773
51
90.0690874
0
LINE
8
DEFAULT_255_2_778
10
66.6519326
20
19.4542343
11
62.0519326
21
19.4542343
0
ARC
8
DEFAULT_255_2_778
10
41.4020167
20
97.6545961
40
0.2000087
50
180.0025037
51
269.9974617
0
ARC
8
DEFAULT_255_2_778
10
41.4032306
20
100.2543388
40
0.2012231
50
135.1760212
51
179.9007557
0
ARC
8
DEFAULT_255_2_778
10
41.4014737
20
100.2555988
40
0.1990892
50
89.8462716
51
135.0767775
0
ARC
8
DEFAULT_255_2_778
10
75.152218
20
101.2538832
40
0.2004042
50
90.0600753
51
134.9203504
0
ARC
8
DEFAULT_255_2_778
10
75.15343
20
101.2539392
40
0.2012225
50
135.1759781
51
179.9008786
0
ARC
8
DEFAULT_255_2_778
10
46.0020136
20
16.6545815
40
0.2000941
50
270.0269863
51
0.001683
0
LINE
8
DEFAULT_255_2_778
10
46.2018078
20
100.2543874
11
46.2018078
21
97.6543874
0
LINE
8
DEFAULT_255_2_778
10
41.2020078
20
97.6545874
11
41.2020078
21
100.2546874
0
LINE
8
DEFAULT_255_2_778
10
79.7018078
20
101.3542874
11
76.2019078
21
101.3542874
0
ARC
8
DEFAULT_255_2_778
10
46.0018891
20
19.2541421
40
0.2002307
50
0.0395178
51
44.9407974
0
ARC
8
DEFAULT_255_2_778
10
46.0021095
20
19.253675
40
0.2004052
50
45.0798238
51
89.9398634
0
ARC
8
DEFAULT_255_2_778
10
41.4023331
20
19.2530996
40
0.2012235
50
90.0992688
51
134.8239089
0
ARC
8
DEFAULT_255_2_778
10
41.4009556
20
19.2549062
40
0.1989715
50
134.9092863
51
180.1103822
0
ARC
8
DEFAULT_255_2_778
10
41.4021214
20
16.65466
40
0.2001371
50
180.0392424
51
269.9607779
0
LINE
8
DEFAULT_255_2_778
10
46.2017844
20
16.6542229
11
46.2017844
21
19.2543229
0
LINE
8
DEFAULT_255_2_778
10
41.2019844
20
19.2545229
11
41.2019844
21
16.6545229
0
ENDSEC
0
EOF