0
SECTION
2
HEADER
9
$MEASUREMENT
70
1
0
ENDSEC
0
SECTION
2
TABLES
0
TABLE
2
LTYPE
0
LTYPE
72
65
70
64
2
CONTINUOUS
3
______
73
0
40
0
0
ENDTAB
0
TABLE
2
LAYER
0
LAYER
2
DEFAULT_255_2_778
70
0
62
255
6
CONTINUOUS
0
LAYER
2
DEFAULT_255_1_388
70
0
62
255
6
CONTINUOUS
0
ENDTAB
0
ENDSEC
0
SECTION
2
ENTITIES
0
ARC
8
DEFAULT_255_2_778
10
3.5700693
20
181.6384682
40
0.7914215
50
129.1312896
51
180.1450914
0
ARC
8
DEFAULT_255_2_778
10
3.5703345
20
181.6389553
40
0.7912112
50
89.854026
51
129.1684493
0
ARC
8
DEFAULT_255_2_778
10
25.7993937
20
181.6386419
40
0.7915249
50
39.4792447
51
90.147911
0
ARC
8
DEFAULT_255_2_778
10
25.7999935
20
181.6384885
40
0.7911595
50
359.8533901
51
39.5154338
0
ARC
8
DEFAULT_255_2_778
10
25.7997714
20
-1.9864442
40
0.7913815
50
309.1282118
51
0.1454017
0
ARC
8
DEFAULT_255_2_778
10
25.7993889
20
-1.9867615
40
0.7913769
50
269.8524075
51
309.1641908
0
ARC
8
DEFAULT_255_2_778
10
3.5703462
20
-1.9867169
40
0.7914215
50
219.1312896
51
270.1450914
0
ARC
8
DEFAULT_255_2_778
10
3.5698591
20
-1.9864517
40
0.7912112
50
179.854026
51
219.1684493
0
LINE
8
DEFAULT_255_2_778
10
3.5723503
20
182.4301641
11
25.7973503
21
182.4301641
0
LINE
8
DEFAULT_255_2_778
10
26.5911503
20
181.6364641
11
26.5911503
21
-1.9844359
0
LINE
8
DEFAULT_255_2_778
10
25.7973503
20
-2.7781359
11
3.5723503
21
-2.7781359
0
LINE
8
DEFAULT_255_2_778
10
2.7786503
20
-1.9844359
11
2.7786503
21
181.6364641
0
LINE
8
DEFAULT_255_1_388
10
9.628232
20
-0.2223532
11
9.8026199
21
-0.2223532
0
LINE
8
DEFAULT_255_1_388
10
8.7897242
20
-0.0434475
11
8.7897242
21
0.0830516
0
LINE
8
DEFAULT_255_1_388
10
9.8026199
20
0.2529217
11
9.628232
21
0.2529217
0
LINE
8
DEFAULT_255_1_388
10
8.9641121
20
0.0785337
11
8.9641121
21
-0.0488688
0
ARC
8
DEFAULT_255_1_388
10
9.1860433
20
-0.1551671
40
0.6202263
50
340.1774904
51
353.7812217
0
ARC
8
DEFAULT_255_1_388
10
9.3628286
20
-0.2210107
40
0.4315926
50
311.4560052
51
340.4420756
0
ARC
8
DEFAULT_255_1_388
10
9.3590826
20
-0.2085335
40
0.4434573
50
282.4332229
51
310.7514507
0
ARC
8
DEFAULT_255_1_388
10
9.3096644
20
-0.0043297
40
0.6535262
50
269.9358869
51
282.8096729
0
ARC
8
DEFAULT_255_1_388
10
9.3038583
20
0.1469329
40
0.8048043
50
269.9995752
51
270.3612856
0
ARC
8
DEFAULT_255_1_388
10
9.2979073
20
-0.1329219
40
0.5249831
50
250.7885263
51
270.6488451
0
ARC
8
DEFAULT_255_1_388
10
9.2789898
20
-0.2046147
40
0.4510942
50
219.3628377
51
250.0611024
0
ARC
8
DEFAULT_255_1_388
10
9.3722772
20
-0.1253347
40
0.5735046
50
193.5480293
51
219.5755675
0
ARC
8
DEFAULT_255_1_388
10
9.6390981
20
-0.056048
40
0.849146
50
181.1220183
51
193.8754971
0
ARC
8
DEFAULT_255_1_388
10
9.8714214
20
-0.0436086
40
1.0816971
50
179.9914644
51
181.5398227
0
ARC
8
DEFAULT_255_1_388
10
9.6637525
20
0.0872586
40
0.8740384
50
169.5837606
51
180.275782
0
ARC
8
DEFAULT_255_1_388
10
9.4570873
20
0.1254439
40
0.6638751
50
155.0367033
51
169.6002779
0
ARC
8
DEFAULT_255_1_388
10
9.3293331
20
0.1870336
40
0.5220662
50
136.7831557
51
155.2472983
0
ARC
8
DEFAULT_255_1_388
10
9.2855122
20
0.2242577
40
0.4646502
50
121.7633063
51
136.4281161
0
ARC
8
DEFAULT_255_1_388
10
9.3006962
20
0.1962049
40
0.4964979
50
95.6460018
51
121.5489589
0
ARC
8
DEFAULT_255_1_388
10
9.3183936
20
0.0714704
40
0.6223912
50
89.9245727
51
96.1375919
0
ARC
8
DEFAULT_255_1_388
10
9.3240641
20
0.0848721
40
0.6090084
50
76.6779212
51
90.456405
0
ARC
8
DEFAULT_255_1_388
10
9.3683454
20
0.263806
40
0.42469
50
47.4858803
51
76.9287069
0
ARC
8
DEFAULT_255_1_388
10
9.3518068
20
0.2525623
40
0.4441778
50
16.5424081
51
46.8934505
0
ARC
8
DEFAULT_255_1_388
10
9.1709118
20
0.1931265
40
0.6345318
50
5.4072971
51
17.0363711
0
ARC
8
DEFAULT_255_1_388
10
9.0090843
20
0.1671304
40
0.6250632
50
7.8888693
51
15.9242022
0
ARC
8
DEFAULT_255_1_388
10
9.2325828
20
0.2320309
40
0.3923364
50
15.7650676
51
27.9410069
0
ARC
8
DEFAULT_255_1_388
10
9.3567997
20
0.2985317
40
0.2514401
50
27.8167196
51
46.4007942
0
ARC
8
DEFAULT_255_1_388
10
9.3623839
20
0.2978882
40
0.2480958
50
47.4372362
51
75.0695672
0
ARC
8
DEFAULT_255_1_388
10
9.3276675
20
0.1770277
40
0.3738281
50
74.7009379
51
87.8124314
0
ARC
8
DEFAULT_255_1_388
10
9.3194292
20
0.0586659
40
0.4924321
50
87.3802571
51
90.0251599
0
ARC
8
DEFAULT_255_1_388
10
9.3150939
20
0.1906997
40
0.3604218
50
89.3451886
51
108.5744412
0
ARC
8
DEFAULT_255_1_388
10
9.2996931
20
0.2484836
40
0.3007661
50
109.2998307
51
143.3037387
0
ARC
8
DEFAULT_255_1_388
10
9.3854221
20
0.1825584
40
0.4089031
50
143.075267
51
163.1918576
0
ARC
8
DEFAULT_255_1_388
10
9.6050055
20
0.1132652
40
0.6391492
50
162.9375929
51
174.6208776
0
ARC
8
DEFAULT_255_1_388
10
9.9004437
20
0.0808711
40
0.9363344
50
174.342123
51
180.1430283
0
ARC
8
DEFAULT_255_1_388
10
9.7956978
20
-0.0534883
40
0.8315986
50
179.6817261
51
189.150555
0
ARC
8
DEFAULT_255_1_388
10
9.5143727
20
-0.1003441
40
0.5464044
50
188.9911061
51
203.5772363
0
ARC
8
DEFAULT_255_1_388
10
9.3929019
20
-0.1507461
40
0.4149206
50
203.9075402
51
215.1312435
0
ARC
8
DEFAULT_255_1_388
10
9.2890817
20
-0.2312093
40
0.2837747
50
213.9071511
51
263.8848919
0
ARC
8
DEFAULT_255_1_388
10
9.303181
20
-0.1429481
40
0.3730641
50
263.1757928
51
270.1031044
0
ARC
8
DEFAULT_255_1_388
10
9.306789
20
-0.0026489
40
0.5133712
50
269.6722503
51
279.0606936
0
ARC
8
DEFAULT_255_1_388
10
9.3368045
20
-0.184085
40
0.3294739
50
278.8749101
51
293.6349581
0
ARC
8
DEFAULT_255_1_388
10
9.3728249
20
-0.2686749
40
0.2375405
50
293.8553806
51
310.0518171
0
ARC
8
DEFAULT_255_1_388
10
9.3733758
20
-0.2756979
40
0.2318463
50
311.0644687
51
332.0111037
0
ARC
8
DEFAULT_255_1_388
10
9.2392431
20
-0.2017298
40
0.3850112
50
331.6586806
51
343.2877423
0
ARC
8
DEFAULT_255_1_388
10
9.0071896
20
-0.1304194
40
0.6277712
50
343.1446576
51
351.0103568
0
ARC
8
DEFAULT_255_1_388
10
8.843922
20
-0.1004127
40
0.7937327
50
350.71248
51
351.1626997
0
LINE
8
DEFAULT_255_1_388
10
10.5905281
20
-0.2584958
11
10.5905281
21
0.6757898
0
LINE
8
DEFAULT_255_1_388
10
10.5905281
20
0.6757898
11
10.7649161
21
0.6757898
0
LINE
8
DEFAULT_255_1_388
10
10.7649161
20
0.6757898
11
10.7649161
21
-0.2557851
0
LINE
8
DEFAULT_255_1_388
10
9.9345403
20
-0.2765671
11
10.1080247
21
-0.2765671
0
ARC
8
DEFAULT_255_1_388
10
10.2596883
20
-0.2601042
40
0.5052462
50
346.3132364
51
0.4897996
0
ARC
8
DEFAULT_255_1_388
10
10.4136416
20
-0.2995208
40
0.3463431
50
313.3793278
51
346.6225662
0
ARC
8
DEFAULT_255_1_388
10
10.39105
20
-0.2710814
40
0.3825426
50
281.1587645
51
312.9130978
0
ARC
8
DEFAULT_255_1_388
10
10.3527405
20
-0.1029393
40
0.5549427
50
269.6423454
51
281.6796473
0
ARC
8
DEFAULT_255_1_388
10
10.3450184
20
-0.0411501
40
0.6167359
50
258.9989698
51
270.3955842
0
ARC
8
DEFAULT_255_1_388
10
10.3028642
20
-0.2491208
40
0.4045461
50
239.625581
51
259.2387746
0
ARC
8
DEFAULT_255_1_388
10
10.2703635
20
-0.3104362
40
0.3352261
50
227.4961805
51
239.1189042
0
ARC
8
DEFAULT_255_1_388
10
10.2661519
20
-0.3172991
40
0.3273245
50
191.3396895
51
227.2280349
0
ARC
8
DEFAULT_255_1_388
10
10.4241841
20
-0.2799104
40
0.4896551
50
179.6087821
51
191.9932937
0
ARC
8
DEFAULT_255_1_388
10
10.4392585
20
-0.2790784
40
0.3312434
50
179.565607
51
192.0702314
0
ARC
8
DEFAULT_255_1_388
10
10.3299538
20
-0.303644
40
0.2192212
50
191.7655537
51
215.6462731
0
ARC
8
DEFAULT_255_1_388
10
10.3098779
20
-0.3157371
40
0.1958682
50
216.1940686
51
224.3931249
0
ARC
8
DEFAULT_255_1_388
10
10.3106475
20
-0.3127138
40
0.1985399
50
224.861176
51
254.3628599
0
ARC
8
DEFAULT_255_1_388
10
10.3411018
20
-0.2120865
40
0.3036595
50
253.9470645
51
267.395327
0
ARC
8
DEFAULT_255_1_388
10
10.3490318
20
-0.1081654
40
0.4078462
50
266.9458957
51
270.0343693
0
ARC
8
DEFAULT_255_1_388
10
10.3518898
20
-0.2388156
40
0.2772084
50
269.4598277
51
286.1819188
0
ARC
8
DEFAULT_255_1_388
10
10.3677871
20
-0.2971235
40
0.2167824
50
286.4415261
51
315.8045035
0
ARC
8
DEFAULT_255_1_388
10
10.3616904
20
-0.2923799
40
0.2244619
50
316.0212602
51
345.479585
0
ARC
8
DEFAULT_255_1_388
10
10.2525062
20
-0.2616247
40
0.3378781
50
345.0729937
51
358.3249855
0
ARC
8
DEFAULT_255_1_388
10
10.1549508
20
-0.2553491
40
0.4355887
50
357.8749464
51
359.5860856
0
LINE
8
DEFAULT_255_1_388
10
11.5663777
20
0.6821148
11
11.5663777
21
-0.6398
0
LINE
8
DEFAULT_255_1_388
10
11.5663777
20
-0.6398
11
11.3983147
21
-0.6398
0
LINE
8
DEFAULT_255_1_388
10
11.3983147
20
-0.6398
11
11.3983147
21
0.474295
0
LINE
8
DEFAULT_255_1_388
10
11.3983147
20
0.474295
11
11.0612852
21
0.3505066
0
LINE
8
DEFAULT_255_1_388
10
11.0612852
20
0.3505066
11
11.0612852
21
0.5023055
0
LINE
8
DEFAULT_255_1_388
10
11.0612852
20
0.5023055
11
11.5401744
21
0.6821148
0
LINE
8
DEFAULT_255_1_388
10
11.5401744
20
0.6821148
11
11.5663777
21
0.6821148
0
LINE
8
DEFAULT_255_1_388
10
12.1753802
20
0.6757898
11
12.3832
21
-0.2250639
0
LINE
8
DEFAULT_255_1_388
10
12.3832
20
-0.2250639
11
12.4084998
21
-0.3985483
0
LINE
8
DEFAULT_255_1_388
10
12.4084998
20
-0.3985483
11
12.4455459
21
-0.2422316
0
LINE
8
DEFAULT_255_1_388
10
12.4455459
20
-0.2422316
11
12.7057725
21
0.6757898
0
LINE
8
DEFAULT_255_1_388
10
12.7057725
20
0.6757898
11
12.85215
21
0.6757898
0
LINE
8
DEFAULT_255_1_388
10
12.85215
20
0.6757898
11
13.1060516
21
-0.2422316
0
LINE
8
DEFAULT_255_1_388
10
13.1060516
20
-0.2422316
11
13.1421941
21
-0.401259
0
LINE
8
DEFAULT_255_1_388
10
13.1421941
20
-0.401259
11
13.1702046
21
-0.2241604
0
LINE
8
DEFAULT_255_1_388
10
13.1702046
20
-0.2241604
11
13.3744102
21
0.6757898
0
LINE
8
DEFAULT_255_1_388
10
13.3744102
20
0.6757898
11
13.5487981
21
0.6757898
0
LINE
8
DEFAULT_255_1_388
10
13.5487981
20
0.6757898
11
13.2298399
21
-0.6398
0
LINE
8
DEFAULT_255_1_388
10
13.2298399
20
-0.6398
11
13.0717161
21
-0.6398
0
LINE
8
DEFAULT_255_1_388
10
13.0717161
20
-0.6398
11
12.8006468
21
0.3188819
0
LINE
8
DEFAULT_255_1_388
10
12.8006468
20
0.3188819
11
12.7798648
21
0.4191775
0
LINE
8
DEFAULT_255_1_388
10
12.7798648
20
0.4191775
11
12.7590828
21
0.3188819
0
LINE
8
DEFAULT_255_1_388
10
12.7590828
20
0.3188819
11
12.4780743
21
-0.6398
0
LINE
8
DEFAULT_255_1_388
10
12.4780743
20
-0.6398
11
12.3199505
21
-0.6398
0
LINE
8
DEFAULT_255_1_388
10
12.3199505
20
-0.6398
11
12.0018958
21
0.6757898
0
LINE
8
DEFAULT_255_1_388
10
12.0018958
20
0.6757898
11
12.1753802
21
0.6757898
0
LINE
8
DEFAULT_255_1_388
10
14.0087125
20
-0.0127263
11
14.0087125
21
-0.1491645
0
LINE
8
DEFAULT_255_1_388
10
14.0087125
20
-0.1491645
11
13.567773
21
-0.1491645
0
LINE
8
DEFAULT_255_1_388
10
13.567773
20
-0.1491645
11
13.567773
21
-0.0127263
0
LINE
8
DEFAULT_255_1_388
10
13.567773
20
-0.0127263
11
14.0087125
21
-0.0127263
0
LINE
8
DEFAULT_255_1_388
10
15.2095496
20
0.0586553
11
15.2095496
21
-0.0244726
0
LINE
8
DEFAULT_255_1_388
10
14.1514756
20
-0.0362189
11
14.1514756
21
0.0586553
0
LINE
8
DEFAULT_255_1_388
10
15.0369688
20
-0.0371225
11
15.0369688
21
0.0604625
0
LINE
8
DEFAULT_255_1_388
10
14.3240564
20
0.0722088
11
14.3240564
21
-0.0244726
0
ARC
8
DEFAULT_255_1_388
10
14.2373234
20
-0.0289274
40
0.9722364
50
350.4878118
51
0.2625322
0
ARC
8
DEFAULT_255_1_388
10
14.4953195
20
-0.0733006
40
0.7104556
50
336.0277991
51
350.5787241
0
ARC
8
DEFAULT_255_1_388
10
14.6466301
20
-0.1416757
40
0.544417
50
319.887443
51
336.1331163
0
ARC
8
DEFAULT_255_1_388
10
14.7144113
20
-0.1959267
40
0.4576311
50
302.4806296
51
319.6144102
0
ARC
8
DEFAULT_255_1_388
10
14.7014735
20
-0.1709933
40
0.4856183
50
275.8196423
51
302.1885521
0
ARC
8
DEFAULT_255_1_388
10
14.6827596
20
-0.0424534
40
0.6154183
50
269.9169897
51
276.339506
0
ARC
8
DEFAULT_255_1_388
10
14.6777197
20
-0.119632
40
0.5382553
50
252.5221437
51
270.441579
0
ARC
8
DEFAULT_255_1_388
10
14.6615447
20
-0.1802954
40
0.4755426
50
237.5349961
51
252.1858334
0
ARC
8
DEFAULT_255_1_388
10
14.6715823
20
-0.167488
40
0.4917393
50
209.0632754
51
237.3492577
0
ARC
8
DEFAULT_255_1_388
10
14.7695149
20
-0.1059896
40
0.6072464
50
205.118533
51
209.6465345
0
ARC
8
DEFAULT_255_1_388
10
14.8591151
20
-0.0679826
40
0.7045164
50
188.7216633
51
204.8239753
0
ARC
8
DEFAULT_255_1_388
10
15.0837927
20
-0.0301613
40
0.9323368
50
180.3722704
51
188.9253909
0
ARC
8
DEFAULT_255_1_388
10
15.0807488
20
0.0631416
40
0.929284
50
169.5253055
51
180.2766048
0
ARC
8
DEFAULT_255_1_388
10
14.8667287
20
0.1025024
40
0.7116745
50
155.8314601
51
169.5088611
0
ARC
8
DEFAULT_255_1_388
10
14.722675
20
0.1693312
40
0.5528904
50
139.6259579
51
156.0379072
0
ARC
8
DEFAULT_255_1_388
10
14.6563284
20
0.2227143
40
0.4677708
50
122.6414784
51
139.3431662
0
ARC
8
DEFAULT_255_1_388
10
14.6676539
20
0.2020787
40
0.4912586
50
93.0224537
51
122.4556091
0
ARC
8
DEFAULT_255_1_388
10
14.679806
20
0.0934776
40
0.6003837
50
89.9756766
51
93.6340839
0
ARC
8
DEFAULT_255_1_388
10
14.6841657
20
0.1383879
40
0.5554884
50
73.7463329
51
90.4234008
0
ARC
8
DEFAULT_255_1_388
10
14.703913
20
0.2148772
40
0.4765353
50
57.663051
51
73.4516911
0
ARC
8
DEFAULT_255_1_388
10
14.7030168
20
0.2173108
40
0.4749629
50
29.1441355
51
57.4146687
0
ARC
8
DEFAULT_255_1_388
10
14.5977979
20
0.1516046
40
0.5988917
50
24.0985653
51
29.732054
0
ARC
8
DEFAULT_255_1_388
10
14.4815611
20
0.1034154
40
0.7246823
50
8.6654943
51
23.8241215
0
ARC
8
DEFAULT_255_1_388
10
14.230203
20
0.0624037
40
0.9793537
50
359.7807044
51
8.8218476
0
ARC
8
DEFAULT_255_1_388
10
14.1011734
20
0.0652731
40
0.9358078
50
359.7054632
51
8.0359751
0
ARC
8
DEFAULT_255_1_388
10
14.4386785
20
0.1144252
40
0.5947474
50
7.8926278
51
20.2962188
0
ARC
8
DEFAULT_255_1_388
10
14.6217636
20
0.1819367
40
0.3996117
50
20.3231056
51
36.4990255
0
ARC
8
DEFAULT_255_1_388
10
14.6988933
20
0.2413399
40
0.3022818
50
36.1436715
51
85.6627846
0
ARC
8
DEFAULT_255_1_388
10
14.6806189
20
0.1243881
40
0.4203853
50
84.3845912
51
90.076054
0
ARC
8
DEFAULT_255_1_388
10
14.6758543
20
0.1986416
40
0.346157
50
89.3037228
51
109.9046209
0
ARC
8
DEFAULT_255_1_388
10
14.6654376
20
0.2416379
40
0.3022217
50
110.8229774
51
143.917961
0
ARC
8
DEFAULT_255_1_388
10
14.7704736
20
0.1614455
40
0.434348
50
143.5289166
51
163.2980252
0
ARC
8
DEFAULT_255_1_388
10
14.9851023
20
0.0939685
40
0.659321
50
163.0418884
51
174.3139873
0
ARC
8
DEFAULT_255_1_388
10
15.2555988
20
0.0627378
40
0.9315905
50
174.050934
51
179.4174954
0
ARC
8
DEFAULT_255_1_388
10
15.1987932
20
-0.0291618
40
0.8747493
50
179.6928582
51
188.7908948
0
ARC
8
DEFAULT_255_1_388
10
14.8991731
20
-0.0770914
40
0.5713262
50
188.6328449
51
202.5630732
0
ARC
8
DEFAULT_255_1_388
10
14.7580568
20
-0.1337858
40
0.4192612
50
202.8078931
51
216.1195888
0
ARC
8
DEFAULT_255_1_388
10
14.6670085
20
-0.2070521
40
0.3025752
50
215.0755613
51
264.6379773
0
ARC
8
DEFAULT_255_1_388
10
14.6812923
20
-0.1135624
40
0.3970284
50
263.8464302
51
270.0830805
0
ARC
8
DEFAULT_255_1_388
10
14.6859468
20
-0.1426192
40
0.3679937
50
269.3649295
51
287.5149684
0
ARC
8
DEFAULT_255_1_388
10
14.7059908
20
-0.2154286
40
0.2925408
50
288.0629019
51
323.8115617
0
ARC
8
DEFAULT_255_1_388
10
14.6079885
20
-0.1423246
40
0.4148018
50
323.6546541
51
342.6591359
0
ARC
8
DEFAULT_255_1_388
10
14.3794542
20
-0.067972
40
0.6551163
50
342.4092446
51
353.6451501
0
ARC
8
DEFAULT_255_1_388
10
14.0609336
20
-0.0283435
40
0.9760748
50
353.4027553
51
359.4846611
0
LINE
8
DEFAULT_255_1_388
10
15.8339126
20
-0.6398
11
15.4697762
21
-0.6398
0
LINE
8
DEFAULT_255_1_388
10
15.4697762
20
-0.6398
11
15.4697762
21
0.6757898
0
LINE
8
DEFAULT_255_1_388
10
15.4697762
20
0.6757898
11
15.8411412
21
0.6757898
0
LINE
8
DEFAULT_255_1_388
10
16.4212295
20
0.0622696
11
16.4212295
21
-0.0217619
0
LINE
8
DEFAULT_255_1_388
10
15.845659
20
0.5330267
11
15.6432605
21
0.5330267
0
LINE
8
DEFAULT_255_1_388
10
15.6432605
20
0.5330267
11
15.6432605
21
-0.4979404
0
LINE
8
DEFAULT_255_1_388
10
15.6432605
20
-0.4979404
11
15.8257806
21
-0.4979404
0
LINE
8
DEFAULT_255_1_388
10
16.2495523
20
-0.0181477
11
16.2495523
21
0.0586553
0
ARC
8
DEFAULT_255_1_388
10
15.8455206
20
0.0159436
40
0.6598608
50
75.4100343
51
90.3802731
0
ARC
8
DEFAULT_255_1_388
10
15.8713452
20
0.1235691
40
0.5492049
50
60.1455157
51
75.1889627
0
ARC
8
DEFAULT_255_1_388
10
15.8892043
20
0.1546914
40
0.5133226
50
26.525419
51
60.1451222
0
ARC
8
DEFAULT_255_1_388
10
15.763183
20
0.0878642
40
0.6559324
50
7.4029944
51
26.832209
0
ARC
8
DEFAULT_255_1_388
10
15.5838227
20
0.0599229
40
0.8374103
50
0.1605597
51
7.7176135
0
ARC
8
DEFAULT_255_1_388
10
15.6022627
20
-0.0260679
40
0.8189782
50
348.7289744
51
0.30125
0
ARC
8
DEFAULT_255_1_388
10
15.7886091
20
-0.0630844
40
0.628991
50
333.0706936
51
348.7181455
0
ARC
8
DEFAULT_255_1_388
10
15.8973719
20
-0.1221551
40
0.5052808
50
299.2531435
51
333.4571133
0
ARC
8
DEFAULT_255_1_388
10
15.856775
20
-0.0450371
40
0.5924066
50
278.1072193
51
299.0340218
0
ARC
8
DEFAULT_255_1_388
10
15.8279799
20
0.1245979
40
0.7644209
50
270.4446841
51
278.4508355
0
ARC
8
DEFAULT_255_1_388
10
15.8303282
20
0.02003
40
0.5179903
50
269.4969684
51
284.0204874
0
ARC
8
DEFAULT_255_1_388
10
15.8703001
20
-0.1335585
40
0.3592968
50
283.7699076
51
318.1557121
0
ARC
8
DEFAULT_255_1_388
10
15.8323546
20
-0.1051601
40
0.4065308
50
318.7417595
51
343.687252
0
ARC
8
DEFAULT_255_1_388
10
15.6294125
20
-0.0417725
40
0.6191194
50
343.3324891
51
355.8548594
0
ARC
8
DEFAULT_255_1_388
10
15.3933162
20
-0.0193281
40
0.856237
50
355.4988754
51
0.0789913
0
ARC
8
DEFAULT_255_1_388
10
15.4813961
20
0.063408
40
0.7681709
50
359.6455047
51
9.8607559
0
ARC
8
DEFAULT_255_1_388
10
15.7469685
20
0.1113664
40
0.498312
50
9.6573037
51
26.1931522
0
ARC
8
DEFAULT_255_1_388
10
15.851376
20
0.1598587
40
0.3832303
50
26.5777895
51
40.1533752
0
ARC
8
DEFAULT_255_1_388
10
15.8801425
20
0.182302
40
0.3467742
50
40.3839958
51
80.1430923
0
ARC
8
DEFAULT_255_1_388
10
15.843368
20
0.0192486
40
0.5137832
50
79.2153636
51
89.7445174
0
LINE
8
DEFAULT_255_1_388
10
17.5018926
20
-0.5033618
11
17.5018926
21
-0.6398
0
LINE
8
DEFAULT_255_1_388
10
17.5018926
20
-0.6398
11
16.6398921
21
-0.6398
0
LINE
8
DEFAULT_255_1_388
10
16.6398921
20
-0.6398
11
16.6398921
21
-0.5196259
0
LINE
8
DEFAULT_255_1_388
10
16.6398921
20
-0.5196259
11
17.0952886
21
-0.0136298
0
LINE
8
DEFAULT_255_1_388
10
16.7817518
20
0.2881607
11
16.6145923
21
0.2881607
0
LINE
8
DEFAULT_255_1_388
10
17.1937771
20
-0.121154
11
16.841387
21
-0.5033618
0
LINE
8
DEFAULT_255_1_388
10
16.841387
20
-0.5033618
11
17.5018926
21
-0.5033618
0
ARC
8
DEFAULT_255_1_388
10
15.5776946
20
1.3283983
40
2.0258655
50
318.5132526
51
320.7829045
0
ARC
8
DEFAULT_255_1_388
10
16.1724903
20
0.8442929
40
1.2589638
50
320.7372878
51
323.9739031
0
ARC
8
DEFAULT_255_1_388
10
16.6133834
20
0.5248554
40
0.7145141
50
323.8962701
51
328.64194
0
ARC
8
DEFAULT_255_1_388
10
16.8436092
20
0.3828545
40
0.4440242
50
328.8294576
51
331.7891185
0
ARC
8
DEFAULT_255_1_388
10
16.9558412
20
0.3249374
40
0.3177517
50
331.4254512
51
352.9365785
0
ARC
8
DEFAULT_255_1_388
10
16.9711412
20
0.321505
40
0.3021496
50
353.2257659
51
0.0166158
0
ARC
8
DEFAULT_255_1_388
10
16.9948173
20
0.3240894
40
0.2784847
50
359.486299
51
15.9343185
0
ARC
8
DEFAULT_255_1_388
10
17.0518439
20
0.3394269
40
0.2194403
50
16.1712913
51
43.5286088
0
ARC
8
DEFAULT_255_1_388
10
17.0605384
20
0.3481191
40
0.2071504
50
43.4417391
51
83.1661095
0
ARC
8
DEFAULT_255_1_388
10
17.0454545
20
0.2652316
40
0.2912888
50
82.160179
51
90.1505708
0
ARC
8
DEFAULT_255_1_388
10
17.0419027
20
0.2048279
40
0.3517025
50
89.5460741
51
102.5418361
0
ARC
8
DEFAULT_255_1_388
10
17.0145747
20
0.3207933
40
0.2325748
50
102.1738499
51
129.206123
0
ARC
8
DEFAULT_255_1_388
10
17.00572
20
0.3347664
40
0.2161591
50
129.72865
51
135.753947
0
ARC
8
DEFAULT_255_1_388
10
17.0193682
20
0.3238728
40
0.2335433
50
136.1757367
51
166.3673339
0
ARC
8
DEFAULT_255_1_388
10
17.1326371
20
0.2935148
40
0.3507873
50
165.9090694
51
178.8684636
0
ARC
8
DEFAULT_255_1_388
10
17.2302142
20
0.2882263
40
0.4484624
50
178.4391136
51
180.0083808
0
ARC
8
DEFAULT_255_1_388
10
17.0722844
20
0.2926197
40
0.4577138
50
163.2878482
51
180.5581842
0
ARC
8
DEFAULT_255_1_388
10
16.9820885
20
0.3174393
40
0.3641968
50
133.4540601
51
162.947111
0
ARC
8
DEFAULT_255_1_388
10
17.0021767
20
0.2960789
40
0.3935189
50
100.7869829
51
133.4382499
0
ARC
8
DEFAULT_255_1_388
10
17.0413012
20
0.1218399
40
0.5720313
50
89.660664
51
101.3702276
0
ARC
8
DEFAULT_255_1_388
10
17.0487621
20
0.1287263
40
0.5651495
50
78.2172678
51
90.412935
0
ARC
8
DEFAULT_255_1_388
10
17.0887086
20
0.3114511
40
0.378122
50
55.9269121
51
78.4888449
0
ARC
8
DEFAULT_255_1_388
10
17.1107801
20
0.3495187
40
0.3342379
50
47.929771
51
55.4049217
0
ARC
8
DEFAULT_255_1_388
10
17.1222332
20
0.3611618
40
0.3179217
50
4.334829
51
48.0560205
0
ARC
8
DEFAULT_255_1_388
10
16.9990133
20
0.3420487
40
0.442341
50
359.9251713
51
5.5971671
0
ARC
8
DEFAULT_255_1_388
10
17.0472288
20
0.3483728
40
0.3941854
50
337.8914027
51
358.9967534
0
ARC
8
DEFAULT_255_1_388
10
16.7419858
20
0.4661295
40
0.7213271
50
326.9132501
51
338.3508308
0
ARC
8
DEFAULT_255_1_388
10
16.293597
20
0.7535105
40
1.2538973
50
319.6471833
51
327.0959558
0
ARC
8
DEFAULT_255_1_388
10
15.8622628
20
1.109305
40
1.8129975
50
317.2588228
51
319.9045804
0
LINE
8
DEFAULT_255_1_388
10
17.9220501
20
-0.0371225
11
17.9220501
21
0.0993157
0
LINE
8
DEFAULT_255_1_388
10
17.9220501
20
0.0993157
11
18.0476456
21
0.0993157
0
LINE
8
DEFAULT_255_1_388
10
17.8335008
20
0.3306282
11
17.6663414
21
0.3306282
0
LINE
8
DEFAULT_255_1_388
10
17.654595
20
-0.2928312
11
17.822658
21
-0.2928312
0
LINE
8
DEFAULT_255_1_388
10
18.0476456
20
-0.0371225
11
17.9220501
21
-0.0371225
0
ARC
8
DEFAULT_255_1_388
10
18.0443682
20
0.4809922
40
0.3816905
50
270.491971
51
281.8953028
0
ARC
8
DEFAULT_255_1_388
10
18.0715109
20
0.3570199
40
0.2547877
50
281.6690378
51
301.2943765
0
ARC
8
DEFAULT_255_1_388
10
18.090656
20
0.3219926
40
0.2149197
50
301.7834992
51
311.754567
0
ARC
8
DEFAULT_255_1_388
10
18.1009602
20
0.310565
40
0.1995326
50
311.7325027
51
354.2803031
0
ARC
8
DEFAULT_255_1_388
10
18.0192018
20
0.324628
40
0.2823461
50
353.0941646
51
0.1174696
0
ARC
8
DEFAULT_255_1_388
10
17.9673576
20
0.3299874
40
0.3342238
50
359.1804452
51
15.0452323
0
ARC
8
DEFAULT_255_1_388
10
18.1187634
20
0.3741546
40
0.1765747
50
13.957816
51
77.6713812
0
ARC
8
DEFAULT_255_1_388
10
18.075287
20
0.2183464
40
0.3381982
50
76.111571
51
90.7028736
0
ARC
8
DEFAULT_255_1_388
10
18.0686282
20
0.249125
40
0.3074046
50
89.5321574
51
103.5319393
0
ARC
8
DEFAULT_255_1_388
10
18.0460665
20
0.3390443
40
0.2147041
50
103.2930114
51
133.5619756
0
ARC
8
DEFAULT_255_1_388
10
18.0410607
20
0.3457351
40
0.2064084
50
133.8349761
51
173.5343225
0
ARC
8
DEFAULT_255_1_388
10
18.1224264
20
0.3313144
40
0.2889266
50
172.5097183
51
180.1360699
0
ARC
8
DEFAULT_255_1_388
10
18.0154028
20
0.335188
40
0.3490913
50
155.3483706
51
180.7484035
0
ARC
8
DEFAULT_255_1_388
10
18.0099004
20
0.3319519
40
0.3454798
50
131.5745177
51
154.4799474
0
ARC
8
DEFAULT_255_1_388
10
18.0451287
20
0.2963422
40
0.3955058
50
96.9874487
51
131.9690874
0
ARC
8
DEFAULT_255_1_388
10
18.0698179
20
0.1562407
40
0.537622
50
89.8592909
51
97.7827481
0
ARC
8
DEFAULT_255_1_388
10
18.0752288
20
0.126736
40
0.5671399
50
78.3654493
51
90.4132586
0
ARC
8
DEFAULT_255_1_388
10
18.1154929
20
0.3133918
40
0.3762034
50
56.6229818
51
78.6387103
0
ARC
8
DEFAULT_255_1_388
10
18.1396759
20
0.3556846
40
0.3275964
50
47.0254604
51
56.085558
0
ARC
8
DEFAULT_255_1_388
10
18.141901
20
0.3601189
40
0.3228382
50
10.9207523
51
46.777927
0
ARC
8
DEFAULT_255_1_388
10
17.9884604
20
0.3246401
40
0.4802559
50
359.6364235
51
11.6087615
0
ARC
8
DEFAULT_255_1_388
10
18.1948769
20
0.3229404
40
0.273833
50
332.3549969
51
359.7179765
0
ARC
8
DEFAULT_255_1_388
10
18.121717
20
0.3576285
40
0.3547505
50
325.2332381
51
332.8746682
0
ARC
8
DEFAULT_255_1_388
10
18.1388753
20
0.3456763
40
0.3338396
50
292.9803892
51
325.2391113
0
ARC
8
DEFAULT_255_1_388
10
18.1077949
20
0.4061679
40
0.4016959
50
292.542178
51
293.6931461
0
ARC
8
DEFAULT_255_1_388
10
18.152152
20
-0.3203964
40
0.372079
50
57.643292
51
72.8626085
0
ARC
8
DEFAULT_255_1_388
10
18.1920355
20
-0.2557727
40
0.2961455
50
36.7246661
51
57.4701329
0
ARC
8
DEFAULT_255_1_388
10
18.1907512
20
-0.254353
40
0.2963321
50
8.054535
51
36.3561529
0
ARC
8
DEFAULT_255_1_388
10
18.0937184
20
-0.2717927
40
0.3948682
50
359.8316595
51
8.5873361
0
ARC
8
DEFAULT_255_1_388
10
18.0514659
20
-0.277203
40
0.4371398
50
343.9831631
51
0.557075
0
ARC
8
DEFAULT_255_1_388
10
18.1511708
20
-0.3045037
40
0.3337749
50
311.6358204
51
343.7652116
0
ARC
8
DEFAULT_255_1_388
10
18.1085962
20
-0.2565045
40
0.3979351
50
279.7829743
51
311.625622
0
ARC
8
DEFAULT_255_1_388
10
18.0747097
20
-0.0948358
40
0.5630417
50
269.7285092
51
280.3857694
0
ARC
8
DEFAULT_255_1_388
10
18.067741
20
-0.0994759
40
0.5584119
50
256.6827433
51
270.4412869
0
ARC
8
DEFAULT_255_1_388
10
18.0296397
20
-0.2552302
40
0.3980715
50
229.4223821
51
256.8554507
0
ARC
8
DEFAULT_255_1_388
10
17.982995
20
-0.3077317
40
0.3278564
50
181.8183354
51
229.6455015
0
ARC
8
DEFAULT_255_1_388
10
18.0999559
20
-0.2930175
40
0.4453611
50
179.9760419
51
183.2330638
0
ARC
8
DEFAULT_255_1_388
10
18.0806112
20
-0.2953219
40
0.2579652
50
179.4467996
51
196.2871626
0
ARC
8
DEFAULT_255_1_388
10
18.0257565
20
-0.3103291
40
0.2011057
50
196.5661293
51
227.7059371
0
ARC
8
DEFAULT_255_1_388
10
18.0442173
20
-0.2896845
40
0.2287994
50
227.7653015
51
257.8763321
0
ARC
8
DEFAULT_255_1_388
10
18.0695256
20
-0.1836039
40
0.3378385
50
257.4583525
51
270.4267406
0
ARC
8
DEFAULT_255_1_388
10
18.0746505
20
-0.150977
40
0.3704652
50
269.5965319
51
280.8788143
0
ARC
8
DEFAULT_255_1_388
10
18.1004733
20
-0.2799471
40
0.2389415
50
280.6347277
51
299.8594068
0
ARC
8
DEFAULT_255_1_388
10
18.1219503
20
-0.3207264
40
0.19289
50
300.3575552
51
314.5515667
0
ARC
8
DEFAULT_255_1_388
10
18.1126179
20
-0.3138975
40
0.204312
50
315.0730962
51
345.0429362
0
ARC
8
DEFAULT_255_1_388
10
18.0087686
20
-0.2836461
40
0.31246
50
344.598526
51
357.9270698
0
ARC
8
DEFAULT_255_1_388
10
17.9077991
20
-0.2767295
40
0.4136265
50
357.4755098
51
0.0224936
0
ARC
8
DEFAULT_255_1_388
10
18.0230869
20
-0.2739901
40
0.2983498
50
359.5051035
51
13.4236939
0
ARC
8
DEFAULT_255_1_388
10
18.1205959
20
-0.2490363
40
0.1977186
50
12.9497905
51
48.7550905
0
ARC
8
DEFAULT_255_1_388
10
18.100088
20
-0.2770627
40
0.2323321
50
49.509109
51
72.1832965
0
ARC
8
DEFAULT_255_1_388
10
18.0598349
20
-0.3965368
40
0.358397
50
71.9008458
51
84.3555134
0
ARC
8
DEFAULT_255_1_388
10
18.0416743
20
-0.5497288
40
0.512641
50
84.019632
51
89.3326067
0
LINE
8
DEFAULT_255_1_388
10
18.9611492
20
-0.0371225
11
18.9611492
21
0.0993157
0
LINE
8
DEFAULT_255_1_388
10
18.9611492
20
0.0993157
11
19.0867447
21
0.0993157
0
LINE
8
DEFAULT_255_1_388
10
18.8725999
20
0.3306282
11
18.7054405
21
0.3306282
0
LINE
8
DEFAULT_255_1_388
10
18.6936941
20
-0.2928312
11
18.8617571
21
-0.2928312
0
LINE
8
DEFAULT_255_1_388
10
19.0867447
20
-0.0371225
11
18.9611492
21
-0.0371225
0
ARC
8
DEFAULT_255_1_388
10
19.0834673
20
0.4809922
40
0.3816905
50
270.491971
51
281.8953028
0
ARC
8
DEFAULT_255_1_388
10
19.11061
20
0.3570199
40
0.2547877
50
281.6690378
51
301.2943765
0
ARC
8
DEFAULT_255_1_388
10
19.1297551
20
0.3219926
40
0.2149197
50
301.7834992
51
311.754567
0
ARC
8
DEFAULT_255_1_388
10
19.1400593
20
0.310565
40
0.1995326
50
311.7325027
51
354.2803031
0
ARC
8
DEFAULT_255_1_388
10
19.0583009
20
0.324628
40
0.2823461
50
353.0941646
51
0.1174696
0
ARC
8
DEFAULT_255_1_388
10
19.0064567
20
0.3299874
40
0.3342238
50
359.1804452
51
15.0452323
0
ARC
8
DEFAULT_255_1_388
10
19.1578625
20
0.3741546
40
0.1765747
50
13.957816
51
77.6713812
0
ARC
8
DEFAULT_255_1_388
10
19.1143861
20
0.2183464
40
0.3381982
50
76.111571
51
90.7028736
0
ARC
8
DEFAULT_255_1_388
10
19.1077273
20
0.249125
40
0.3074046
50
89.5321574
51
103.5319393
0
ARC
8
DEFAULT_255_1_388
10
19.0851657
20
0.3390443
40
0.2147041
50
103.2930114
51
133.5619756
0
ARC
8
DEFAULT_255_1_388
10
19.0801598
20
0.3457351
40
0.2064084
50
133.8349761
51
173.5343225
0
ARC
8
DEFAULT_255_1_388
10
19.1615256
20
0.3313144
40
0.2889266
50
172.5097183
51
180.1360699
0
ARC
8
DEFAULT_255_1_388
10
19.054502
20
0.335188
40
0.3490913
50
155.3483706
51
180.7484035
0
ARC
8
DEFAULT_255_1_388
10
19.0489995
20
0.3319519
40
0.3454798
50
131.5745177
51
154.4799474
0
ARC
8
DEFAULT_255_1_388
10
19.0842278
20
0.2963422
40
0.3955058
50
96.9874487
51
131.9690874
0
ARC
8
DEFAULT_255_1_388
10
19.108917
20
0.1562407
40
0.537622
50
89.8592909
51
97.7827481
0
ARC
8
DEFAULT_255_1_388
10
19.1143279
20
0.126736
40
0.5671399
50
78.3654493
51
90.4132586
0
ARC
8
DEFAULT_255_1_388
10
19.1545921
20
0.3133918
40
0.3762034
50
56.6229818
51
78.6387103
0
ARC
8
DEFAULT_255_1_388
10
19.178775
20
0.3556846
40
0.3275964
50
47.0254604
51
56.085558
0
ARC
8
DEFAULT_255_1_388
10
19.1810001
20
0.3601189
40
0.3228382
50
10.9207523
51
46.777927
0
ARC
8
DEFAULT_255_1_388
10
19.0275595
20
0.3246401
40
0.4802559
50
359.6364235
51
11.6087615
0
ARC
8
DEFAULT_255_1_388
10
19.233976
20
0.3229404
40
0.273833
50
332.3549969
51
359.7179765
0
ARC
8
DEFAULT_255_1_388
10
19.1608161
20
0.3576285
40
0.3547505
50
325.2332381
51
332.8746682
0
ARC
8
DEFAULT_255_1_388
10
19.1779744
20
0.3456763
40
0.3338396
50
292.9803892
51
325.2391113
0
ARC
8
DEFAULT_255_1_388
10
19.146894
20
0.4061679
40
0.4016959
50
292.542178
51
293.6931461
0
ARC
8
DEFAULT_255_1_388
10
19.1912512
20
-0.3203964
40
0.372079
50
57.643292
51
72.8626085
0
ARC
8
DEFAULT_255_1_388
10
19.2311346
20
-0.2557727
40
0.2961455
50
36.7246661
51
57.4701329
0
ARC
8
DEFAULT_255_1_388
10
19.2298503
20
-0.254353
40
0.2963321
50
8.054535
51
36.3561529
0
ARC
8
DEFAULT_255_1_388
10
19.1328176
20
-0.2717927
40
0.3948682
50
359.8316595
51
8.5873361
0
ARC
8
DEFAULT_255_1_388
10
19.090565
20
-0.277203
40
0.4371398
50
343.9831631
51
0.557075
0
ARC
8
DEFAULT_255_1_388
10
19.1902699
20
-0.3045037
40
0.3337749
50
311.6358204
51
343.7652116
0
ARC
8
DEFAULT_255_1_388
10
19.1476953
20
-0.2565045
40
0.3979351
50
279.7829743
51
311.625622
0
ARC
8
DEFAULT_255_1_388
10
19.1138088
20
-0.0948358
40
0.5630417
50
269.7285092
51
280.3857694
0
ARC
8
DEFAULT_255_1_388
10
19.1068401
20
-0.0994759
40
0.5584119
50
256.6827433
51
270.4412869
0
ARC
8
DEFAULT_255_1_388
10
19.0687388
20
-0.2552302
40
0.3980715
50
229.4223821
51
256.8554507
0
ARC
8
DEFAULT_255_1_388
10
19.0220941
20
-0.3077317
40
0.3278564
50
181.8183354
51
229.6455015
0
ARC
8
DEFAULT_255_1_388
10
19.1390551
20
-0.2930175
40
0.4453611
50
179.9760419
51
183.2330638
0
ARC
8
DEFAULT_255_1_388
10
19.1197103
20
-0.2953219
40
0.2579652
50
179.4467996
51
196.2871626
0
ARC
8
DEFAULT_255_1_388
10
19.0648557
20
-0.3103291
40
0.2011057
50
196.5661293
51
227.7059371
0
ARC
8
DEFAULT_255_1_388
10
19.0833164
20
-0.2896845
40
0.2287994
50
227.7653015
51
257.8763321
0
ARC
8
DEFAULT_255_1_388
10
19.1086247
20
-0.1836039
40
0.3378385
50
257.4583525
51
270.4267406
0
ARC
8
DEFAULT_255_1_388
10
19.1137497
20
-0.150977
40
0.3704652
50
269.5965319
51
280.8788143
0
ARC
8
DEFAULT_255_1_388
10
19.1395725
20
-0.2799471
40
0.2389415
50
280.6347277
51
299.8594068
0
ARC
8
DEFAULT_255_1_388
10
19.1610494
20
-0.3207264
40
0.19289
50
300.3575552
51
314.5515667
0
ARC
8
DEFAULT_255_1_388
10
19.151717
20
-0.3138975
40
0.204312
50
315.0730962
51
345.0429362
0
ARC
8
DEFAULT_255_1_388
10
19.0478677
20
-0.2836461
40
0.31246
50
344.598526
51
357.9270698
0
ARC
8
DEFAULT_255_1_388
10
18.9468982
20
-0.2767295
40
0.4136265
50
357.4755098
51
0.0224936
0
ARC
8
DEFAULT_255_1_388
10
19.062186
20
-0.2739901
40
0.2983498
50
359.5051035
51
13.4236939
0
ARC
8
DEFAULT_255_1_388
10
19.159695
20
-0.2490363
40
0.1977186
50
12.9497905
51
48.7550905
0
ARC
8
DEFAULT_255_1_388
10
19.1391872
20
-0.2770627
40
0.2323321
50
49.509109
51
72.1832965
0
ARC
8
DEFAULT_255_1_388
10
19.098934
20
-0.3965368
40
0.358397
50
71.9008458
51
84.3555134
0
ARC
8
DEFAULT_255_1_388
10
19.0807735
20
-0.5497288
40
0.512641
50
84.019632
51
89.3326067
0
ARC
8
DEFAULT_255_2_778
10
15.2718323
20
180.194989
40
0.3782009
50
0.4397807
51
91.3045231
0
ARC
8
DEFAULT_255_2_778
10
15.2696879
20
180.1927064
40
0.3803695
50
269.0259909
51
0.7811192
0
ARC
8
DEFAULT_255_2_778
10
15.4288293
20
180.1802643
40
0.7639615
50
290.7362057
51
357.8000295
0
ARC
8
DEFAULT_255_2_778
10
15.3436031
20
180.1978235
40
0.8499188
50
356.8376875
51
0.0046095
0
ARC
8
DEFAULT_255_2_778
10
15.3422443
20
180.1978748
40
0.8512778
50
0.0011515
51
85.3589632
0
ARC
8
DEFAULT_255_2_778
10
15.3422371
20
180.1788092
40
0.8702827
50
85.4600549
51
90.0075769
0
ARC
8
DEFAULT_255_2_778
10
20.173385
20
180.1885426
40
0.3845507
50
1.3931151
51
90.158378
0
ARC
8
DEFAULT_255_2_778
10
20.2329096
20
180.1821635
40
0.8684198
50
359.7643557
51
42.1181505
0
ARC
8
DEFAULT_255_2_778
10
20.2353156
20
180.1825931
40
0.866348
50
42.2037872
51
87.9292218
0
ARC
8
DEFAULT_255_2_778
10
20.2305626
20
180.1413097
40
0.9077821
50
87.7235759
51
90.0025578
0
ARC
8
DEFAULT_255_2_778
10
12.9264947
20
180.1954344
40
0.3777354
50
0.3727528
51
91.1638813
0
ARC
8
DEFAULT_255_2_778
10
12.9805692
20
180.1821595
40
0.8684602
50
359.7646302
51
42.1161032
0
ARC
8
DEFAULT_255_2_778
10
12.9830774
20
180.1827127
40
0.8662296
50
42.2002176
51
87.9268901
0
ARC
8
DEFAULT_255_2_778
10
12.9783626
20
180.1416749
40
0.9074169
50
87.7231194
51
90.002558
0
ARC
8
DEFAULT_255_2_778
10
17.559042
20
179.7903858
40
1.2841942
50
233.3100129
51
270.0348017
0
ARC
8
DEFAULT_255_2_778
10
17.5711133
20
179.8107622
40
1.3077482
50
187.7860459
51
233.4193197
0
ARC
8
DEFAULT_255_2_778
10
17.5893588
20
179.8123185
40
1.3260368
50
179.9838663
51
187.7458681
0
ARC
8
DEFAULT_255_2_778
10
17.5478523
20
179.8129375
40
1.2845303
50
143.7084173
51
180.0109545
0
ARC
8
DEFAULT_255_2_778
10
17.5629238
20
179.8078899
40
1.2996747
50
94.9692901
51
143.9223324
0
ARC
8
DEFAULT_255_2_778
10
17.5597032
20
179.8085347
40
1.2987573
50
89.9947559
51
94.8302073
0
ARC
8
DEFAULT_255_2_778
10
17.5619339
20
179.8027304
40
1.3045632
50
58.1407344
51
90.0927508
0
ARC
8
DEFAULT_255_2_778
10
17.5700831
20
179.8083662
40
1.2954809
50
3.5056409
51
58.315291
0
ARC
8
DEFAULT_255_2_778
10
17.5711163
20
179.8124563
40
1.2942058
50
359.9971467
51
3.3277024
0
ARC
8
DEFAULT_255_2_778
10
17.3826088
20
179.8103483
40
1.4827147
50
0.006083
51
0.0789681
0
ARC
8
DEFAULT_255_2_778
10
17.5604187
20
179.8105022
40
1.3049047
50
315.0308293
51
0.0001529
0
ARC
8
DEFAULT_255_2_778
10
17.5609377
20
179.8102521
40
1.3043608
50
270.000667
51
315.0224921
0
LINE
8
DEFAULT_255_2_778
10
17.5609529
20
178.5058914
11
17.5598221
21
178.5058919
0
ARC
8
DEFAULT_255_2_778
10
17.5640812
20
179.8087112
40
0.7580313
50
269.6780691
51
315.5292436
0
ARC
8
DEFAULT_255_2_778
10
17.5610107
20
179.8079878
40
0.7597205
50
315.7303962
51
0.2857903
0
ARC
8
DEFAULT_255_2_778
10
17.8487376
20
179.8122382
40
0.4719845
50
359.944048
51
0.0186519
0
ARC
8
DEFAULT_255_2_778
10
17.5687772
20
179.8112605
40
0.7519457
50
0.086204
51
85.4319233
0
ARC
8
DEFAULT_255_2_778
10
17.5599609
20
179.7688338
40
0.7949581
50
85.0420495
51
90.0100075
0
ARC
8
DEFAULT_255_2_778
10
17.5579396
20
179.8255519
40
0.7382424
50
89.8538973
51
89.9999976
0
ARC
8
DEFAULT_255_2_778
10
17.558077
20
179.8126044
40
0.7511899
50
90.01048
51
134.9443097
0
ARC
8
DEFAULT_255_2_778
10
17.5582947
20
179.8124222
40
0.7514726
50
134.9462486
51
180.0023145
0
ARC
8
DEFAULT_255_2_778
10
17.5708624
20
179.8084875
40
0.7640503
50
179.7072119
51
222.5790813
0
ARC
8
DEFAULT_255_2_778
10
17.5579296
20
179.7974475
40
0.7470579
50
222.6267201
51
270.1451401
0
ARC
8
DEFAULT_255_2_778
10
9.564442
20
179.7903858
40
1.2841942
50
233.3100129
51
270.0348017
0
ARC
8
DEFAULT_255_2_778
10
9.5765133
20
179.8107622
40
1.3077482
50
187.7860459
51
233.4193197
0
ARC
8
DEFAULT_255_2_778
10
9.5947588
20
179.8123185
40
1.3260368
50
179.9838663
51
187.7458681
0
ARC
8
DEFAULT_255_2_778
10
9.5535129
20
179.8127961
40
1.2847909
50
143.1940819
51
180.0046489
0
ARC
8
DEFAULT_255_2_778
10
9.5683078
20
179.8081006
40
1.2994598
50
94.9233187
51
143.4191345
0
ARC
8
DEFAULT_255_2_778
10
9.5651008
20
179.808812
40
1.2984798
50
89.9946509
51
94.7850278
0
ARC
8
DEFAULT_255_2_778
10
9.5673902
20
179.8026441
40
1.3046496
50
58.1428905
51
90.0952196
0
ARC
8
DEFAULT_255_2_778
10
9.5758177
20
179.8087453
40
1.2950254
50
3.2656058
51
58.3171105
0
ARC
8
DEFAULT_255_2_778
10
9.5763693
20
179.8127485
40
1.2942527
50
359.997494
51
3.0900664
0
ARC
8
DEFAULT_255_2_778
10
9.5936718
20
179.8105448
40
1.276952
50
359.9949307
51
0.0963391
0
ARC
8
DEFAULT_255_2_778
10
9.5663093
20
179.8105585
40
1.3043147
50
315.0200668
51
359.994431
0
ARC
8
DEFAULT_255_2_778
10
9.5663338
20
179.81032
40
1.3041287
50
270.0008363
51
315.026719
0
LINE
8
DEFAULT_255_2_778
10
9.5663529
20
178.5061914
11
9.5652221
21
178.5061919
0
ARC
8
DEFAULT_255_2_778
10
9.5694412
20
179.8087135
40
0.7580334
50
269.6810953
51
315.6152252
0
ARC
8
DEFAULT_255_2_778
10
9.5663839
20
179.8080381
40
0.7597504
50
315.8129036
51
0.3254485
0
ARC
8
DEFAULT_255_2_778
10
9.5738176
20
179.8109565
40
0.7523058
50
0.1093155
51
85.7820321
0
ARC
8
DEFAULT_255_2_778
10
9.5653381
20
179.7694263
40
0.7943655
50
85.3923987
51
90.0083732
0
ARC
8
DEFAULT_255_2_778
10
9.5633385
20
179.8246348
40
0.7391595
50
89.8539942
51
89.9999859
0
ARC
8
DEFAULT_255_2_778
10
9.563405
20
179.8127783
40
0.7510159
50
90.0050654
51
134.9497993
0
ARC
8
DEFAULT_255_2_778
10
9.5632746
20
179.8125963
40
0.7510526
50
134.9329452
51
180.0155944
0
ARC
8
DEFAULT_255_2_778
10
9.5762945
20
179.8084612
40
0.7640826
50
179.7052536
51
222.5741919
0
ARC
8
DEFAULT_255_2_778
10
9.5632805
20
179.7974163
40
0.7470269
50
222.6256588
51
270.1489141
0
LINE
8
DEFAULT_255_2_778
10
14.0768221
20
181.0284919
11
14.0768221
21
178.5656919
0
LINE
8
DEFAULT_255_2_778
10
14.0768221
20
178.5656919
11
14.6203221
21
178.5656919
0
LINE
8
DEFAULT_255_2_778
10
14.6203221
20
178.5656919
11
14.6203221
21
180.5730919
0
LINE
8
DEFAULT_255_2_778
10
14.6203221
20
180.5730919
11
15.2632221
21
180.5730919
0
LINE
8
DEFAULT_255_2_778
10
15.2632221
20
179.8123919
11
14.7986221
21
179.8123919
0
LINE
8
DEFAULT_255_2_778
10
14.7986221
20
179.8123919
11
15.6397221
21
178.5653919
0
LINE
8
DEFAULT_255_2_778
10
15.6397221
20
178.5653919
11
16.3126221
21
178.5653919
0
LINE
8
DEFAULT_255_2_778
10
16.3126221
20
178.5653919
11
15.6993221
21
179.4657919
0
LINE
8
DEFAULT_255_2_778
10
15.3421221
20
181.0490919
11
14.6200221
21
181.0490919
0
LINE
8
DEFAULT_255_2_778
10
14.6200221
20
181.0490919
11
14.0766221
21
181.0284919
0
LINE
8
DEFAULT_255_2_778
10
14.0766221
20
181.0284919
11
14.0768221
21
181.0284919
0
LINE
8
DEFAULT_255_2_778
10
19.0142221
20
181.0284919
11
19.0142221
21
178.5656919
0
LINE
8
DEFAULT_255_2_778
10
19.0142221
20
178.5656919
11
19.5577221
21
178.5656919
0
LINE
8
DEFAULT_255_2_778
10
19.5577221
20
178.5656919
11
19.5577221
21
180.5730919
0
LINE
8
DEFAULT_255_2_778
10
19.5577221
20
180.5730919
11
20.1723221
21
180.5730919
0
LINE
8
DEFAULT_255_2_778
10
20.5578221
20
180.1978919
11
20.5578221
21
178.5656919
0
LINE
8
DEFAULT_255_2_778
10
20.5578221
20
178.5656919
11
21.1013221
21
178.5656919
0
LINE
8
DEFAULT_255_2_778
10
21.1013221
20
178.5656919
11
21.1013221
21
180.1785919
0
LINE
8
DEFAULT_255_2_778
10
20.2305221
20
181.0490919
11
19.5577221
21
181.0490919
0
LINE
8
DEFAULT_255_2_778
10
19.5577221
20
181.0490919
11
19.0142221
21
181.0284919
0
LINE
8
DEFAULT_255_2_778
10
19.0142221
20
181.0284919
11
19.0142221
21
181.0284919
0
LINE
8
DEFAULT_255_2_778
10
11.0196221
20
181.0284919
11
11.0196221
21
178.5656919
0
LINE
8
DEFAULT_255_2_778
10
11.0196221
20
178.5656919
11
11.5628221
21
178.5656919
0
LINE
8
DEFAULT_255_2_778
10
11.5628221
20
178.5656919
11
11.5628221
21
180.5730919
0
LINE
8
DEFAULT_255_2_778
10
11.5628221
20
180.5730919
11
12.1671221
21
180.5730919
0
LINE
8
DEFAULT_255_2_778
10
12.1671221
20
180.5730919
11
12.1671221
21
178.5656919
0
LINE
8
DEFAULT_255_2_778
10
12.1671221
20
178.5656919
11
12.7105221
21
178.5656919
0
LINE
8
DEFAULT_255_2_778
10
12.7105221
20
178.5656919
11
12.7105221
21
180.5730919
0
LINE
8
DEFAULT_255_2_778
10
12.7105221
20
180.5730919
11
12.9188221
21
180.5730919
0
LINE
8
DEFAULT_255_2_778
10
13.3042221
20
180.1978919
11
13.3042221
21
178.5656919
0
LINE
8
DEFAULT_255_2_778
10
13.3042221
20
178.5656919
11
13.8490221
21
178.5656919
0
LINE
8
DEFAULT_255_2_778
10
13.8490221
20
178.5656919
11
13.8490221
21
180.1785919
0
LINE
8
DEFAULT_255_2_778
10
12.9783221
20
181.0490919
11
11.5731221
21
181.0490919
0
LINE
8
DEFAULT_255_2_778
10
11.5731221
20
181.0490919
11
11.0193221
21
181.0284919
0
LINE
8
DEFAULT_255_2_778
10
11.0193221
20
181.0284919
11
11.0196221
21
181.0284919
0
LINE
8
DEFAULT_255_2_778
10
17.5598221
20
178.5058919
11
17.5598221
21
178.5061919
0
LINE
8
DEFAULT_255_2_778
10
9.5652221
20
178.5061919
11
9.5652221
21
178.5061919
0
LINE
8
DEFAULT_255_1_388
10
11.195032
20
176.3870468
11
11.3694199
21
176.3870468
0
LINE
8
DEFAULT_255_1_388
10
10.3565242
20
176.5659525
11
10.3565242
21
176.6924516
0
LINE
8
DEFAULT_255_1_388
10
11.3694199
20
176.8623217
11
11.195032
21
176.8623217
0
LINE
8
DEFAULT_255_1_388
10
10.5309121
20
176.6879337
11
10.5309121
21
176.5605312
0
ARC
8
DEFAULT_255_1_388
10
10.7528433
20
176.4542329
40
0.6202263
50
340.1774904
51
353.7812217
0
ARC
8
DEFAULT_255_1_388
10
10.9296286
20
176.3883893
40
0.4315926
50
311.4560052
51
340.4420756
0
ARC
8
DEFAULT_255_1_388
10
10.9258826
20
176.4008665
40
0.4434573
50
282.4332229
51
310.7514507
0
ARC
8
DEFAULT_255_1_388
10
10.8764644
20
176.6050703
40
0.6535262
50
269.9358869
51
282.8096729
0
ARC
8
DEFAULT_255_1_388
10
10.8706583
20
176.7563329
40
0.8048043
50
269.9995752
51
270.3612856
0
ARC
8
DEFAULT_255_1_388
10
10.8647073
20
176.4764781
40
0.5249831
50
250.7885263
51
270.6488451
0
ARC
8
DEFAULT_255_1_388
10
10.8457898
20
176.4047853
40
0.4510942
50
219.3628377
51
250.0611024
0
ARC
8
DEFAULT_255_1_388
10
10.9390772
20
176.4840653
40
0.5735046
50
193.5480293
51
219.5755675
0
ARC
8
DEFAULT_255_1_388
10
11.2058981
20
176.553352
40
0.849146
50
181.1220183
51
193.8754971
0
ARC
8
DEFAULT_255_1_388
10
11.4382214
20
176.5657914
40
1.0816971
50
179.9914644
51
181.5398227
0
ARC
8
DEFAULT_255_1_388
10
11.2305525
20
176.6966586
40
0.8740384
50
169.5837606
51
180.275782
0
ARC
8
DEFAULT_255_1_388
10
11.0238873
20
176.7348439
40
0.6638751
50
155.0367033
51
169.6002779
0
ARC
8
DEFAULT_255_1_388
10
10.8961331
20
176.7964336
40
0.5220662
50
136.7831557
51
155.2472983
0
ARC
8
DEFAULT_255_1_388
10
10.8523122
20
176.8336577
40
0.4646502
50
121.7633063
51
136.4281161
0
ARC
8
DEFAULT_255_1_388
10
10.8674962
20
176.8056049
40
0.4964979
50
95.6460018
51
121.5489589
0
ARC
8
DEFAULT_255_1_388
10
10.8851936
20
176.6808704
40
0.6223912
50
89.9245727
51
96.1375919
0
ARC
8
DEFAULT_255_1_388
10
10.8908641
20
176.6942721
40
0.6090084
50
76.6779212
51
90.456405
0
ARC
8
DEFAULT_255_1_388
10
10.9351454
20
176.873206
40
0.42469
50
47.4858803
51
76.9287069
0
ARC
8
DEFAULT_255_1_388
10
10.9186068
20
176.8619623
40
0.4441778
50
16.5424081
51
46.8934505
0
ARC
8
DEFAULT_255_1_388
10
10.7377118
20
176.8025265
40
0.6345318
50
5.4072971
51
17.0363711
0
ARC
8
DEFAULT_255_1_388
10
10.5758843
20
176.7765304
40
0.6250632
50
7.8888693
51
15.9242022
0
ARC
8
DEFAULT_255_1_388
10
10.7993828
20
176.8414309
40
0.3923364
50
15.7650676
51
27.9410069
0
ARC
8
DEFAULT_255_1_388
10
10.9235997
20
176.9079317
40
0.2514401
50
27.8167196
51
46.4007942
0
ARC
8
DEFAULT_255_1_388
10
10.9291839
20
176.9072882
40
0.2480958
50
47.4372362
51
75.0695672
0
ARC
8
DEFAULT_255_1_388
10
10.8944675
20
176.7864277
40
0.3738281
50
74.7009379
51
87.8124314
0
ARC
8
DEFAULT_255_1_388
10
10.8862292
20
176.6680659
40
0.4924321
50
87.3802571
51
90.0251599
0
ARC
8
DEFAULT_255_1_388
10
10.8818939
20
176.8000997
40
0.3604218
50
89.3451886
51
108.5744412
0
ARC
8
DEFAULT_255_1_388
10
10.8664931
20
176.8578836
40
0.3007661
50
109.2998307
51
143.3037387
0
ARC
8
DEFAULT_255_1_388
10
10.9522221
20
176.7919584
40
0.4089031
50
143.075267
51
163.1918576
0
ARC
8
DEFAULT_255_1_388
10
11.1718055
20
176.7226652
40
0.6391492
50
162.9375929
51
174.6208776
0
ARC
8
DEFAULT_255_1_388
10
11.4672437
20
176.6902711
40
0.9363344
50
174.342123
51
180.1430283
0
ARC
8
DEFAULT_255_1_388
10
11.3624978
20
176.5559117
40
0.8315986
50
179.6817261
51
189.150555
0
ARC
8
DEFAULT_255_1_388
10
11.0811727
20
176.5090559
40
0.5464044
50
188.9911061
51
203.5772363
0
ARC
8
DEFAULT_255_1_388
10
10.9597019
20
176.4586539
40
0.4149206
50
203.9075402
51
215.1312435
0
ARC
8
DEFAULT_255_1_388
10
10.8558817
20
176.3781907
40
0.2837747
50
213.9071511
51
263.8848919
0
ARC
8
DEFAULT_255_1_388
10
10.869981
20
176.4664519
40
0.3730641
50
263.1757928
51
270.1031044
0
ARC
8
DEFAULT_255_1_388
10
10.873589
20
176.6067511
40
0.5133712
50
269.6722503
51
279.0606936
0
ARC
8
DEFAULT_255_1_388
10
10.9036045
20
176.425315
40
0.3294739
50
278.8749101
51
293.6349581
0
ARC
8
DEFAULT_255_1_388
10
10.9396249
20
176.3407251
40
0.2375405
50
293.8553806
51
310.0518171
0
ARC
8
DEFAULT_255_1_388
10
10.9401758
20
176.3337021
40
0.2318463
50
311.0644687
51
332.0111037
0
ARC
8
DEFAULT_255_1_388
10
10.8060431
20
176.4076702
40
0.3850112
50
331.6586806
51
343.2877423
0
ARC
8
DEFAULT_255_1_388
10
10.5739896
20
176.4789806
40
0.6277712
50
343.1446576
51
351.0103568
0
ARC
8
DEFAULT_255_1_388
10
10.410722
20
176.5089873
40
0.7937327
50
350.71248
51
351.1626997
0
LINE
8
DEFAULT_255_1_388
10
12.1573281
20
176.3509042
11
12.1573281
21
177.2851898
0
LINE
8
DEFAULT_255_1_388
10
12.1573281
20
177.2851898
11
12.3317161
21
177.2851898
0
LINE
8
DEFAULT_255_1_388
10
12.3317161
20
177.2851898
11
12.3317161
21
176.3536149
0
LINE
8
DEFAULT_255_1_388
10
11.5013403
20
176.3328329
11
11.6748247
21
176.3328329
0
ARC
8
DEFAULT_255_1_388
10
11.8264883
20
176.3492958
40
0.5052462
50
346.3132364
51
0.4897996
0
ARC
8
DEFAULT_255_1_388
10
11.9804416
20
176.3098792
40
0.3463431
50
313.3793278
51
346.6225662
0
ARC
8
DEFAULT_255_1_388
10
11.95785
20
176.3383186
40
0.3825426
50
281.1587645
51
312.9130978
0
ARC
8
DEFAULT_255_1_388
10
11.9195405
20
176.5064607
40
0.5549427
50
269.6423454
51
281.6796473
0
ARC
8
DEFAULT_255_1_388
10
11.9118184
20
176.5682499
40
0.6167359
50
258.9989698
51
270.3955842
0
ARC
8
DEFAULT_255_1_388
10
11.8696642
20
176.3602792
40
0.4045461
50
239.625581
51
259.2387746
0
ARC
8
DEFAULT_255_1_388
10
11.8371635
20
176.2989638
40
0.3352261
50
227.4961805
51
239.1189042
0
ARC
8
DEFAULT_255_1_388
10
11.8329519
20
176.2921009
40
0.3273245
50
191.3396895
51
227.2280349
0
ARC
8
DEFAULT_255_1_388
10
11.9909841
20
176.3294896
40
0.4896551
50
179.6087821
51
191.9932937
0
ARC
8
DEFAULT_255_1_388
10
12.0060585
20
176.3303216
40
0.3312434
50
179.565607
51
192.0702314
0
ARC
8
DEFAULT_255_1_388
10
11.8967538
20
176.305756
40
0.2192212
50
191.7655537
51
215.6462731
0
ARC
8
DEFAULT_255_1_388
10
11.8766779
20
176.2936629
40
0.1958682
50
216.1940686
51
224.3931249
0
ARC
8
DEFAULT_255_1_388
10
11.8774475
20
176.2966862
40
0.1985399
50
224.861176
51
254.3628599
0
ARC
8
DEFAULT_255_1_388
10
11.9079018
20
176.3973135
40
0.3036595
50
253.9470645
51
267.395327
0
ARC
8
DEFAULT_255_1_388
10
11.9158318
20
176.5012346
40
0.4078462
50
266.9458957
51
270.0343693
0
ARC
8
DEFAULT_255_1_388
10
11.9186898
20
176.3705844
40
0.2772084
50
269.4598277
51
286.1819188
0
ARC
8
DEFAULT_255_1_388
10
11.9345871
20
176.3122765
40
0.2167824
50
286.4415261
51
315.8045035
0
ARC
8
DEFAULT_255_1_388
10
11.9284904
20
176.3170201
40
0.2244619
50
316.0212602
51
345.479585
0
ARC
8
DEFAULT_255_1_388
10
11.8193062
20
176.3477753
40
0.3378781
50
345.0729937
51
358.3249855
0
ARC
8
DEFAULT_255_1_388
10
11.7217508
20
176.3540509
40
0.4355887
50
357.8749464
51
359.5860856
0
LINE
8
DEFAULT_255_1_388
10
12.9488506
20
176.5966737
11
12.9488506
21
176.4602355
0
LINE
8
DEFAULT_255_1_388
10
12.9488506
20
176.4602355
11
12.5079111
21
176.4602355
0
LINE
8
DEFAULT_255_1_388
10
12.5079111
20
176.4602355
11
12.5079111
21
176.5966737
0
LINE
8
DEFAULT_255_1_388
10
12.5079111
20
176.5966737
11
12.9488506
21
176.5966737
0
LINE
8
DEFAULT_255_1_388
10
14.0105388
20
176.9047892
11
13.8361509
21
176.9047892
0
LINE
8
DEFAULT_255_1_388
10
13.0572783
20
176.3509042
11
13.2316663
21
176.3509042
0
ARC
8
DEFAULT_255_1_388
10
13.9102236
20
177.9111821
40
1.4087688
50
248.9196578
51
254.1442424
0
ARC
8
DEFAULT_255_1_388
10
13.7212116
20
177.4245805
40
0.8867498
50
241.6337352
51
249.0064643
0
ARC
8
DEFAULT_255_1_388
10
13.5492429
20
177.1094764
40
0.5277799
50
230.4982261
51
241.8087583
0
ARC
8
DEFAULT_255_1_388
10
13.46102
20
176.9970686
40
0.3849419
50
227.4062979
51
229.9877433
0
ARC
8
DEFAULT_255_1_388
10
13.4061547
20
176.9435155
40
0.3084129
50
200.6782127
51
228.1765252
0
ARC
8
DEFAULT_255_1_388
10
13.4142916
20
176.9418277
40
0.315461
50
179.506278
51
199.8695278
0
ARC
8
DEFAULT_255_1_388
10
13.4132505
20
176.9501671
40
0.3144584
50
132.4834401
51
181.0242352
0
ARC
8
DEFAULT_255_1_388
10
13.4801709
20
176.8869788
40
0.4063094
50
129.2526113
51
133.4249077
0
ARC
8
DEFAULT_255_1_388
10
13.4967301
20
176.8621619
40
0.436014
50
101.9878945
51
128.8741833
0
ARC
8
DEFAULT_255_1_388
10
13.5415717
20
176.668536
40
0.6347415
50
89.5906376
51
102.3170567
0
ARC
8
DEFAULT_255_1_388
10
13.5495028
20
176.7043586
40
0.5989122
50
77.2359491
51
90.3248968
0
ARC
8
DEFAULT_255_1_388
10
13.5727959
20
176.8131554
40
0.4876594
50
63.8379856
51
77.0808925
0
ARC
8
DEFAULT_255_1_388
10
13.6040493
20
176.8713882
40
0.4216191
50
45.9863127
51
64.1608798
0
ARC
8
DEFAULT_255_1_388
10
13.6333886
20
176.904899
40
0.3771394
50
32.2747934
51
45.6544796
0
ARC
8
DEFAULT_255_1_388
10
13.6408693
20
176.9070426
40
0.3696765
50
359.6507495
51
32.6129943
0
ARC
8
DEFAULT_255_1_388
10
13.5347876
20
176.9075788
40
0.3013762
50
359.469654
51
14.983205
0
ARC
8
DEFAULT_255_1_388
10
13.6141128
20
176.9288288
40
0.2192542
50
14.9781954
51
48.2004799
0
ARC
8
DEFAULT_255_1_388
10
13.5956239
20
176.9055937
40
0.2489048
50
48.5926661
51
74.1242559
0
ARC
8
DEFAULT_255_1_388
10
13.5581041
20
176.7817607
40
0.3782845
50
73.7889321
51
86.6653996
0
ARC
8
DEFAULT_255_1_388
10
13.5465856
20
176.6459955
40
0.5145025
50
86.2642725
51
90.0533288
0
ARC
8
DEFAULT_255_1_388
10
13.5433948
20
176.6904376
40
0.4700681
50
89.669455
51
99.2313411
0
ARC
8
DEFAULT_255_1_388
10
13.5161108
20
176.8529401
40
0.3052945
50
99.0695987
51
113.7659242
0
ARC
8
DEFAULT_255_1_388
10
13.4853103
20
176.9255772
40
0.226407
50
114.0402885
51
127.9848946
0
ARC
8
DEFAULT_255_1_388
10
13.4582579
20
176.9588884
40
0.1835045
50
127.7287217
51
176.7106493
0
ARC
8
DEFAULT_255_1_388
10
13.5346244
20
176.947521
40
0.2604907
50
175.1780759
51
180.0581213
0
ARC
8
DEFAULT_255_1_388
10
13.4397587
20
176.9461411
40
0.1656287
50
179.6140658
51
228.124674
0
ARC
8
DEFAULT_255_1_388
10
13.4894945
20
176.992194
40
0.2332038
50
226.5785315
51
230.8792476
0
ARC
8
DEFAULT_255_1_388
10
13.5424431
20
177.0624908
40
0.3211664
50
231.4636401
51
241.9261664
0
ARC
8
DEFAULT_255_1_388
10
13.6771215
20
177.3103349
40
0.6032345
50
241.7177136
51
248.3259138
0
ARC
8
DEFAULT_255_1_388
10
13.832981
20
177.6964771
40
1.0196417
50
248.2007377
51
252.4527713
0
ARC
8
DEFAULT_255_1_388
10
13.9683336
20
178.1149092
40
1.4594143
50
252.3388938
51
254.347037
0
ARC
8
DEFAULT_255_1_388
10
13.1198637
20
175.0801095
40
1.6917621
50
71.0197462
51
74.4085467
0
ARC
8
DEFAULT_255_1_388
10
13.3105725
20
175.6306144
40
1.1091618
50
66.1845203
51
71.086519
0
ARC
8
DEFAULT_255_1_388
10
13.4856274
20
176.0247439
40
0.6779073
50
59.3537334
51
66.269255
0
ARC
8
DEFAULT_255_1_388
10
13.5856
20
176.1938777
40
0.4814366
50
49.1021732
51
59.3294421
0
ARC
8
DEFAULT_255_1_388
10
13.6776988
20
176.2988575
40
0.3417875
50
32.7924183
51
49.2503526
0
ARC
8
DEFAULT_255_1_388
10
13.7126602
20
176.3238311
40
0.2988789
50
31.121225
51
32.3977355
0
ARC
8
DEFAULT_255_1_388
10
13.703878
20
176.3205728
40
0.3080861
50
8.1116803
51
30.7958224
0
ARC
8
DEFAULT_255_1_388
10
13.6127126
20
176.3050437
40
0.4005385
50
359.8390945
51
8.4707348
0
ARC
8
DEFAULT_255_1_388
10
13.6831173
20
176.2995751
40
0.3301608
50
337.4732479
51
0.7538283
0
ARC
8
DEFAULT_255_1_388
10
13.7032198
20
176.2973554
40
0.3107929
50
307.5917028
51
336.4313755
0
ARC
8
DEFAULT_255_1_388
10
13.6521256
20
176.3541509
40
0.3870096
50
307.6560665
51
308.4561779
0
ARC
8
DEFAULT_255_1_388
10
13.6255473
20
176.3949832
40
0.435591
50
284.3733666
51
307.1426212
0
ARC
8
DEFAULT_255_1_388
10
13.5698367
20
176.5999391
40
0.6479685
50
272.4384566
51
284.6464689
0
ARC
8
DEFAULT_255_1_388
10
13.5555752
20
176.8023434
40
0.8508149
50
269.9708517
51
272.8180721
0
ARC
8
DEFAULT_255_1_388
10
13.5507434
20
176.5731283
40
0.6216151
50
248.2707343
51
270.4054609
0
ARC
8
DEFAULT_255_1_388
10
13.5446306
20
176.5516673
40
0.5994203
50
246.1380358
51
248.054058
0
ARC
8
DEFAULT_255_1_388
10
13.4975448
20
176.4527705
40
0.4899388
50
233.1671897
51
246.4951656
0
ARC
8
DEFAULT_255_1_388
10
13.4352084
20
176.3686137
40
0.3852115
50
215.3403381
51
233.084328
0
ARC
8
DEFAULT_255_1_388
10
13.4045448
20
176.3463093
40
0.3472969
50
179.2419235
51
215.2648426
0
ARC
8
DEFAULT_255_1_388
10
13.4908999
20
176.3478979
40
0.259251
50
179.3355796
51
199.1045873
0
ARC
8
DEFAULT_255_1_388
10
13.453514
20
176.3381223
40
0.2207454
50
199.8830064
51
232.7061328
0
ARC
8
DEFAULT_255_1_388
10
13.5066415
20
176.4049456
40
0.306101
50
232.3736206
51
255.5136621
0
ARC
8
DEFAULT_255_1_388
10
13.5449921
20
176.5449177
40
0.4512213
50
255.2447928
51
267.5318292
0
ARC
8
DEFAULT_255_1_388
10
13.5548388
20
176.6835709
40
0.5901825
50
267.1564563
51
270.0294721
0
ARC
8
DEFAULT_255_1_388
10
13.5579713
20
176.6336623
40
0.5402814
50
269.6999944
51
278.1662446
0
ARC
8
DEFAULT_255_1_388
10
13.586774
20
176.4389974
40
0.3435003
50
278.0229022
51
290.6255326
0
ARC
8
DEFAULT_255_1_388
10
13.6258907
20
176.3346547
40
0.2320666
50
290.6616368
51
307.0374127
0
ARC
8
DEFAULT_255_1_388
10
13.6596807
20
176.293204
40
0.1786372
50
306.3942078
51
355.303191
0
ARC
8
DEFAULT_255_1_388
10
13.60211
20
176.3018186
40
0.2367516
50
354.3662092
51
0.0709489
0
ARC
8
DEFAULT_255_1_388
10
13.6180969
20
176.3043561
40
0.2207761
50
359.4175379
51
16.1975911
0
ARC
8
DEFAULT_255_1_388
10
13.6693086
20
176.3183954
40
0.1676828
50
16.4721294
51
52.6261798
0
ARC
8
DEFAULT_255_1_388
10
13.5769594
20
176.1964606
40
0.3206412
50
52.7381828
51
62.4979144
0
ARC
8
DEFAULT_255_1_388
10
13.4211347
20
175.9032236
40
0.6527035
50
62.2517425
51
68.1219454
0
ARC
8
DEFAULT_255_1_388
10
13.2276835
20
175.4277951
40
1.1659797
50
68.006043
51
71.8055127
0
ARC
8
DEFAULT_255_1_388
10
13.0256743
20
174.8219723
40
1.8045908
50
71.718361
51
73.9260743
0
LINE
8
DEFAULT_255_1_388
10
14.1668555
20
176.4313214
11
14.1668555
21
176.4620426
0
LINE
8
DEFAULT_255_1_388
10
14.9963276
20
176.4801139
11
14.9963276
21
176.4105395
0
LINE
8
DEFAULT_255_1_388
10
14.9963276
20
176.4105395
11
14.3340149
21
176.4105395
0
LINE
8
DEFAULT_255_1_388
10
14.881575
20
176.2198874
11
14.9836777
21
176.1403737
0
LINE
8
DEFAULT_255_1_388
10
14.3394363
20
176.5478813
11
14.8291682
21
176.5478813
0
LINE
8
DEFAULT_255_1_388
10
14.8291682
20
176.5478813
11
14.8291682
21
176.5605312
0
ARC
8
DEFAULT_255_1_388
10
14.6100316
20
176.443821
40
0.4923176
50
252.326534
51
270.5809615
0
ARC
8
DEFAULT_255_1_388
10
14.586978
20
176.360494
40
0.4059384
50
223.3000488
51
251.8562489
0
ARC
8
DEFAULT_255_1_388
10
14.610756
20
176.3835898
40
0.4390832
50
190.9374369
51
223.3654369
0
ARC
8
DEFAULT_255_1_388
10
14.8048238
20
176.4274598
40
0.63798
50
179.6531919
51
191.4988561
0
ARC
8
DEFAULT_255_1_388
10
14.8185265
20
176.4656571
40
0.6516811
50
167.4005523
51
180.3177836
0
ARC
8
DEFAULT_255_1_388
10
14.7001936
20
176.4906853
40
0.5307402
50
154.1835149
51
167.2508278
0
ARC
8
DEFAULT_255_1_388
10
14.6291527
20
176.5280925
40
0.4505076
50
134.3150225
51
154.5315008
0
ARC
8
DEFAULT_255_1_388
10
14.6046862
20
176.549555
40
0.4180662
50
122.8617482
51
133.9707159
0
ARC
8
DEFAULT_255_1_388
10
14.593047
20
176.5745882
40
0.3907416
50
89.8248474
51
123.4199325
0
ARC
8
DEFAULT_255_1_388
10
14.5986768
20
176.5018352
40
0.4635141
50
74.7874349
51
90.5482648
0
ARC
8
DEFAULT_255_1_388
10
14.6317231
20
176.6238987
40
0.3370565
50
39.8178888
51
74.7634383
0
ARC
8
DEFAULT_255_1_388
10
14.5740474
20
176.5789356
40
0.4101553
50
16.8990848
51
39.4830125
0
ARC
8
DEFAULT_255_1_388
10
14.3609088
20
176.5106711
40
0.6339427
50
4.9634768
51
17.2027767
0
ARC
8
DEFAULT_255_1_388
10
14.0888493
20
176.48196
40
0.9074803
50
359.8834402
51
5.2832409
0
ARC
8
DEFAULT_255_1_388
10
14.7680851
20
176.4179981
40
0.4341343
50
180.9844233
51
194.9402766
0
ARC
8
DEFAULT_255_1_388
10
14.6500016
20
176.385717
40
0.3117211
50
194.8030557
51
222.0412897
0
ARC
8
DEFAULT_255_1_388
10
14.6157889
20
176.3517715
40
0.2635903
50
221.541578
51
268.8616004
0
ARC
8
DEFAULT_255_1_388
10
14.6240009
20
176.427828
40
0.3398611
50
267.7321071
51
270.009808
0
ARC
8
DEFAULT_255_1_388
10
14.6260073
20
176.4505178
40
0.3625561
50
269.6921218
51
280.4122297
0
ARC
8
DEFAULT_255_1_388
10
14.6458484
20
176.3471767
40
0.2573323
50
280.2257165
51
298.633539
0
ARC
8
DEFAULT_255_1_388
10
14.6583898
20
176.3207578
40
0.2281403
50
299.0485543
51
300.4624141
0
ARC
8
DEFAULT_255_1_388
10
14.5824878
20
176.4472796
40
0.3756797
50
300.6578578
51
322.037749
0
ARC
8
DEFAULT_255_1_388
10
14.54544
20
176.4796266
40
0.4247956
50
321.671786
51
322.3059078
0
ARC
8
DEFAULT_255_1_388
10
14.6477963
20
176.3502267
40
0.3960488
50
276.9729088
51
328.0035579
0
ARC
8
DEFAULT_255_1_388
10
14.6166433
20
176.5167609
40
0.5652345
50
269.8358003
51
278.0581296
0
ARC
8
DEFAULT_255_1_388
10
14.5910732
20
176.600582
40
0.2274263
50
89.2017936
51
117.2852353
0
ARC
8
DEFAULT_255_1_388
10
14.5970483
20
176.5958637
40
0.2343798
50
118.0546404
51
137.4544511
0
ARC
8
DEFAULT_255_1_388
10
14.6392126
20
176.5575556
40
0.2913471
50
137.5109688
51
158.8516701
0
ARC
8
DEFAULT_255_1_388
10
14.7672227
20
176.5058902
40
0.4293804
50
158.5845496
51
170.1719753
0
ARC
8
DEFAULT_255_1_388
10
14.8988563
20
176.4797519
40
0.5635533
50
169.8378964
51
173.0563877
0
ARC
8
DEFAULT_255_1_388
10
14.3703846
20
176.5372187
40
0.4593755
50
2.9089079
51
12.88469
0
ARC
8
DEFAULT_255_1_388
10
14.5245766
20
176.5735082
40
0.3009753
50
12.6957404
51
28.6405841
0
ARC
8
DEFAULT_255_1_388
10
14.5855263
20
176.6050577
40
0.232366
50
29.016559
51
41.1492981
0
ARC
8
DEFAULT_255_1_388
10
14.6083242
20
176.624908
40
0.2021373
50
41.1646967
51
85.001362
0
ARC
8
DEFAULT_255_1_388
10
14.5947246
20
176.5422775
40
0.2857091
50
83.728216
51
90.0968824
0
LINE
8
DEFAULT_255_1_388
10
15.6622546
20
176.9526781
11
15.6622546
21
176.797265
0
LINE
8
DEFAULT_255_1_388
10
15.3568499
20
176.6635375
11
15.3568499
21
175.9696
0
LINE
8
DEFAULT_255_1_388
10
15.3568499
20
175.9696
11
15.1896904
21
175.9696
0
LINE
8
DEFAULT_255_1_388
10
15.1896904
20
175.9696
11
15.1896904
21
176.9472567
0
LINE
8
DEFAULT_255_1_388
10
15.1896904
20
176.9472567
11
15.352332
21
176.9472567
0
LINE
8
DEFAULT_255_1_388
10
15.352332
20
176.9472567
11
15.3550427
21
176.8343112
0
ARC
8
DEFAULT_255_1_388
10
15.5872706
20
176.3406068
40
0.4627735
50
80.6751522
51
86.893806
0
ARC
8
DEFAULT_255_1_388
10
15.5804536
20
176.2314103
40
0.5721798
50
86.8046851
51
90.0423898
0
ARC
8
DEFAULT_255_1_388
10
15.5762956
20
176.5081197
40
0.2954939
50
89.2758283
51
106.6212906
0
ARC
8
DEFAULT_255_1_388
10
15.553298
20
176.5917009
40
0.2088351
50
107.1347109
51
157.6456887
0
ARC
8
DEFAULT_255_1_388
10
15.6301043
20
176.5489908
40
0.296292
50
155.6557383
51
157.256838
0
ARC
8
DEFAULT_255_1_388
10
15.6080657
20
176.6800472
40
0.296341
50
127.8167201
51
148.6300223
0
ARC
8
DEFAULT_255_1_388
10
15.5795404
20
176.7093066
40
0.2557782
50
91.3329934
51
126.7875218
0
ARC
8
DEFAULT_255_1_388
10
15.5880791
20
176.6289718
40
0.3363561
50
89.9858247
51
92.4688453
0
ARC
8
DEFAULT_255_1_388
10
15.5890284
20
176.6598114
40
0.3055179
50
85.3587643
51
90.1624243
0
ARC
8
DEFAULT_255_1_388
10
15.598535
20
176.7727458
40
0.1921848
50
78.4019195
51
85.4592653
0
ARC
8
DEFAULT_255_1_388
10
15.614841
20
176.8505142
40
0.1127267
50
67.7849217
51
78.573798
0
ARC
8
DEFAULT_255_1_388
10
15.6270045
20
176.8820374
40
0.0789473
50
63.4805074
51
67.3074739
0
LINE
8
DEFAULT_255_1_388
10
15.9974771
20
176.9472567
11
15.9974771
21
175.9696
0
LINE
8
DEFAULT_255_1_388
10
15.9974771
20
175.9696
11
15.8303176
21
175.9696
0
LINE
8
DEFAULT_255_1_388
10
15.8303176
20
175.9696
11
15.8303176
21
176.9472567
0
LINE
8
DEFAULT_255_1_388
10
15.8303176
20
176.9472567
11
15.9974771
21
176.9472567
0
ARC
8
DEFAULT_255_1_388
10
15.9268539
20
177.2076428
40
0.1100948
50
161.4148232
51
180.5532607
0
ARC
8
DEFAULT_255_1_388
10
15.9128848
20
177.2114875
40
0.0956324
50
138.1830164
51
160.9307633
0
ARC
8
DEFAULT_255_1_388
10
15.9005036
20
177.2222313
40
0.0792417
50
104.6371663
51
138.0036136
0
ARC
8
DEFAULT_255_1_388
10
15.9125574
20
177.1809963
40
0.1221906
50
92.0601206
51
105.2198859
0
ARC
8
DEFAULT_255_1_388
10
15.9151938
20
177.1421583
40
0.161103
50
89.9790681
51
92.5006086
0
ARC
8
DEFAULT_255_1_388
10
15.9163114
20
177.1677998
40
0.1354654
50
78.0234649
51
90.4478111
0
ARC
8
DEFAULT_255_1_388
10
15.9266699
20
177.2143203
40
0.0878096
50
55.0521508
51
78.336297
0
ARC
8
DEFAULT_255_1_388
10
15.9323233
20
177.2238168
40
0.0767913
50
42.0506198
51
54.4508489
0
ARC
8
DEFAULT_255_1_388
10
15.9171266
20
177.2098821
40
0.0974091
50
1.7493657
51
42.1498724
0
ARC
8
DEFAULT_255_1_388
10
15.8885172
20
177.2066166
40
0.1261276
50
359.9832635
51
2.8353994
0
ARC
8
DEFAULT_255_1_388
10
15.9071582
20
177.2055412
40
0.1074916
50
342.1062453
51
0.5535864
0
ARC
8
DEFAULT_255_1_388
10
15.9232006
20
177.2011197
40
0.0908695
50
316.7110111
51
341.6513114
0
ARC
8
DEFAULT_255_1_388
10
15.9307438
20
177.1943607
40
0.0807447
50
285.4398289
51
316.5320129
0
ARC
8
DEFAULT_255_1_388
10
15.9183608
20
177.2355023
40
0.1237022
50
272.3543902
51
285.8951677
0
ARC
8
DEFAULT_255_1_388
10
15.9153318
20
177.2770742
40
0.1653687
50
269.9725761
51
272.8112722
0
ARC
8
DEFAULT_255_1_388
10
15.914237
20
177.2519727
40
0.1402709
50
258.8433431
51
270.4148607
0
ARC
8
DEFAULT_255_1_388
10
15.904115
20
177.2029739
40
0.0902407
50
238.54281
51
259.1289544
0
ARC
8
DEFAULT_255_1_388
10
15.8964472
20
177.1890694
40
0.0743817
50
222.5056676
51
237.9918132
0
ARC
8
DEFAULT_255_1_388
10
15.9108065
20
177.2021295
40
0.0937918
50
184.1070774
51
222.4604165
0
ARC
8
DEFAULT_255_1_388
10
15.9410479
20
177.2064538
40
0.1242838
50
179.9419581
51
185.0970785
0
LINE
8
DEFAULT_255_1_388
10
16.2224646
20
176.4313214
11
16.2224646
21
176.4620426
0
LINE
8
DEFAULT_255_1_388
10
17.0519368
20
176.4801139
11
17.0519368
21
176.4105395
0
LINE
8
DEFAULT_255_1_388
10
17.0519368
20
176.4105395
11
16.389624
21
176.4105395
0
LINE
8
DEFAULT_255_1_388
10
16.9371841
20
176.2198874
11
17.0392869
21
176.1403737
0
LINE
8
DEFAULT_255_1_388
10
16.3950454
20
176.5478813
11
16.8847773
21
176.5478813
0
LINE
8
DEFAULT_255_1_388
10
16.8847773
20
176.5478813
11
16.8847773
21
176.5605312
0
ARC
8
DEFAULT_255_1_388
10
16.6656407
20
176.443821
40
0.4923176
50
252.326534
51
270.5809615
0
ARC
8
DEFAULT_255_1_388
10
16.6425871
20
176.360494
40
0.4059384
50
223.3000488
51
251.8562489
0
ARC
8
DEFAULT_255_1_388
10
16.6663651
20
176.3835898
40
0.4390832
50
190.9374369
51
223.3654369
0
ARC
8
DEFAULT_255_1_388
10
16.8604329
20
176.4274598
40
0.63798
50
179.6531919
51
191.4988561
0
ARC
8
DEFAULT_255_1_388
10
16.8741356
20
176.4656571
40
0.6516811
50
167.4005523
51
180.3177836
0
ARC
8
DEFAULT_255_1_388
10
16.7558028
20
176.4906853
40
0.5307402
50
154.1835149
51
167.2508278
0
ARC
8
DEFAULT_255_1_388
10
16.6847619
20
176.5280925
40
0.4505076
50
134.3150225
51
154.5315008
0
ARC
8
DEFAULT_255_1_388
10
16.6602954
20
176.549555
40
0.4180662
50
122.8617482
51
133.9707159
0
ARC
8
DEFAULT_255_1_388
10
16.6486561
20
176.5745882
40
0.3907416
50
89.8248474
51
123.4199325
0
ARC
8
DEFAULT_255_1_388
10
16.6542859
20
176.5018352
40
0.4635141
50
74.7874349
51
90.5482648
0
ARC
8
DEFAULT_255_1_388
10
16.6873323
20
176.6238987
40
0.3370565
50
39.8178888
51
74.7634383
0
ARC
8
DEFAULT_255_1_388
10
16.6296565
20
176.5789356
40
0.4101553
50
16.8990848
51
39.4830125
0
ARC
8
DEFAULT_255_1_388
10
16.4165179
20
176.5106711
40
0.6339427
50
4.9634768
51
17.2027767
0
ARC
8
DEFAULT_255_1_388
10
16.1444584
20
176.48196
40
0.9074803
50
359.8834402
51
5.2832409
0
ARC
8
DEFAULT_255_1_388
10
16.8236942
20
176.4179981
40
0.4341343
50
180.9844233
51
194.9402766
0
ARC
8
DEFAULT_255_1_388
10
16.7056108
20
176.385717
40
0.3117211
50
194.8030557
51
222.0412897
0
ARC
8
DEFAULT_255_1_388
10
16.671398
20
176.3517715
40
0.2635903
50
221.541578
51
268.8616004
0
ARC
8
DEFAULT_255_1_388
10
16.67961
20
176.427828
40
0.3398611
50
267.7321071
51
270.009808
0
ARC
8
DEFAULT_255_1_388
10
16.6816164
20
176.4505178
40
0.3625561
50
269.6921218
51
280.4122297
0
ARC
8
DEFAULT_255_1_388
10
16.7014575
20
176.3471767
40
0.2573323
50
280.2257165
51
298.633539
0
ARC
8
DEFAULT_255_1_388
10
16.7139989
20
176.3207578
40
0.2281403
50
299.0485543
51
300.4624141
0
ARC
8
DEFAULT_255_1_388
10
16.6380969
20
176.4472796
40
0.3756797
50
300.6578578
51
322.037749
0
ARC
8
DEFAULT_255_1_388
10
16.6010491
20
176.4796266
40
0.4247956
50
321.671786
51
322.3059078
0
ARC
8
DEFAULT_255_1_388
10
16.7034054
20
176.3502267
40
0.3960488
50
276.9729088
51
328.0035579
0
ARC
8
DEFAULT_255_1_388
10
16.6722524
20
176.5167609
40
0.5652345
50
269.8358003
51
278.0581296
0
ARC
8
DEFAULT_255_1_388
10
16.6466823
20
176.600582
40
0.2274263
50
89.2017936
51
117.2852353
0
ARC
8
DEFAULT_255_1_388
10
16.6526574
20
176.5958637
40
0.2343798
50
118.0546404
51
137.4544511
0
ARC
8
DEFAULT_255_1_388
10
16.6948218
20
176.5575556
40
0.2913471
50
137.5109688
51
158.8516701
0
ARC
8
DEFAULT_255_1_388
10
16.8228318
20
176.5058902
40
0.4293804
50
158.5845496
51
170.1719753
0
ARC
8
DEFAULT_255_1_388
10
16.9544654
20
176.4797519
40
0.5635533
50
169.8378964
51
173.0563877
0
ARC
8
DEFAULT_255_1_388
10
16.4259938
20
176.5372187
40
0.4593755
50
2.9089079
51
12.88469
0
ARC
8
DEFAULT_255_1_388
10
16.5801857
20
176.5735082
40
0.3009753
50
12.6957404
51
28.6405841
0
ARC
8
DEFAULT_255_1_388
10
16.6411354
20
176.6050577
40
0.232366
50
29.016559
51
41.1492981
0
ARC
8
DEFAULT_255_1_388
10
16.6639333
20
176.624908
40
0.2021373
50
41.1646967
51
85.001362
0
ARC
8
DEFAULT_255_1_388
10
16.6503337
20
176.5422775
40
0.2857091
50
83.728216
51
90.0968824
0
LINE
8
DEFAULT_255_1_388
10
17.9726689
20
176.6599232
11
17.804606
21
176.6599232
0
LINE
8
DEFAULT_255_1_388
10
17.2046392
20
176.270487
11
17.3717986
21
176.270487
0
ARC
8
DEFAULT_255_1_388
10
17.670935
20
176.2305935
40
0.1436198
50
359.3335374
51
18.5869869
0
ARC
8
DEFAULT_255_1_388
10
17.694409
20
176.2368015
40
0.1194022
50
19.3538149
51
54.6486387
0
ARC
8
DEFAULT_255_1_388
10
17.6377077
20
176.1586077
40
0.2159877
50
54.3821575
51
65.0627557
0
ARC
8
DEFAULT_255_1_388
10
17.5512424
20
175.9767032
40
0.4173927
50
64.8282172
51
71.4204388
0
ARC
8
DEFAULT_255_1_388
10
17.449732
20
175.6788782
40
0.7320403
50
71.3166092
51
75.8005927
0
ARC
8
DEFAULT_255_1_388
10
17.3551206
20
175.3143881
40
1.108605
50
75.6810806
51
78.0063886
0
ARC
8
DEFAULT_255_1_388
10
17.8555794
20
177.674553
40
1.3040363
50
254.69024
51
258.0465557
0
ARC
8
DEFAULT_255_1_388
10
17.7387663
20
177.2515742
40
0.8652254
50
249.9010634
51
254.7555005
0
ARC
8
DEFAULT_255_1_388
10
17.6258715
20
176.944968
40
0.5384962
50
243.3097375
51
249.970939
0
ARC
8
DEFAULT_255_1_388
10
17.555113
20
176.8038721
40
0.380652
50
234.4047808
51
243.2861752
0
ARC
8
DEFAULT_255_1_388
10
17.4850765
20
176.7071645
40
0.2612502
50
220.8665526
51
234.5497192
0
ARC
8
DEFAULT_255_1_388
10
17.4465764
20
176.6721203
40
0.2092097
50
214.3063391
51
220.5075055
0
ARC
8
DEFAULT_255_1_388
10
17.4436878
20
176.6686577
40
0.2048755
50
186.9131438
51
213.9617385
0
ARC
8
DEFAULT_255_1_388
10
17.5035268
20
176.6783431
40
0.2654563
50
179.8802037
51
187.4338578
0
ARC
8
DEFAULT_255_1_388
10
17.4861232
20
176.6806049
40
0.2480581
50
132.0053393
51
180.3942351
0
ARC
8
DEFAULT_255_1_388
10
17.5600145
20
176.6123997
40
0.3483116
50
129.2317021
51
133.5294826
0
ARC
8
DEFAULT_255_1_388
10
17.5660114
20
176.6018383
40
0.360291
50
100.440976
51
128.9081567
0
ARC
8
DEFAULT_255_1_388
10
17.5968232
20
176.4572357
40
0.5080996
50
89.6985063
51
100.9029043
0
ARC
8
DEFAULT_255_1_388
10
17.6032387
20
176.4391739
40
0.5261675
50
77.6967144
51
90.4074623
0
ARC
8
DEFAULT_255_1_388
10
17.6404739
20
176.5997503
40
0.3613511
50
50.7278431
51
78.0397473
0
ARC
8
DEFAULT_255_1_388
10
17.6904782
20
176.6580173
40
0.2845966
50
25.754382
51
51.0957456
0
ARC
8
DEFAULT_255_1_388
10
17.6906149
20
176.6636311
40
0.2820785
50
359.2468358
51
24.7393861
0
ARC
8
DEFAULT_255_1_388
10
17.6586036
20
176.6604204
40
0.1460032
50
359.8048924
51
45.1543866
0
ARC
8
DEFAULT_255_1_388
10
17.612777
20
176.6212291
40
0.2061641
50
43.8053172
51
49.625485
0
ARC
8
DEFAULT_255_1_388
10
17.6137213
20
176.6213849
40
0.2054344
50
49.7979696
51
82.121802
0
ARC
8
DEFAULT_255_1_388
10
17.6003295
20
176.5486473
40
0.2793404
50
81.4458692
51
90.1707936
0
ARC
8
DEFAULT_255_1_388
10
17.5975872
20
176.4894478
40
0.3385438
50
89.6768097
51
99.1267111
0
ARC
8
DEFAULT_255_1_388
10
17.5782854
20
176.6057405
40
0.2206627
50
98.9679878
51
113.4573418
0
ARC
8
DEFAULT_255_1_388
10
17.5562534
20
176.6584193
40
0.1635691
50
113.7230234
51
127.4758155
0
ARC
8
DEFAULT_255_1_388
10
17.5373117
20
176.6809433
40
0.1341757
50
126.9086647
51
150.3160891
0
ARC
8
DEFAULT_255_1_388
10
17.5319448
20
176.686668
40
0.1266992
50
151.363328
51
180.0701537
0
ARC
8
DEFAULT_255_1_388
10
17.5629668
20
176.684323
40
0.1577364
50
179.2045432
51
180.0012892
0
ARC
8
DEFAULT_255_1_388
10
17.526078
20
176.6828515
40
0.1208564
50
179.3040542
51
198.4225767
0
ARC
8
DEFAULT_255_1_388
10
17.5044921
20
176.6772337
40
0.0986126
50
199.2893055
51
238.6036855
0
ARC
8
DEFAULT_255_1_388
10
17.5723014
20
176.7836752
40
0.2248082
50
237.9844191
51
246.8751643
0
ARC
8
DEFAULT_255_1_388
10
17.6687874
20
177.0043861
40
0.4656832
50
246.6226408
51
251.8174794
0
ARC
8
DEFAULT_255_1_388
10
17.7848342
20
177.3528909
40
0.8329993
50
251.7140983
51
255.0775146
0
ARC
8
DEFAULT_255_1_388
10
17.9197866
20
177.8555708
40
1.3534786
50
255.0370864
51
257.4701577
0
ARC
8
DEFAULT_255_1_388
10
17.3450411
20
175.2661535
40
1.298957
50
73.6835762
51
77.5015749
0
ARC
8
DEFAULT_255_1_388
10
17.4675325
20
175.6823699
40
0.8650912
50
68.7042835
51
73.7249997
0
ARC
8
DEFAULT_255_1_388
10
17.5690889
20
175.9440853
40
0.584363
50
63.5907059
51
68.6622978
0
ARC
8
DEFAULT_255_1_388
10
17.655863
20
176.1171157
40
0.3907955
50
54.7106507
51
63.7018033
0
ARC
8
DEFAULT_255_1_388
10
17.7261018
20
176.2152287
40
0.2701345
50
41.0624597
51
54.8488532
0
ARC
8
DEFAULT_255_1_388
10
17.7644796
20
176.2504439
40
0.2180695
50
34.4952722
51
40.7097584
0
ARC
8
DEFAULT_255_1_388
10
17.7697761
20
176.2559204
40
0.2106083
50
9.3761233
51
34.0834046
0
ARC
8
DEFAULT_255_1_388
10
17.696289
20
176.2418174
40
0.2854177
50
359.7695264
51
9.7660556
0
ARC
8
DEFAULT_255_1_388
10
17.7185183
20
176.2369841
40
0.2632121
50
335.8653103
51
0.8022272
0
ARC
8
DEFAULT_255_1_388
10
17.7269588
20
176.2384951
40
0.2561728
50
307.7357819
51
334.7849324
0
ARC
8
DEFAULT_255_1_388
10
17.6824229
20
176.2884553
40
0.3229737
50
307.0217048
51
308.5596894
0
ARC
8
DEFAULT_255_1_388
10
17.6528814
20
176.3326063
40
0.3760237
50
282.9361285
51
306.5649033
0
ARC
8
DEFAULT_255_1_388
10
17.6121876
20
176.4976871
40
0.5460314
50
271.1026197
51
283.2199962
0
ARC
8
DEFAULT_255_1_388
10
17.6050064
20
176.6377744
40
0.6862456
50
269.9926344
51
271.4770056
0
ARC
8
DEFAULT_255_1_388
10
17.6020635
20
176.5160633
40
0.5645418
50
259.0723633
51
270.2897324
0
ARC
8
DEFAULT_255_1_388
10
17.5781859
20
176.3903887
40
0.4366198
50
245.4965026
51
259.0225745
0
ARC
8
DEFAULT_255_1_388
10
17.5469076
20
176.3249491
40
0.3641037
50
228.9686619
51
245.7042678
0
ARC
8
DEFAULT_255_1_388
10
17.517035
20
176.2881573
40
0.3167435
50
214.4015391
51
228.6759028
0
ARC
8
DEFAULT_255_1_388
10
17.4844848
20
176.2703429
40
0.2798456
50
179.9704983
51
215.1574389
0
ARC
8
DEFAULT_255_1_388
10
17.563306
20
176.2786148
40
0.1916798
50
182.430239
51
203.0329751
0
ARC
8
DEFAULT_255_1_388
10
17.5425656
20
176.2722675
40
0.1701248
50
203.7987464
51
232.5483345
0
ARC
8
DEFAULT_255_1_388
10
17.573674
20
176.3118049
40
0.2204299
50
232.3784541
51
256.3934343
0
ARC
8
DEFAULT_255_1_388
10
17.5995888
20
176.4119359
40
0.3238512
50
256.1048329
51
268.4627478
0
ARC
8
DEFAULT_255_1_388
10
17.6048307
20
176.5023297
40
0.4143627
50
268.0734924
51
270.0121004
0
ARC
8
DEFAULT_255_1_388
10
17.6069025
20
176.4709191
40
0.3829573
50
269.7031202
51
278.8338867
0
ARC
8
DEFAULT_255_1_388
10
17.6273889
20
176.3437553
40
0.2541568
50
278.6727378
51
292.82331
0
ARC
8
DEFAULT_255_1_388
10
17.6499436
20
176.2873546
40
0.1934264
50
293.1457581
51
303.6656964
0
ARC
8
DEFAULT_255_1_388
10
17.6797509
20
176.2450159
40
0.1416713
50
303.1245849
51
321.7434683
0
ARC
8
DEFAULT_255_1_388
10
17.7006591
20
176.226678
40
0.1139081
50
322.4747616
51
1.1293039
0
LINE
8
DEFAULT_255_2_778
10
19.9765417
20
169.2010311
11
18.6536417
21
169.2010311
0
LINE
8
DEFAULT_255_2_778
10
18.6536417
20
169.2010311
11
18.6536417
21
89.4953311
0
LINE
8
DEFAULT_255_2_778
10
18.6536417
20
84.8651311
11
18.6536417
21
5.1593311
0
LINE
8
DEFAULT_255_2_778
10
18.6536417
20
5.1593311
11
19.9765417
21
5.1593311
0
LINE
8
DEFAULT_255_2_778
10
17.3307834
20
89.4953041
11
19.9765834
21
89.4953041
0
LINE
8
DEFAULT_255_2_778
10
19.9765834
20
89.4953041
11
19.9765834
21
84.8651041
0
LINE
8
DEFAULT_255_2_778
10
19.9765834
20
84.8651041
11
17.3307834
21
84.8651041
0
LINE
8
DEFAULT_255_2_778
10
17.3307834
20
84.8651041
11
17.3307834
21
89.4953041
0
LINE
8
DEFAULT_255_2_778
10
18.1245
20
85.3280833
11
18.1245
21
89.0322833
0
LINE
8
DEFAULT_255_2_778
10
17.8599167
20
88.3377656
11
18.1245167
21
89.0322656
0
LINE
8
DEFAULT_255_2_778
10
18.1245167
20
89.0322656
11
18.3891167
21
88.3377656
0
LINE
8
DEFAULT_255_2_778
10
18.3891167
20
88.3377656
11
17.8599167
21
88.3377656
0
LINE
8
DEFAULT_255_2_778
10
19.1828
20
89.0322833
11
19.1828
21
85.3280833
0
LINE
8
DEFAULT_255_2_778
10
18.9182167
20
86.0226656
11
19.1828167
21
85.3281656
0
LINE
8
DEFAULT_255_2_778
10
19.1828167
20
85.3281656
11
19.4474167
21
86.0226656
0
LINE
8
DEFAULT_255_2_778
10
19.4474167
20
86.0226656
11
18.9182167
21
86.0226656
0
LINE
8
DEFAULT_255_1_388
10
4.8840318
20
174.1216382
11
4.8840318
21
173.9852
0
LINE
8
DEFAULT_255_1_388
10
4.8840318
20
173.9852
11
4.0220313
21
173.9852
0
LINE
8
DEFAULT_255_1_388
10
4.0220313
20
173.9852
11
4.0220313
21
174.1053741
0
LINE
8
DEFAULT_255_1_388
10
4.0220313
20
174.1053741
11
4.4774278
21
174.6113702
0
LINE
8
DEFAULT_255_1_388
10
4.1638909
20
174.9131607
11
3.9967315
21
174.9131607
0
LINE
8
DEFAULT_255_1_388
10
4.5759163
20
174.503846
11
4.2235262
21
174.1216382
0
LINE
8
DEFAULT_255_1_388
10
4.2235262
20
174.1216382
11
4.8840318
21
174.1216382
0
ARC
8
DEFAULT_255_1_388
10
2.9598337
20
175.9533983
40
2.0258655
50
318.5132526
51
320.7829045
0
ARC
8
DEFAULT_255_1_388
10
3.5546294
20
175.4692929
40
1.2589638
50
320.7372878
51
323.9739031
0
ARC
8
DEFAULT_255_1_388
10
3.9955226
20
175.1498554
40
0.7145141
50
323.8962701
51
328.64194
0
ARC
8
DEFAULT_255_1_388
10
4.2257484
20
175.0078545
40
0.4440242
50
328.8294576
51
331.7891185
0
ARC
8
DEFAULT_255_1_388
10
4.3379804
20
174.9499374
40
0.3177517
50
331.4254512
51
352.9365785
0
ARC
8
DEFAULT_255_1_388
10
4.3532804
20
174.946505
40
0.3021496
50
353.2257659
51
0.0166158
0
ARC
8
DEFAULT_255_1_388
10
4.3769564
20
174.9490894
40
0.2784847
50
359.486299
51
15.9343185
0
ARC
8
DEFAULT_255_1_388
10
4.4339831
20
174.9644269
40
0.2194403
50
16.1712913
51
43.5286088
0
ARC
8
DEFAULT_255_1_388
10
4.4426776
20
174.9731191
40
0.2071504
50
43.4417391
51
83.1661095
0
ARC
8
DEFAULT_255_1_388
10
4.4275937
20
174.8902316
40
0.2912888
50
82.160179
51
90.1505708
0
ARC
8
DEFAULT_255_1_388
10
4.4240418
20
174.8298279
40
0.3517025
50
89.5460741
51
102.5418361
0
ARC
8
DEFAULT_255_1_388
10
4.3967138
20
174.9457933
40
0.2325748
50
102.1738499
51
129.206123
0
ARC
8
DEFAULT_255_1_388
10
4.3878592
20
174.9597664
40
0.2161591
50
129.72865
51
135.753947
0
ARC
8
DEFAULT_255_1_388
10
4.4015074
20
174.9488728
40
0.2335433
50
136.1757367
51
166.3673339
0
ARC
8
DEFAULT_255_1_388
10
4.5147762
20
174.9185148
40
0.3507873
50
165.9090694
51
178.8684636
0
ARC
8
DEFAULT_255_1_388
10
4.6123534
20
174.9132263
40
0.4484624
50
178.4391136
51
180.0083808
0
ARC
8
DEFAULT_255_1_388
10
4.4544235
20
174.9176197
40
0.4577138
50
163.2878482
51
180.5581842
0
ARC
8
DEFAULT_255_1_388
10
4.3642276
20
174.9424393
40
0.3641968
50
133.4540601
51
162.947111
0
ARC
8
DEFAULT_255_1_388
10
4.3843158
20
174.9210789
40
0.3935189
50
100.7869829
51
133.4382499
0
ARC
8
DEFAULT_255_1_388
10
4.4234403
20
174.7468399
40
0.5720313
50
89.660664
51
101.3702276
0
ARC
8
DEFAULT_255_1_388
10
4.4309012
20
174.7537263
40
0.5651495
50
78.2172678
51
90.412935
0
ARC
8
DEFAULT_255_1_388
10
4.4708478
20
174.9364511
40
0.378122
50
55.9269121
51
78.4888449
0
ARC
8
DEFAULT_255_1_388
10
4.4929193
20
174.9745187
40
0.3342379
50
47.929771
51
55.4049217
0
ARC
8
DEFAULT_255_1_388
10
4.5043723
20
174.9861618
40
0.3179217
50
4.334829
51
48.0560205
0
ARC
8
DEFAULT_255_1_388
10
4.3811525
20
174.9670487
40
0.442341
50
359.9251713
51
5.5971671
0
ARC
8
DEFAULT_255_1_388
10
4.429368
20
174.9733728
40
0.3941854
50
337.8914027
51
358.9967534
0
ARC
8
DEFAULT_255_1_388
10
4.124125
20
175.0911295
40
0.7213271
50
326.9132501
51
338.3508308
0
ARC
8
DEFAULT_255_1_388
10
3.6757362
20
175.3785105
40
1.2538973
50
319.6471833
51
327.0959558
0
ARC
8
DEFAULT_255_1_388
10
3.244402
20
175.734305
40
1.8129975
50
317.2588228
51
319.9045804
0
LINE
8
DEFAULT_255_1_388
10
5.7668143
20
175.3007898
11
5.7668143
21
174.427043
0
LINE
8
DEFAULT_255_1_388
10
5.7668143
20
174.427043
11
5.9493343
21
174.427043
0
LINE
8
DEFAULT_255_1_388
10
5.9493343
20
174.427043
11
5.9493343
21
174.2906048
0
LINE
8
DEFAULT_255_1_388
10
5.9493343
20
174.2906048
11
5.7668143
21
174.2906048
0
LINE
8
DEFAULT_255_1_388
10
5.7668143
20
174.2906048
11
5.7668143
21
173.9852
0
LINE
8
DEFAULT_255_1_388
10
5.7668143
20
173.9852
11
5.5987513
21
173.9852
0
LINE
8
DEFAULT_255_1_388
10
5.5987513
20
173.9852
11
5.5987513
21
174.2906048
0
LINE
8
DEFAULT_255_1_388
10
5.5987513
20
174.2906048
11
4.999688
21
174.2906048
0
LINE
8
DEFAULT_255_1_388
10
4.999688
20
174.2906048
11
4.999688
21
174.3890933
0
LINE
8
DEFAULT_255_1_388
10
4.999688
20
174.3890933
11
5.5888121
21
175.3007898
0
LINE
8
DEFAULT_255_1_388
10
5.5888121
20
175.3007898
11
5.7668143
21
175.3007898
0
LINE
8
DEFAULT_255_1_388
10
5.5788729
20
175.0360455
11
5.1894366
21
174.427043
0
LINE
8
DEFAULT_255_1_388
10
5.1894366
20
174.427043
11
5.5987513
21
174.427043
0
LINE
8
DEFAULT_255_1_388
10
5.5987513
20
174.427043
11
5.5987513
21
175.072188
0
LINE
8
DEFAULT_255_1_388
10
5.5987513
20
175.072188
11
5.5788729
21
175.0360455
0
LINE
8
DEFAULT_255_1_388
10
6.205043
20
175.3007898
11
6.5791187
21
174.2156089
0
LINE
8
DEFAULT_255_1_388
10
6.5791187
20
174.2156089
11
6.9550015
21
175.3007898
0
LINE
8
DEFAULT_255_1_388
10
6.9550015
20
175.3007898
11
7.14475
21
175.3007898
0
LINE
8
DEFAULT_255_1_388
10
7.14475
20
175.3007898
11
6.6568252
21
173.9852
0
LINE
8
DEFAULT_255_1_388
10
6.6568252
20
173.9852
11
6.5032193
21
173.9852
0
LINE
8
DEFAULT_255_1_388
10
6.5032193
20
173.9852
11
6.016198
21
175.3007898
0
LINE
8
DEFAULT_255_1_388
10
6.016198
20
175.3007898
11
6.205043
21
175.3007898
0
LINE
8
DEFAULT_255_1_388
10
23.1203856
20
174.763169
11
23.1203856
21
174.5463135
0
LINE
8
DEFAULT_255_1_388
10
22.2900099
20
174.5237244
11
22.2900099
21
174.7469048
0
LINE
8
DEFAULT_255_1_388
10
22.9532262
20
174.5011353
11
22.9532262
21
174.7749153
0
LINE
8
DEFAULT_255_1_388
10
22.4571693
20
174.7875652
11
22.4571693
21
174.5201102
0
ARC
8
DEFAULT_255_1_388
10
21.742619
20
174.5408118
40
1.3777776
50
353.8440855
51
0.2287917
0
ARC
8
DEFAULT_255_1_388
10
22.2645208
20
174.4825414
40
0.852639
50
344.4934746
51
353.9763743
0
ARC
8
DEFAULT_255_1_388
10
22.6012015
20
174.3868191
40
0.5026273
50
329.2803599
51
344.7473406
0
ARC
8
DEFAULT_255_1_388
10
22.7127511
20
174.3256038
40
0.3754848
50
324.9361395
51
328.6153007
0
ARC
8
DEFAULT_255_1_388
10
22.7553161
20
174.2958586
40
0.3235566
50
280.5801797
51
324.9173226
0
ARC
8
DEFAULT_255_1_388
10
22.7101789
20
174.4838236
40
0.5167077
50
269.5979457
51
281.6732777
0
ARC
8
DEFAULT_255_1_388
10
22.7020693
20
174.4703113
40
0.5032026
50
256.6228565
51
270.5105488
0
ARC
8
DEFAULT_255_1_388
10
22.6568435
20
174.2961345
40
0.3233092
50
215.8618351
51
257.2787793
0
ARC
8
DEFAULT_255_1_388
10
22.7717142
20
174.3732106
40
0.4615831
50
197.9695203
51
215.2622745
0
ARC
8
DEFAULT_255_1_388
10
23.0512818
20
174.4675641
40
0.7566307
50
187.8816486
51
198.2346584
0
ARC
8
DEFAULT_255_1_388
10
23.4966056
20
174.5318453
40
1.2065653
50
180.8977266
51
188.0054894
0
ARC
8
DEFAULT_255_1_388
10
23.801627
20
174.54334
40
1.5117443
50
180.7434591
51
181.152202
0
ARC
8
DEFAULT_255_1_388
10
23.6341266
20
174.7523371
40
1.3441277
50
173.7674302
51
180.2315596
0
ARC
8
DEFAULT_255_1_388
10
23.1259135
20
174.8097779
40
0.8326847
50
164.3058537
51
173.9000553
0
ARC
8
DEFAULT_255_1_388
10
22.7983135
20
174.9041652
40
0.4917711
50
148.7922028
51
164.5682288
0
ARC
8
DEFAULT_255_1_388
10
22.6913872
20
174.9638457
40
0.3694204
50
144.5883979
51
148.1161588
0
ARC
8
DEFAULT_255_1_388
10
22.6526618
20
174.9908667
40
0.322202
50
101.6440149
51
144.5142619
0
ARC
8
DEFAULT_255_1_388
10
22.700481
20
174.8008337
40
0.5180451
50
89.528284
51
102.5820197
0
ARC
8
DEFAULT_255_1_388
10
22.7093802
20
174.7964376
40
0.5224441
50
77.0437914
51
90.508231
0
ARC
8
DEFAULT_255_1_388
10
22.7546055
20
174.9812272
40
0.3322297
50
48.2777708
51
77.4996087
0
ARC
8
DEFAULT_255_1_388
10
22.7627795
20
174.9957557
40
0.315966
50
36.3141586
51
47.6307332
0
ARC
8
DEFAULT_255_1_388
10
22.6650518
20
174.9299159
40
0.4337313
50
18.2931065
51
35.6770203
0
ARC
8
DEFAULT_255_1_388
10
22.3789358
20
174.8317107
40
0.7362203
50
8.0246996
51
18.5605636
0
ARC
8
DEFAULT_255_1_388
10
21.9105714
20
174.7625432
40
1.2096583
50
1.127539
51
8.1718423
0
ARC
8
DEFAULT_255_1_388
10
21.5456847
20
174.7482374
40
1.5747719
50
0.5432713
51
1.38669
0
ARC
8
DEFAULT_255_1_388
10
21.7514226
20
174.7789163
40
1.2018103
50
359.8092569
51
4.9408001
0
ARC
8
DEFAULT_255_1_388
10
22.2250807
20
174.82119
40
0.7262727
50
4.8364937
51
12.2906017
0
ARC
8
DEFAULT_255_1_388
10
22.5350272
20
174.8902485
40
0.4087324
50
12.0806994
51
23.8171225
0
ARC
8
DEFAULT_255_1_388
10
22.6670668
20
174.9461508
40
0.2653719
50
24.2874621
51
31.3934353
0
ARC
8
DEFAULT_255_1_388
10
22.7261104
20
174.9847822
40
0.1948607
50
30.7407708
51
82.4658033
0
ARC
8
DEFAULT_255_1_388
10
22.7058765
20
174.8854017
40
0.2961198
50
81.1057101
51
90.2187368
0
ARC
8
DEFAULT_255_1_388
10
22.7018577
20
174.9144421
40
0.2670929
50
89.380395
51
105.6763916
0
ARC
8
DEFAULT_255_1_388
10
22.6812299
20
174.989432
40
0.1893189
50
105.7980655
51
149.7387869
0
ARC
8
DEFAULT_255_1_388
10
22.8009439
20
174.9174719
40
0.3289892
50
149.4208441
51
163.628295
0
ARC
8
DEFAULT_255_1_388
10
23.0361668
20
174.8457345
40
0.5749004
50
163.3764549
51
172.141138
0
ARC
8
DEFAULT_255_1_388
10
23.407439
20
174.7925582
40
0.9499585
50
172.0258462
51
178.0705453
0
ARC
8
DEFAULT_255_1_388
10
23.7495943
20
174.7763682
40
1.2924734
50
177.8639301
51
179.5036263
0
ARC
8
DEFAULT_255_1_388
10
23.6276961
20
174.5160151
40
1.170534
50
179.7995545
51
185.246089
0
ARC
8
DEFAULT_255_1_388
10
23.1728554
20
174.4729404
40
0.7136613
50
185.1411911
51
193.0082205
0
ARC
8
DEFAULT_255_1_388
10
22.8754815
20
174.4026441
40
0.4080987
50
192.7897338
51
205.2507384
0
ARC
8
DEFAULT_255_1_388
10
22.7577025
20
174.3500538
40
0.2791522
50
205.8001921
51
211.2545876
0
ARC
8
DEFAULT_255_1_388
10
22.6988564
20
174.3106132
40
0.2084074
50
210.3789935
51
238.4007996
0
ARC
8
DEFAULT_255_1_388
10
22.696665
20
174.3158786
40
0.2117943
50
239.6521916
51
265.9793852
0
ARC
8
DEFAULT_255_1_388
10
22.7062499
20
174.3915358
40
0.2879689
50
265.1324455
51
270.0603288
0
ARC
8
DEFAULT_255_1_388
10
22.7094876
20
174.3550418
40
0.2514919
50
269.3314378
51
287.2180039
0
ARC
8
DEFAULT_255_1_388
10
22.7249958
20
174.2984291
40
0.1928357
50
287.7957942
51
329.0808983
0
ARC
8
DEFAULT_255_1_388
10
22.6172715
20
174.3656651
40
0.319808
50
328.6635261
51
343.3325043
0
ARC
8
DEFAULT_255_1_388
10
22.3728174
20
174.4418195
40
0.5758408
50
343.0498092
51
351.9392499
0
ARC
8
DEFAULT_255_1_388
10
21.9827496
20
174.4993205
40
0.9701202
50
351.8071632
51
357.7957897
0
ARC
8
DEFAULT_255_1_388
10
21.6192973
20
174.5181724
40
1.3340376
50
357.5870923
51
359.2682493
0
LINE
8
DEFAULT_255_1_388
10
23.4393439
20
175.3007898
11
23.8134196
21
174.2156089
0
LINE
8
DEFAULT_255_1_388
10
23.8134196
20
174.2156089
11
24.1893024
21
175.3007898
0
LINE
8
DEFAULT_255_1_388
10
24.1893024
20
175.3007898
11
24.3790509
21
175.3007898
0
LINE
8
DEFAULT_255_1_388
10
24.3790509
20
175.3007898
11
23.8911261
21
173.9852
0
LINE
8
DEFAULT_255_1_388
10
23.8911261
20
173.9852
11
23.7375202
21
173.9852
0
LINE
8
DEFAULT_255_1_388
10
23.7375202
20
173.9852
11
23.2504989
21
175.3007898
0
LINE
8
DEFAULT_255_1_388
10
23.2504989
20
175.3007898
11
23.4393439
21
175.3007898
0
LINE
8
DEFAULT_255_1_388
10
22.2800946
20
5.3503553
11
22.2800946
21
5.2672274
0
LINE
8
DEFAULT_255_1_388
10
21.2220206
20
5.2554811
11
21.2220206
21
5.3503553
0
LINE
8
DEFAULT_255_1_388
10
22.1075138
20
5.2545775
11
22.1075138
21
5.3521625
0
LINE
8
DEFAULT_255_1_388
10
21.3946014
20
5.3639088
11
21.3946014
21
5.2672274
0
ARC
8
DEFAULT_255_1_388
10
21.3078684
20
5.2627726
40
0.9722364
50
350.4878118
51
0.2625322
0
ARC
8
DEFAULT_255_1_388
10
21.5658644
20
5.2183994
40
0.7104556
50
336.0277991
51
350.5787241
0
ARC
8
DEFAULT_255_1_388
10
21.7171751
20
5.1500243
40
0.544417
50
319.887443
51
336.1331163
0
ARC
8
DEFAULT_255_1_388
10
21.7849563
20
5.0957733
40
0.4576311
50
302.4806296
51
319.6144102
0
ARC
8
DEFAULT_255_1_388
10
21.7720184
20
5.1207067
40
0.4856183
50
275.8196423
51
302.1885521
0
ARC
8
DEFAULT_255_1_388
10
21.7533046
20
5.2492466
40
0.6154183
50
269.9169897
51
276.339506
0
ARC
8
DEFAULT_255_1_388
10
21.7482646
20
5.172068
40
0.5382553
50
252.5221437
51
270.441579
0
ARC
8
DEFAULT_255_1_388
10
21.7320897
20
5.1114046
40
0.4755426
50
237.5349961
51
252.1858334
0
ARC
8
DEFAULT_255_1_388
10
21.7421273
20
5.124212
40
0.4917393
50
209.0632754
51
237.3492577
0
ARC
8
DEFAULT_255_1_388
10
21.8400599
20
5.1857104
40
0.6072464
50
205.118533
51
209.6465345
0
ARC
8
DEFAULT_255_1_388
10
21.9296601
20
5.2237174
40
0.7045164
50
188.7216633
51
204.8239753
0
ARC
8
DEFAULT_255_1_388
10
22.1543376
20
5.2615387
40
0.9323368
50
180.3722704
51
188.9253909
0
ARC
8
DEFAULT_255_1_388
10
22.1512938
20
5.3548416
40
0.929284
50
169.5253055
51
180.2766048
0
ARC
8
DEFAULT_255_1_388
10
21.9372737
20
5.3942024
40
0.7116745
50
155.8314601
51
169.5088611
0
ARC
8
DEFAULT_255_1_388
10
21.79322
20
5.4610312
40
0.5528904
50
139.6259579
51
156.0379072
0
ARC
8
DEFAULT_255_1_388
10
21.7268733
20
5.5144143
40
0.4677708
50
122.6414784
51
139.3431662
0
ARC
8
DEFAULT_255_1_388
10
21.7381988
20
5.4937787
40
0.4912586
50
93.0224537
51
122.4556091
0
ARC
8
DEFAULT_255_1_388
10
21.7503509
20
5.3851776
40
0.6003837
50
89.9756766
51
93.6340839
0
ARC
8
DEFAULT_255_1_388
10
21.7547107
20
5.4300879
40
0.5554884
50
73.7463329
51
90.4234008
0
ARC
8
DEFAULT_255_1_388
10
21.774458
20
5.5065772
40
0.4765353
50
57.663051
51
73.4516911
0
ARC
8
DEFAULT_255_1_388
10
21.7735618
20
5.5090108
40
0.4749629
50
29.1441355
51
57.4146687
0
ARC
8
DEFAULT_255_1_388
10
21.6683429
20
5.4433046
40
0.5988917
50
24.0985653
51
29.732054
0
ARC
8
DEFAULT_255_1_388
10
21.5521061
20
5.3951154
40
0.7246823
50
8.6654943
51
23.8241215
0
ARC
8
DEFAULT_255_1_388
10
21.3007479
20
5.3541037
40
0.9793537
50
359.7807044
51
8.8218476
0
ARC
8
DEFAULT_255_1_388
10
21.1717184
20
5.3569731
40
0.9358078
50
359.7054632
51
8.0359751
0
ARC
8
DEFAULT_255_1_388
10
21.5092235
20
5.4061252
40
0.5947474
50
7.8926278
51
20.2962188
0
ARC
8
DEFAULT_255_1_388
10
21.6923085
20
5.4736367
40
0.3996117
50
20.3231056
51
36.4990255
0
ARC
8
DEFAULT_255_1_388
10
21.7694383
20
5.5330399
40
0.3022818
50
36.1436715
51
85.6627846
0
ARC
8
DEFAULT_255_1_388
10
21.7511638
20
5.4160881
40
0.4203853
50
84.3845912
51
90.076054
0
ARC
8
DEFAULT_255_1_388
10
21.7463993
20
5.4903416
40
0.346157
50
89.3037228
51
109.9046209
0
ARC
8
DEFAULT_255_1_388
10
21.7359826
20
5.5333379
40
0.3022217
50
110.8229774
51
143.917961
0
ARC
8
DEFAULT_255_1_388
10
21.8410185
20
5.4531455
40
0.434348
50
143.5289166
51
163.2980252
0
ARC
8
DEFAULT_255_1_388
10
22.0556472
20
5.3856685
40
0.659321
50
163.0418884
51
174.3139873
0
ARC
8
DEFAULT_255_1_388
10
22.3261437
20
5.3544378
40
0.9315905
50
174.050934
51
179.4174954
0
ARC
8
DEFAULT_255_1_388
10
22.2693381
20
5.2625382
40
0.8747493
50
179.6928582
51
188.7908948
0
ARC
8
DEFAULT_255_1_388
10
21.9697181
20
5.2146086
40
0.5713262
50
188.6328449
51
202.5630732
0
ARC
8
DEFAULT_255_1_388
10
21.8286018
20
5.1579142
40
0.4192612
50
202.8078931
51
216.1195888
0
ARC
8
DEFAULT_255_1_388
10
21.7375535
20
5.0846479
40
0.3025752
50
215.0755613
51
264.6379773
0
ARC
8
DEFAULT_255_1_388
10
21.7518372
20
5.1781376
40
0.3970284
50
263.8464302
51
270.0830805
0
ARC
8
DEFAULT_255_1_388
10
21.7564917
20
5.1490808
40
0.3679937
50
269.3649295
51
287.5149684
0
ARC
8
DEFAULT_255_1_388
10
21.7765358
20
5.0762714
40
0.2925408
50
288.0629019
51
323.8115617
0
ARC
8
DEFAULT_255_1_388
10
21.6785334
20
5.1493754
40
0.4148018
50
323.6546541
51
342.6591359
0
ARC
8
DEFAULT_255_1_388
10
21.4499992
20
5.223728
40
0.6551163
50
342.4092446
51
353.6451501
0
ARC
8
DEFAULT_255_1_388
10
21.1314785
20
5.2633565
40
0.9760748
50
353.4027553
51
359.4846611
0
LINE
8
DEFAULT_255_1_388
10
23.0463172
20
5.9738148
11
23.0463172
21
4.6519
0
LINE
8
DEFAULT_255_1_388
10
23.0463172
20
4.6519
11
22.8782542
21
4.6519
0
LINE
8
DEFAULT_255_1_388
10
22.8782542
20
4.6519
11
22.8782542
21
5.765995
0
LINE
8
DEFAULT_255_1_388
10
22.8782542
20
5.765995
11
22.5412247
21
5.6422066
0
LINE
8
DEFAULT_255_1_388
10
22.5412247
20
5.6422066
11
22.5412247
21
5.7940055
0
LINE
8
DEFAULT_255_1_388
10
22.5412247
20
5.7940055
11
23.0201139
21
5.9738148
0
LINE
8
DEFAULT_255_1_388
10
23.0201139
20
5.9738148
11
23.0463172
21
5.9738148
0
LINE
8
DEFAULT_255_1_388
10
23.7465797
20
5.2771666
11
23.6128521
21
5.3115021
0
LINE
8
DEFAULT_255_1_388
10
23.6128521
20
5.3115021
11
23.6797159
21
5.9674898
0
LINE
8
DEFAULT_255_1_388
10
23.6797159
20
5.9674898
11
24.353775
21
5.9674898
0
LINE
8
DEFAULT_255_1_388
10
24.353775
20
5.9674898
11
24.353775
21
5.8129803
0
LINE
8
DEFAULT_255_1_388
10
24.353775
20
5.8129803
11
23.8215755
21
5.8129803
0
LINE
8
DEFAULT_255_1_388
10
23.8215755
20
5.8129803
11
23.7818187
21
5.4542652
0
LINE
8
DEFAULT_255_1_388
10
23.5658668
20
4.9979652
11
23.7239906
21
4.9979652
0
LINE
8
DEFAULT_255_1_388
10
23.7908543
20
5.3133092
11
23.7465797
21
5.2771666
0
ARC
8
DEFAULT_255_1_388
10
23.9904801
20
5.0965241
40
0.4141476
50
93.7181681
51
120.253934
0
ARC
8
DEFAULT_255_1_388
10
24.0010853
20
5.0056284
40
0.5055616
50
89.9660471
51
94.2495185
0
ARC
8
DEFAULT_255_1_388
10
24.0056675
20
5.0719154
40
0.4392953
50
73.8045384
51
90.5585736
0
ARC
8
DEFAULT_255_1_388
10
24.0320932
20
5.168452
40
0.3392225
50
41.3071072
51
73.543002
0
ARC
8
DEFAULT_255_1_388
10
23.9852752
20
5.1281461
40
0.4009977
50
13.5075837
51
41.2174839
0
ARC
8
DEFAULT_255_1_388
10
23.800585
20
5.0797907
40
0.5918864
50
1.1330171
51
13.8830737
0
ARC
8
DEFAULT_255_1_388
10
23.6409496
20
5.0712522
40
0.7516787
50
359.9925091
51
1.5431298
0
ARC
8
DEFAULT_255_1_388
10
23.785411
20
5.0666027
40
0.6072343
50
347.8572712
51
0.4294349
0
ARC
8
DEFAULT_255_1_388
10
23.9823245
20
5.0219898
40
0.4053482
50
323.6727442
51
348.1674594
0
ARC
8
DEFAULT_255_1_388
10
24.015421
20
5.0018175
40
0.3667495
50
316.8171818
51
323.1486802
0
ARC
8
DEFAULT_255_1_388
10
24.0223333
20
4.9976612
40
0.358869
50
281.839603
51
316.5458142
0
ARC
8
DEFAULT_255_1_388
10
23.9800621
20
5.1726363
40
0.5388223
50
269.5770964
51
282.4214641
0
ARC
8
DEFAULT_255_1_388
10
23.9720542
20
5.148593
40
0.5147801
50
256.2425863
51
270.4486481
0
ARC
8
DEFAULT_255_1_388
10
23.9384069
20
5.0136124
40
0.3756708
50
228.9024379
51
256.33135
0
ARC
8
DEFAULT_255_1_388
10
23.930105
20
5.0005054
40
0.360344
50
193.7536029
51
228.5272638
0
ARC
8
DEFAULT_255_1_388
10
24.0693615
20
5.0413463
40
0.5053599
50
184.9244437
51
194.4976052
0
ARC
8
DEFAULT_255_1_388
10
24.0910256
20
5.0453722
40
0.3700839
50
187.3596909
51
198.6733728
0
ARC
8
DEFAULT_255_1_388
10
23.9729499
20
5.0044373
40
0.2451195
50
198.4453795
51
217.7945479
0
ARC
8
DEFAULT_255_1_388
10
23.9396672
20
4.9808563
40
0.2043754
50
218.2887146
51
228.5613203
0
ARC
8
DEFAULT_255_1_388
10
23.9506679
20
4.9956902
40
0.2227819
50
228.9652423
51
258.1237049
0
ARC
8
DEFAULT_255_1_388
10
23.9738116
20
5.0947964
40
0.3245374
50
257.7260585
51
270.4013717
0
ARC
8
DEFAULT_255_1_388
10
23.9788614
20
5.0447255
40
0.2744726
50
269.4204315
51
286.420998
0
ARC
8
DEFAULT_255_1_388
10
23.995567
20
4.9840705
40
0.2115721
50
286.7250065
51
320.6004665
0
ARC
8
DEFAULT_255_1_388
10
23.9524585
20
5.0190527
40
0.2670878
50
320.6712228
51
344.5440474
0
ARC
8
DEFAULT_255_1_388
10
23.8223299
20
5.0572394
40
0.4026927
50
344.241448
51
356.735803
0
ARC
8
DEFAULT_255_1_388
10
23.6819606
20
5.0688656
40
0.5435085
50
356.3547471
51
0.0507222
0
ARC
8
DEFAULT_255_1_388
10
23.8321871
20
5.0723812
40
0.3932934
50
359.5579289
51
12.9534322
0
ARC
8
DEFAULT_255_1_388
10
23.9508711
20
5.1011586
40
0.2711827
50
12.6489751
51
41.608121
0
ARC
8
DEFAULT_255_1_388
10
23.9767871
20
5.1231946
40
0.2371737
50
41.7851122
51
85.9892156
0
ARC
8
DEFAULT_255_1_388
10
23.9629182
20
5.0316738
40
0.3295244
50
84.6965848
51
90.0672125
0
ARC
8
DEFAULT_255_1_388
10
23.9602749
20
4.9565118
40
0.4046926
50
89.6804991
51
99.161352
0
ARC
8
DEFAULT_255_1_388
10
23.9371758
20
5.0945848
40
0.2647044
50
98.9836248
51
113.8905702
0
ARC
8
DEFAULT_255_1_388
10
23.9113433
20
5.1555118
40
0.1985386
50
114.195234
51
127.3641866
0
LINE
8
DEFAULT_255_1_388
10
22.1477946
20
10.6419553
11
22.1477946
21
10.5588274
0
LINE
8
DEFAULT_255_1_388
10
21.0897206
20
10.5470811
11
21.0897206
21
10.6419553
0
LINE
8
DEFAULT_255_1_388
10
21.9752138
20
10.5461775
11
21.9752138
21
10.6437625
0
LINE
8
DEFAULT_255_1_388
10
21.2623014
20
10.6555088
11
21.2623014
21
10.5588274
0
ARC
8
DEFAULT_255_1_388
10
21.1755684
20
10.5543726
40
0.9722364
50
350.4878118
51
0.2625322
0
ARC
8
DEFAULT_255_1_388
10
21.4335644
20
10.5099994
40
0.7104556
50
336.0277991
51
350.5787241
0
ARC
8
DEFAULT_255_1_388
10
21.5848751
20
10.4416243
40
0.544417
50
319.887443
51
336.1331163
0
ARC
8
DEFAULT_255_1_388
10
21.6526563
20
10.3873733
40
0.4576311
50
302.4806296
51
319.6144102
0
ARC
8
DEFAULT_255_1_388
10
21.6397184
20
10.4123067
40
0.4856183
50
275.8196423
51
302.1885521
0
ARC
8
DEFAULT_255_1_388
10
21.6210046
20
10.5408466
40
0.6154183
50
269.9169897
51
276.339506
0
ARC
8
DEFAULT_255_1_388
10
21.6159646
20
10.463668
40
0.5382553
50
252.5221437
51
270.441579
0
ARC
8
DEFAULT_255_1_388
10
21.5997897
20
10.4030046
40
0.4755426
50
237.5349961
51
252.1858334
0
ARC
8
DEFAULT_255_1_388
10
21.6098273
20
10.415812
40
0.4917393
50
209.0632754
51
237.3492577
0
ARC
8
DEFAULT_255_1_388
10
21.7077599
20
10.4773104
40
0.6072464
50
205.118533
51
209.6465345
0
ARC
8
DEFAULT_255_1_388
10
21.7973601
20
10.5153174
40
0.7045164
50
188.7216633
51
204.8239753
0
ARC
8
DEFAULT_255_1_388
10
22.0220376
20
10.5531387
40
0.9323368
50
180.3722704
51
188.9253909
0
ARC
8
DEFAULT_255_1_388
10
22.0189938
20
10.6464416
40
0.929284
50
169.5253055
51
180.2766048
0
ARC
8
DEFAULT_255_1_388
10
21.8049737
20
10.6858024
40
0.7116745
50
155.8314601
51
169.5088611
0
ARC
8
DEFAULT_255_1_388
10
21.66092
20
10.7526312
40
0.5528904
50
139.6259579
51
156.0379072
0
ARC
8
DEFAULT_255_1_388
10
21.5945733
20
10.8060143
40
0.4677708
50
122.6414784
51
139.3431662
0
ARC
8
DEFAULT_255_1_388
10
21.6058988
20
10.7853787
40
0.4912586
50
93.0224537
51
122.4556091
0
ARC
8
DEFAULT_255_1_388
10
21.6180509
20
10.6767776
40
0.6003837
50
89.9756766
51
93.6340839
0
ARC
8
DEFAULT_255_1_388
10
21.6224107
20
10.7216879
40
0.5554884
50
73.7463329
51
90.4234008
0
ARC
8
DEFAULT_255_1_388
10
21.642158
20
10.7981772
40
0.4765353
50
57.663051
51
73.4516911
0
ARC
8
DEFAULT_255_1_388
10
21.6412618
20
10.8006108
40
0.4749629
50
29.1441355
51
57.4146687
0
ARC
8
DEFAULT_255_1_388
10
21.5360429
20
10.7349046
40
0.5988917
50
24.0985653
51
29.732054
0
ARC
8
DEFAULT_255_1_388
10
21.4198061
20
10.6867154
40
0.7246823
50
8.6654943
51
23.8241215
0
ARC
8
DEFAULT_255_1_388
10
21.1684479
20
10.6457037
40
0.9793537
50
359.7807044
51
8.8218476
0
ARC
8
DEFAULT_255_1_388
10
21.0394184
20
10.6485731
40
0.9358078
50
359.7054632
51
8.0359751
0
ARC
8
DEFAULT_255_1_388
10
21.3769235
20
10.6977252
40
0.5947474
50
7.8926278
51
20.2962188
0
ARC
8
DEFAULT_255_1_388
10
21.5600085
20
10.7652367
40
0.3996117
50
20.3231056
51
36.4990255
0
ARC
8
DEFAULT_255_1_388
10
21.6371383
20
10.8246399
40
0.3022818
50
36.1436715
51
85.6627846
0
ARC
8
DEFAULT_255_1_388
10
21.6188638
20
10.7076881
40
0.4203853
50
84.3845912
51
90.076054
0
ARC
8
DEFAULT_255_1_388
10
21.6140993
20
10.7819416
40
0.346157
50
89.3037228
51
109.9046209
0
ARC
8
DEFAULT_255_1_388
10
21.6036826
20
10.8249379
40
0.3022217
50
110.8229774
51
143.917961
0
ARC
8
DEFAULT_255_1_388
10
21.7087185
20
10.7447455
40
0.434348
50
143.5289166
51
163.2980252
0
ARC
8
DEFAULT_255_1_388
10
21.9233472
20
10.6772685
40
0.659321
50
163.0418884
51
174.3139873
0
ARC
8
DEFAULT_255_1_388
10
22.1938437
20
10.6460378
40
0.9315905
50
174.050934
51
179.4174954
0
ARC
8
DEFAULT_255_1_388
10
22.1370381
20
10.5541382
40
0.8747493
50
179.6928582
51
188.7908948
0
ARC
8
DEFAULT_255_1_388
10
21.8374181
20
10.5062086
40
0.5713262
50
188.6328449
51
202.5630732
0
ARC
8
DEFAULT_255_1_388
10
21.6963018
20
10.4495142
40
0.4192612
50
202.8078931
51
216.1195888
0
ARC
8
DEFAULT_255_1_388
10
21.6052535
20
10.3762479
40
0.3025752
50
215.0755613
51
264.6379773
0
ARC
8
DEFAULT_255_1_388
10
21.6195372
20
10.4697376
40
0.3970284
50
263.8464302
51
270.0830805
0
ARC
8
DEFAULT_255_1_388
10
21.6241917
20
10.4406808
40
0.3679937
50
269.3649295
51
287.5149684
0
ARC
8
DEFAULT_255_1_388
10
21.6442358
20
10.3678714
40
0.2925408
50
288.0629019
51
323.8115617
0
ARC
8
DEFAULT_255_1_388
10
21.5462334
20
10.4409754
40
0.4148018
50
323.6546541
51
342.6591359
0
ARC
8
DEFAULT_255_1_388
10
21.3176992
20
10.515328
40
0.6551163
50
342.4092446
51
353.6451501
0
ARC
8
DEFAULT_255_1_388
10
20.9991785
20
10.5549565
40
0.9760748
50
353.4027553
51
359.4846611
0
LINE
8
DEFAULT_255_1_388
10
22.9140172
20
11.2654148
11
22.9140172
21
9.9435
0
LINE
8
DEFAULT_255_1_388
10
22.9140172
20
9.9435
11
22.7459542
21
9.9435
0
LINE
8
DEFAULT_255_1_388
10
22.7459542
20
9.9435
11
22.7459542
21
11.057595
0
LINE
8
DEFAULT_255_1_388
10
22.7459542
20
11.057595
11
22.4089247
21
10.9338066
0
LINE
8
DEFAULT_255_1_388
10
22.4089247
20
10.9338066
11
22.4089247
21
11.0856055
0
LINE
8
DEFAULT_255_1_388
10
22.4089247
20
11.0856055
11
22.8878139
21
11.2654148
0
LINE
8
DEFAULT_255_1_388
10
22.8878139
20
11.2654148
11
22.9140172
21
11.2654148
0
LINE
8
DEFAULT_255_1_388
10
24.109433
20
11.2590898
11
24.109433
21
10.385343
0
LINE
8
DEFAULT_255_1_388
10
24.109433
20
10.385343
11
24.291953
21
10.385343
0
LINE
8
DEFAULT_255_1_388
10
24.291953
20
10.385343
11
24.291953
21
10.2489048
0
LINE
8
DEFAULT_255_1_388
10
24.291953
20
10.2489048
11
24.109433
21
10.2489048
0
LINE
8
DEFAULT_255_1_388
10
24.109433
20
10.2489048
11
24.109433
21
9.9435
0
LINE
8
DEFAULT_255_1_388
10
24.109433
20
9.9435
11
23.94137
21
9.9435
0
LINE
8
DEFAULT_255_1_388
10
23.94137
20
9.9435
11
23.94137
21
10.2489048
0
LINE
8
DEFAULT_255_1_388
10
23.94137
20
10.2489048
11
23.3423068
21
10.2489048
0
LINE
8
DEFAULT_255_1_388
10
23.3423068
20
10.2489048
11
23.3423068
21
10.3473933
0
LINE
8
DEFAULT_255_1_388
10
23.3423068
20
10.3473933
11
23.9314308
21
11.2590898
0
LINE
8
DEFAULT_255_1_388
10
23.9314308
20
11.2590898
11
24.109433
21
11.2590898
0
LINE
8
DEFAULT_255_1_388
10
23.9214916
20
10.9943455
11
23.5320553
21
10.385343
0
LINE
8
DEFAULT_255_1_388
10
23.5320553
20
10.385343
11
23.94137
21
10.385343
0
LINE
8
DEFAULT_255_1_388
10
23.94137
20
10.385343
11
23.94137
21
11.030488
0
LINE
8
DEFAULT_255_1_388
10
23.94137
20
11.030488
11
23.9214916
21
10.9943455
0
LINE
8
DEFAULT_255_1_388
10
22.2800946
20
15.9336553
11
22.2800946
21
15.8505274
0
LINE
8
DEFAULT_255_1_388
10
21.2220206
20
15.8387811
11
21.2220206
21
15.9336553
0
LINE
8
DEFAULT_255_1_388
10
22.1075138
20
15.8378775
11
22.1075138
21
15.9354625
0
LINE
8
DEFAULT_255_1_388
10
21.3946014
20
15.9472088
11
21.3946014
21
15.8505274
0
ARC
8
DEFAULT_255_1_388
10
21.3078684
20
15.8460726
40
0.9722364
50
350.4878118
51
0.2625322
0
ARC
8
DEFAULT_255_1_388
10
21.5658644
20
15.8016994
40
0.7104556
50
336.0277991
51
350.5787241
0
ARC
8
DEFAULT_255_1_388
10
21.7171751
20
15.7333243
40
0.544417
50
319.887443
51
336.1331163
0
ARC
8
DEFAULT_255_1_388
10
21.7849563
20
15.6790733
40
0.4576311
50
302.4806296
51
319.6144102
0
ARC
8
DEFAULT_255_1_388
10
21.7720184
20
15.7040067
40
0.4856183
50
275.8196423
51
302.1885521
0
ARC
8
DEFAULT_255_1_388
10
21.7533046
20
15.8325466
40
0.6154183
50
269.9169897
51
276.339506
0
ARC
8
DEFAULT_255_1_388
10
21.7482646
20
15.755368
40
0.5382553
50
252.5221437
51
270.441579
0
ARC
8
DEFAULT_255_1_388
10
21.7320897
20
15.6947046
40
0.4755426
50
237.5349961
51
252.1858334
0
ARC
8
DEFAULT_255_1_388
10
21.7421273
20
15.707512
40
0.4917393
50
209.0632754
51
237.3492577
0
ARC
8
DEFAULT_255_1_388
10
21.8400599
20
15.7690104
40
0.6072464
50
205.118533
51
209.6465345
0
ARC
8
DEFAULT_255_1_388
10
21.9296601
20
15.8070174
40
0.7045164
50
188.7216633
51
204.8239753
0
ARC
8
DEFAULT_255_1_388
10
22.1543376
20
15.8448387
40
0.9323368
50
180.3722704
51
188.9253909
0
ARC
8
DEFAULT_255_1_388
10
22.1512938
20
15.9381416
40
0.929284
50
169.5253055
51
180.2766048
0
ARC
8
DEFAULT_255_1_388
10
21.9372737
20
15.9775024
40
0.7116745
50
155.8314601
51
169.5088611
0
ARC
8
DEFAULT_255_1_388
10
21.79322
20
16.0443312
40
0.5528904
50
139.6259579
51
156.0379072
0
ARC
8
DEFAULT_255_1_388
10
21.7268733
20
16.0977143
40
0.4677708
50
122.6414784
51
139.3431662
0
ARC
8
DEFAULT_255_1_388
10
21.7381988
20
16.0770787
40
0.4912586
50
93.0224537
51
122.4556091
0
ARC
8
DEFAULT_255_1_388
10
21.7503509
20
15.9684776
40
0.6003837
50
89.9756766
51
93.6340839
0
ARC
8
DEFAULT_255_1_388
10
21.7547107
20
16.0133879
40
0.5554884
50
73.7463329
51
90.4234008
0
ARC
8
DEFAULT_255_1_388
10
21.774458
20
16.0898772
40
0.4765353
50
57.663051
51
73.4516911
0
ARC
8
DEFAULT_255_1_388
10
21.7735618
20
16.0923108
40
0.4749629
50
29.1441355
51
57.4146687
0
ARC
8
DEFAULT_255_1_388
10
21.6683429
20
16.0266046
40
0.5988917
50
24.0985653
51
29.732054
0
ARC
8
DEFAULT_255_1_388
10
21.5521061
20
15.9784154
40
0.7246823
50
8.6654943
51
23.8241215
0
ARC
8
DEFAULT_255_1_388
10
21.3007479
20
15.9374037
40
0.9793537
50
359.7807044
51
8.8218476
0
ARC
8
DEFAULT_255_1_388
10
21.1717184
20
15.9402731
40
0.9358078
50
359.7054632
51
8.0359751
0
ARC
8
DEFAULT_255_1_388
10
21.5092235
20
15.9894252
40
0.5947474
50
7.8926278
51
20.2962188
0
ARC
8
DEFAULT_255_1_388
10
21.6923085
20
16.0569367
40
0.3996117
50
20.3231056
51
36.4990255
0
ARC
8
DEFAULT_255_1_388
10
21.7694383
20
16.1163399
40
0.3022818
50
36.1436715
51
85.6627846
0
ARC
8
DEFAULT_255_1_388
10
21.7511638
20
15.9993881
40
0.4203853
50
84.3845912
51
90.076054
0
ARC
8
DEFAULT_255_1_388
10
21.7463993
20
16.0736416
40
0.346157
50
89.3037228
51
109.9046209
0
ARC
8
DEFAULT_255_1_388
10
21.7359826
20
16.1166379
40
0.3022217
50
110.8229774
51
143.917961
0
ARC
8
DEFAULT_255_1_388
10
21.8410185
20
16.0364455
40
0.434348
50
143.5289166
51
163.2980252
0
ARC
8
DEFAULT_255_1_388
10
22.0556472
20
15.9689685
40
0.659321
50
163.0418884
51
174.3139873
0
ARC
8
DEFAULT_255_1_388
10
22.3261437
20
15.9377378
40
0.9315905
50
174.050934
51
179.4174954
0
ARC
8
DEFAULT_255_1_388
10
22.2693381
20
15.8458382
40
0.8747493
50
179.6928582
51
188.7908948
0
ARC
8
DEFAULT_255_1_388
10
21.9697181
20
15.7979086
40
0.5713262
50
188.6328449
51
202.5630732
0
ARC
8
DEFAULT_255_1_388
10
21.8286018
20
15.7412142
40
0.4192612
50
202.8078931
51
216.1195888
0
ARC
8
DEFAULT_255_1_388
10
21.7375535
20
15.6679479
40
0.3025752
50
215.0755613
51
264.6379773
0
ARC
8
DEFAULT_255_1_388
10
21.7518372
20
15.7614376
40
0.3970284
50
263.8464302
51
270.0830805
0
ARC
8
DEFAULT_255_1_388
10
21.7564917
20
15.7323808
40
0.3679937
50
269.3649295
51
287.5149684
0
ARC
8
DEFAULT_255_1_388
10
21.7765358
20
15.6595714
40
0.2925408
50
288.0629019
51
323.8115617
0
ARC
8
DEFAULT_255_1_388
10
21.6785334
20
15.7326754
40
0.4148018
50
323.6546541
51
342.6591359
0
ARC
8
DEFAULT_255_1_388
10
21.4499992
20
15.807028
40
0.6551163
50
342.4092446
51
353.6451501
0
ARC
8
DEFAULT_255_1_388
10
21.1314785
20
15.8466565
40
0.9760748
50
353.4027553
51
359.4846611
0
LINE
8
DEFAULT_255_1_388
10
23.0463172
20
16.5571148
11
23.0463172
21
15.2352
0
LINE
8
DEFAULT_255_1_388
10
23.0463172
20
15.2352
11
22.8782542
21
15.2352
0
LINE
8
DEFAULT_255_1_388
10
22.8782542
20
15.2352
11
22.8782542
21
16.349295
0
LINE
8
DEFAULT_255_1_388
10
22.8782542
20
16.349295
11
22.5412247
21
16.2255066
0
LINE
8
DEFAULT_255_1_388
10
22.5412247
20
16.2255066
11
22.5412247
21
16.3773055
0
LINE
8
DEFAULT_255_1_388
10
22.5412247
20
16.3773055
11
23.0201139
21
16.5571148
0
LINE
8
DEFAULT_255_1_388
10
23.0201139
20
16.5571148
11
23.0463172
21
16.5571148
0
LINE
8
DEFAULT_255_1_388
10
23.779108
20
15.8378775
11
23.779108
21
15.9743157
0
LINE
8
DEFAULT_255_1_388
10
23.779108
20
15.9743157
11
23.9047035
21
15.9743157
0
LINE
8
DEFAULT_255_1_388
10
23.6905587
20
16.2056282
11
23.5233993
21
16.2056282
0
LINE
8
DEFAULT_255_1_388
10
23.5116529
20
15.5821688
11
23.6797159
21
15.5821688
0
LINE
8
DEFAULT_255_1_388
10
23.9047035
20
15.8378775
11
23.779108
21
15.8378775
0
ARC
8
DEFAULT_255_1_388
10
23.9014261
20
16.3559922
40
0.3816905
50
270.491971
51
281.8953028
0
ARC
8
DEFAULT_255_1_388
10
23.9285688
20
16.2320199
40
0.2547877
50
281.6690378
51
301.2943765
0
ARC
8
DEFAULT_255_1_388
10
23.9477139
20
16.1969926
40
0.2149197
50
301.7834992
51
311.754567
0
ARC
8
DEFAULT_255_1_388
10
23.9580181
20
16.185565
40
0.1995326
50
311.7325027
51
354.2803031
0
ARC
8
DEFAULT_255_1_388
10
23.8762597
20
16.199628
40
0.2823461
50
353.0941646
51
0.1174696
0
ARC
8
DEFAULT_255_1_388
10
23.8244155
20
16.2049874
40
0.3342238
50
359.1804452
51
15.0452323
0
ARC
8
DEFAULT_255_1_388
10
23.9758213
20
16.2491546
40
0.1765747
50
13.957816
51
77.6713812
0
ARC
8
DEFAULT_255_1_388
10
23.9323449
20
16.0933464
40
0.3381982
50
76.111571
51
90.7028736
0
ARC
8
DEFAULT_255_1_388
10
23.9256861
20
16.124125
40
0.3074046
50
89.5321574
51
103.5319393
0
ARC
8
DEFAULT_255_1_388
10
23.9031245
20
16.2140443
40
0.2147041
50
103.2930114
51
133.5619756
0
ARC
8
DEFAULT_255_1_388
10
23.8981186
20
16.2207351
40
0.2064084
50
133.8349761
51
173.5343225
0
ARC
8
DEFAULT_255_1_388
10
23.9794844
20
16.2063144
40
0.2889266
50
172.5097183
51
180.1360699
0
ARC
8
DEFAULT_255_1_388
10
23.8724607
20
16.210188
40
0.3490913
50
155.3483706
51
180.7484035
0
ARC
8
DEFAULT_255_1_388
10
23.8669583
20
16.2069519
40
0.3454798
50
131.5745177
51
154.4799474
0
ARC
8
DEFAULT_255_1_388
10
23.9021866
20
16.1713422
40
0.3955058
50
96.9874487
51
131.9690874
0
ARC
8
DEFAULT_255_1_388
10
23.9268758
20
16.0312407
40
0.537622
50
89.8592909
51
97.7827481
0
ARC
8
DEFAULT_255_1_388
10
23.9322867
20
16.001736
40
0.5671399
50
78.3654493
51
90.4132586
0
ARC
8
DEFAULT_255_1_388
10
23.9725508
20
16.1883918
40
0.3762034
50
56.6229818
51
78.6387103
0
ARC
8
DEFAULT_255_1_388
10
23.9967338
20
16.2306846
40
0.3275964
50
47.0254604
51
56.085558
0
ARC
8
DEFAULT_255_1_388
10
23.9989589
20
16.2351189
40
0.3228382
50
10.9207523
51
46.777927
0
ARC
8
DEFAULT_255_1_388
10
23.8455183
20
16.1996401
40
0.4802559
50
359.6364235
51
11.6087615
0
ARC
8
DEFAULT_255_1_388
10
24.0519348
20
16.1979404
40
0.273833
50
332.3549969
51
359.7179765
0
ARC
8
DEFAULT_255_1_388
10
23.9787749
20
16.2326285
40
0.3547505
50
325.2332381
51
332.8746682
0
ARC
8
DEFAULT_255_1_388
10
23.9959332
20
16.2206763
40
0.3338396
50
292.9803892
51
325.2391113
0
ARC
8
DEFAULT_255_1_388
10
23.9648528
20
16.2811679
40
0.4016959
50
292.542178
51
293.6931461
0
ARC
8
DEFAULT_255_1_388
10
24.00921
20
15.5546036
40
0.372079
50
57.643292
51
72.8626085
0
ARC
8
DEFAULT_255_1_388
10
24.0490934
20
15.6192273
40
0.2961455
50
36.7246661
51
57.4701329
0
ARC
8
DEFAULT_255_1_388
10
24.0478091
20
15.620647
40
0.2963321
50
8.054535
51
36.3561529
0
ARC
8
DEFAULT_255_1_388
10
23.9507763
20
15.6032073
40
0.3948682
50
359.8316595
51
8.5873361
0
ARC
8
DEFAULT_255_1_388
10
23.9085238
20
15.597797
40
0.4371398
50
343.9831631
51
0.557075
0
ARC
8
DEFAULT_255_1_388
10
24.0082287
20
15.5704963
40
0.3337749
50
311.6358204
51
343.7652116
0
ARC
8
DEFAULT_255_1_388
10
23.9656541
20
15.6184955
40
0.3979351
50
279.7829743
51
311.625622
0
ARC
8
DEFAULT_255_1_388
10
23.9317676
20
15.7801642
40
0.5630417
50
269.7285092
51
280.3857694
0
ARC
8
DEFAULT_255_1_388
10
23.9247989
20
15.7755241
40
0.5584119
50
256.6827433
51
270.4412869
0
ARC
8
DEFAULT_255_1_388
10
23.8866976
20
15.6197698
40
0.3980715
50
229.4223821
51
256.8554507
0
ARC
8
DEFAULT_255_1_388
10
23.8400529
20
15.5672683
40
0.3278564
50
181.8183354
51
229.6455015
0
ARC
8
DEFAULT_255_1_388
10
23.9570139
20
15.5819825
40
0.4453611
50
179.9760419
51
183.2330638
0
ARC
8
DEFAULT_255_1_388
10
23.9376691
20
15.5796781
40
0.2579652
50
179.4467996
51
196.2871626
0
ARC
8
DEFAULT_255_1_388
10
23.8828145
20
15.5646709
40
0.2011057
50
196.5661293
51
227.7059371
0
ARC
8
DEFAULT_255_1_388
10
23.9012752
20
15.5853155
40
0.2287994
50
227.7653015
51
257.8763321
0
ARC
8
DEFAULT_255_1_388
10
23.9265835
20
15.6913961
40
0.3378385
50
257.4583525
51
270.4267406
0
ARC
8
DEFAULT_255_1_388
10
23.9317084
20
15.724023
40
0.3704652
50
269.5965319
51
280.8788143
0
ARC
8
DEFAULT_255_1_388
10
23.9575312
20
15.5950529
40
0.2389415
50
280.6347277
51
299.8594068
0
ARC
8
DEFAULT_255_1_388
10
23.9790082
20
15.5542736
40
0.19289
50
300.3575552
51
314.5515667
0
ARC
8
DEFAULT_255_1_388
10
23.9696758
20
15.5611025
40
0.204312
50
315.0730962
51
345.0429362
0
ARC
8
DEFAULT_255_1_388
10
23.8658265
20
15.5913539
40
0.31246
50
344.598526
51
357.9270698
0
ARC
8
DEFAULT_255_1_388
10
23.764857
20
15.5982705
40
0.4136265
50
357.4755098
51
0.0224936
0
ARC
8
DEFAULT_255_1_388
10
23.8801448
20
15.6010099
40
0.2983498
50
359.5051035
51
13.4236939
0
ARC
8
DEFAULT_255_1_388
10
23.9776538
20
15.6259637
40
0.1977186
50
12.9497905
51
48.7550905
0
ARC
8
DEFAULT_255_1_388
10
23.957146
20
15.5979373
40
0.2323321
50
49.509109
51
72.1832965
0
ARC
8
DEFAULT_255_1_388
10
23.9168928
20
15.4784632
40
0.358397
50
71.9008458
51
84.3555134
0
ARC
8
DEFAULT_255_1_388
10
23.8987323
20
15.3252712
40
0.512641
50
84.019632
51
89.3326067
0
LINE
8
DEFAULT_255_1_388
10
22.2800946
20
21.2253553
11
22.2800946
21
21.1422274
0
LINE
8
DEFAULT_255_1_388
10
21.2220206
20
21.1304811
11
21.2220206
21
21.2253553
0
LINE
8
DEFAULT_255_1_388
10
22.1075138
20
21.1295775
11
22.1075138
21
21.2271625
0
LINE
8
DEFAULT_255_1_388
10
21.3946014
20
21.2389088
11
21.3946014
21
21.1422274
0
ARC
8
DEFAULT_255_1_388
10
21.3078684
20
21.1377726
40
0.9722364
50
350.4878118
51
0.2625322
0
ARC
8
DEFAULT_255_1_388
10
21.5658644
20
21.0933994
40
0.7104556
50
336.0277991
51
350.5787241
0
ARC
8
DEFAULT_255_1_388
10
21.7171751
20
21.0250243
40
0.544417
50
319.887443
51
336.1331163
0
ARC
8
DEFAULT_255_1_388
10
21.7849563
20
20.9707733
40
0.4576311
50
302.4806296
51
319.6144102
0
ARC
8
DEFAULT_255_1_388
10
21.7720184
20
20.9957067
40
0.4856183
50
275.8196423
51
302.1885521
0
ARC
8
DEFAULT_255_1_388
10
21.7533046
20
21.1242466
40
0.6154183
50
269.9169897
51
276.339506
0
ARC
8
DEFAULT_255_1_388
10
21.7482646
20
21.047068
40
0.5382553
50
252.5221437
51
270.441579
0
ARC
8
DEFAULT_255_1_388
10
21.7320897
20
20.9864046
40
0.4755426
50
237.5349961
51
252.1858334
0
ARC
8
DEFAULT_255_1_388
10
21.7421273
20
20.999212
40
0.4917393
50
209.0632754
51
237.3492577
0
ARC
8
DEFAULT_255_1_388
10
21.8400599
20
21.0607104
40
0.6072464
50
205.118533
51
209.6465345
0
ARC
8
DEFAULT_255_1_388
10
21.9296601
20
21.0987174
40
0.7045164
50
188.7216633
51
204.8239753
0
ARC
8
DEFAULT_255_1_388
10
22.1543376
20
21.1365387
40
0.9323368
50
180.3722704
51
188.9253909
0
ARC
8
DEFAULT_255_1_388
10
22.1512938
20
21.2298416
40
0.929284
50
169.5253055
51
180.2766048
0
ARC
8
DEFAULT_255_1_388
10
21.9372737
20
21.2692024
40
0.7116745
50
155.8314601
51
169.5088611
0
ARC
8
DEFAULT_255_1_388
10
21.79322
20
21.3360312
40
0.5528904
50
139.6259579
51
156.0379072
0
ARC
8
DEFAULT_255_1_388
10
21.7268733
20
21.3894143
40
0.4677708
50
122.6414784
51
139.3431662
0
ARC
8
DEFAULT_255_1_388
10
21.7381988
20
21.3687787
40
0.4912586
50
93.0224537
51
122.4556091
0
ARC
8
DEFAULT_255_1_388
10
21.7503509
20
21.2601776
40
0.6003837
50
89.9756766
51
93.6340839
0
ARC
8
DEFAULT_255_1_388
10
21.7547107
20
21.3050879
40
0.5554884
50
73.7463329
51
90.4234008
0
ARC
8
DEFAULT_255_1_388
10
21.774458
20
21.3815772
40
0.4765353
50
57.663051
51
73.4516911
0
ARC
8
DEFAULT_255_1_388
10
21.7735618
20
21.3840108
40
0.4749629
50
29.1441355
51
57.4146687
0
ARC
8
DEFAULT_255_1_388
10
21.6683429
20
21.3183046
40
0.5988917
50
24.0985653
51
29.732054
0
ARC
8
DEFAULT_255_1_388
10
21.5521061
20
21.2701154
40
0.7246823
50
8.6654943
51
23.8241215
0
ARC
8
DEFAULT_255_1_388
10
21.3007479
20
21.2291037
40
0.9793537
50
359.7807044
51
8.8218476
0
ARC
8
DEFAULT_255_1_388
10
21.1717184
20
21.2319731
40
0.9358078
50
359.7054632
51
8.0359751
0
ARC
8
DEFAULT_255_1_388
10
21.5092235
20
21.2811252
40
0.5947474
50
7.8926278
51
20.2962188
0
ARC
8
DEFAULT_255_1_388
10
21.6923085
20
21.3486367
40
0.3996117
50
20.3231056
51
36.4990255
0
ARC
8
DEFAULT_255_1_388
10
21.7694383
20
21.4080399
40
0.3022818
50
36.1436715
51
85.6627846
0
ARC
8
DEFAULT_255_1_388
10
21.7511638
20
21.2910881
40
0.4203853
50
84.3845912
51
90.076054
0
ARC
8
DEFAULT_255_1_388
10
21.7463993
20
21.3653416
40
0.346157
50
89.3037228
51
109.9046209
0
ARC
8
DEFAULT_255_1_388
10
21.7359826
20
21.4083379
40
0.3022217
50
110.8229774
51
143.917961
0
ARC
8
DEFAULT_255_1_388
10
21.8410185
20
21.3281455
40
0.434348
50
143.5289166
51
163.2980252
0
ARC
8
DEFAULT_255_1_388
10
22.0556472
20
21.2606685
40
0.659321
50
163.0418884
51
174.3139873
0
ARC
8
DEFAULT_255_1_388
10
22.3261437
20
21.2294378
40
0.9315905
50
174.050934
51
179.4174954
0
ARC
8
DEFAULT_255_1_388
10
22.2693381
20
21.1375382
40
0.8747493
50
179.6928582
51
188.7908948
0
ARC
8
DEFAULT_255_1_388
10
21.9697181
20
21.0896086
40
0.5713262
50
188.6328449
51
202.5630732
0
ARC
8
DEFAULT_255_1_388
10
21.8286018
20
21.0329142
40
0.4192612
50
202.8078931
51
216.1195888
0
ARC
8
DEFAULT_255_1_388
10
21.7375535
20
20.9596479
40
0.3025752
50
215.0755613
51
264.6379773
0
ARC
8
DEFAULT_255_1_388
10
21.7518372
20
21.0531376
40
0.3970284
50
263.8464302
51
270.0830805
0
ARC
8
DEFAULT_255_1_388
10
21.7564917
20
21.0240808
40
0.3679937
50
269.3649295
51
287.5149684
0
ARC
8
DEFAULT_255_1_388
10
21.7765358
20
20.9512714
40
0.2925408
50
288.0629019
51
323.8115617
0
ARC
8
DEFAULT_255_1_388
10
21.6785334
20
21.0243754
40
0.4148018
50
323.6546541
51
342.6591359
0
ARC
8
DEFAULT_255_1_388
10
21.4499992
20
21.098728
40
0.6551163
50
342.4092446
51
353.6451501
0
ARC
8
DEFAULT_255_1_388
10
21.1314785
20
21.1383565
40
0.9760748
50
353.4027553
51
359.4846611
0
LINE
8
DEFAULT_255_1_388
10
23.0463172
20
21.8488148
11
23.0463172
21
20.5269
0
LINE
8
DEFAULT_255_1_388
10
23.0463172
20
20.5269
11
22.8782542
21
20.5269
0
LINE
8
DEFAULT_255_1_388
10
22.8782542
20
20.5269
11
22.8782542
21
21.640995
0
LINE
8
DEFAULT_255_1_388
10
22.8782542
20
21.640995
11
22.5412247
21
21.5172066
0
LINE
8
DEFAULT_255_1_388
10
22.5412247
20
21.5172066
11
22.5412247
21
21.6690055
0
LINE
8
DEFAULT_255_1_388
10
22.5412247
20
21.6690055
11
23.0201139
21
21.8488148
0
LINE
8
DEFAULT_255_1_388
10
23.0201139
20
21.8488148
11
23.0463172
21
21.8488148
0
LINE
8
DEFAULT_255_1_388
10
24.3980497
20
20.6633382
11
24.3980497
21
20.5269
0
LINE
8
DEFAULT_255_1_388
10
24.3980497
20
20.5269
11
23.5360492
21
20.5269
0
LINE
8
DEFAULT_255_1_388
10
23.5360492
20
20.5269
11
23.5360492
21
20.6470741
0
LINE
8
DEFAULT_255_1_388
10
23.5360492
20
20.6470741
11
23.9914457
21
21.1530702
0
LINE
8
DEFAULT_255_1_388
10
23.6779088
20
21.4548607
11
23.5107494
21
21.4548607
0
LINE
8
DEFAULT_255_1_388
10
24.0899342
20
21.045546
11
23.737544
21
20.6633382
0
LINE
8
DEFAULT_255_1_388
10
23.737544
20
20.6633382
11
24.3980497
21
20.6633382
0
ARC
8
DEFAULT_255_1_388
10
22.4738516
20
22.4950983
40
2.0258655
50
318.5132526
51
320.7829045
0
ARC
8
DEFAULT_255_1_388
10
23.0686473
20
22.0109929
40
1.2589638
50
320.7372878
51
323.9739031
0
ARC
8
DEFAULT_255_1_388
10
23.5095405
20
21.6915554
40
0.7145141
50
323.8962701
51
328.64194
0
ARC
8
DEFAULT_255_1_388
10
23.7397662
20
21.5495545
40
0.4440242
50
328.8294576
51
331.7891185
0
ARC
8
DEFAULT_255_1_388
10
23.8519982
20
21.4916374
40
0.3177517
50
331.4254512
51
352.9365785
0
ARC
8
DEFAULT_255_1_388
10
23.8672982
20
21.488205
40
0.3021496
50
353.2257659
51
0.0166158
0
ARC
8
DEFAULT_255_1_388
10
23.8909743
20
21.4907894
40
0.2784847
50
359.486299
51
15.9343185
0
ARC
8
DEFAULT_255_1_388
10
23.948001
20
21.5061269
40
0.2194403
50
16.1712913
51
43.5286088
0
ARC
8
DEFAULT_255_1_388
10
23.9566954
20
21.5148191
40
0.2071504
50
43.4417391
51
83.1661095
0
ARC
8
DEFAULT_255_1_388
10
23.9416115
20
21.4319316
40
0.2912888
50
82.160179
51
90.1505708
0
ARC
8
DEFAULT_255_1_388
10
23.9380597
20
21.3715279
40
0.3517025
50
89.5460741
51
102.5418361
0
ARC
8
DEFAULT_255_1_388
10
23.9107317
20
21.4874933
40
0.2325748
50
102.1738499
51
129.206123
0
ARC
8
DEFAULT_255_1_388
10
23.901877
20
21.5014664
40
0.2161591
50
129.72865
51
135.753947
0
ARC
8
DEFAULT_255_1_388
10
23.9155253
20
21.4905728
40
0.2335433
50
136.1757367
51
166.3673339
0
ARC
8
DEFAULT_255_1_388
10
24.0287941
20
21.4602148
40
0.3507873
50
165.9090694
51
178.8684636
0
ARC
8
DEFAULT_255_1_388
10
24.1263712
20
21.4549263
40
0.4484624
50
178.4391136
51
180.0083808
0
ARC
8
DEFAULT_255_1_388
10
23.9684414
20
21.4593197
40
0.4577138
50
163.2878482
51
180.5581842
0
ARC
8
DEFAULT_255_1_388
10
23.8782455
20
21.4841393
40
0.3641968
50
133.4540601
51
162.947111
0
ARC
8
DEFAULT_255_1_388
10
23.8983337
20
21.4627789
40
0.3935189
50
100.7869829
51
133.4382499
0
ARC
8
DEFAULT_255_1_388
10
23.9374582
20
21.2885399
40
0.5720313
50
89.660664
51
101.3702276
0
ARC
8
DEFAULT_255_1_388
10
23.9449191
20
21.2954263
40
0.5651495
50
78.2172678
51
90.412935
0
ARC
8
DEFAULT_255_1_388
10
23.9848657
20
21.4781511
40
0.378122
50
55.9269121
51
78.4888449
0
ARC
8
DEFAULT_255_1_388
10
24.0069372
20
21.5162187
40
0.3342379
50
47.929771
51
55.4049217
0
ARC
8
DEFAULT_255_1_388
10
24.0183902
20
21.5278618
40
0.3179217
50
4.334829
51
48.0560205
0
ARC
8
DEFAULT_255_1_388
10
23.8951704
20
21.5087487
40
0.442341
50
359.9251713
51
5.5971671
0
ARC
8
DEFAULT_255_1_388
10
23.9433858
20
21.5150728
40
0.3941854
50
337.8914027
51
358.9967534
0
ARC
8
DEFAULT_255_1_388
10
23.6381429
20
21.6328295
40
0.7213271
50
326.9132501
51
338.3508308
0
ARC
8
DEFAULT_255_1_388
10
23.189754
20
21.9202105
40
1.2538973
50
319.6471833
51
327.0959558
0
ARC
8
DEFAULT_255_1_388
10
22.7584199
20
22.276005
40
1.8129975
50
317.2588228
51
319.9045804
0
LINE
8
DEFAULT_255_1_388
10
22.2874946
20
26.5169553
11
22.2874946
21
26.4338274
0
LINE
8
DEFAULT_255_1_388
10
21.2294206
20
26.4220811
11
21.2294206
21
26.5169553
0
LINE
8
DEFAULT_255_1_388
10
22.1149138
20
26.4211775
11
22.1149138
21
26.5187625
0
LINE
8
DEFAULT_255_1_388
10
21.4020014
20
26.5305088
11
21.4020014
21
26.4338274
0
ARC
8
DEFAULT_255_1_388
10
21.3152684
20
26.4293726
40
0.9722364
50
350.4878118
51
0.2625322
0
ARC
8
DEFAULT_255_1_388
10
21.5732644
20
26.3849994
40
0.7104556
50
336.0277991
51
350.5787241
0
ARC
8
DEFAULT_255_1_388
10
21.7245751
20
26.3166243
40
0.544417
50
319.887443
51
336.1331163
0
ARC
8
DEFAULT_255_1_388
10
21.7923563
20
26.2623733
40
0.4576311
50
302.4806296
51
319.6144102
0
ARC
8
DEFAULT_255_1_388
10
21.7794184
20
26.2873067
40
0.4856183
50
275.8196423
51
302.1885521
0
ARC
8
DEFAULT_255_1_388
10
21.7607046
20
26.4158466
40
0.6154183
50
269.9169897
51
276.339506
0
ARC
8
DEFAULT_255_1_388
10
21.7556646
20
26.338668
40
0.5382553
50
252.5221437
51
270.441579
0
ARC
8
DEFAULT_255_1_388
10
21.7394897
20
26.2780046
40
0.4755426
50
237.5349961
51
252.1858334
0
ARC
8
DEFAULT_255_1_388
10
21.7495273
20
26.290812
40
0.4917393
50
209.0632754
51
237.3492577
0
ARC
8
DEFAULT_255_1_388
10
21.8474599
20
26.3523104
40
0.6072464
50
205.118533
51
209.6465345
0
ARC
8
DEFAULT_255_1_388
10
21.9370601
20
26.3903174
40
0.7045164
50
188.7216633
51
204.8239753
0
ARC
8
DEFAULT_255_1_388
10
22.1617376
20
26.4281387
40
0.9323368
50
180.3722704
51
188.9253909
0
ARC
8
DEFAULT_255_1_388
10
22.1586938
20
26.5214416
40
0.929284
50
169.5253055
51
180.2766048
0
ARC
8
DEFAULT_255_1_388
10
21.9446737
20
26.5608024
40
0.7116745
50
155.8314601
51
169.5088611
0
ARC
8
DEFAULT_255_1_388
10
21.80062
20
26.6276312
40
0.5528904
50
139.6259579
51
156.0379072
0
ARC
8
DEFAULT_255_1_388
10
21.7342733
20
26.6810143
40
0.4677708
50
122.6414784
51
139.3431662
0
ARC
8
DEFAULT_255_1_388
10
21.7455988
20
26.6603787
40
0.4912586
50
93.0224537
51
122.4556091
0
ARC
8
DEFAULT_255_1_388
10
21.7577509
20
26.5517776
40
0.6003837
50
89.9756766
51
93.6340839
0
ARC
8
DEFAULT_255_1_388
10
21.7621107
20
26.5966879
40
0.5554884
50
73.7463329
51
90.4234008
0
ARC
8
DEFAULT_255_1_388
10
21.781858
20
26.6731772
40
0.4765353
50
57.663051
51
73.4516911
0
ARC
8
DEFAULT_255_1_388
10
21.7809618
20
26.6756108
40
0.4749629
50
29.1441355
51
57.4146687
0
ARC
8
DEFAULT_255_1_388
10
21.6757429
20
26.6099046
40
0.5988917
50
24.0985653
51
29.732054
0
ARC
8
DEFAULT_255_1_388
10
21.5595061
20
26.5617154
40
0.7246823
50
8.6654943
51
23.8241215
0
ARC
8
DEFAULT_255_1_388
10
21.3081479
20
26.5207037
40
0.9793537
50
359.7807044
51
8.8218476
0
ARC
8
DEFAULT_255_1_388
10
21.1791184
20
26.5235731
40
0.9358078
50
359.7054632
51
8.0359751
0
ARC
8
DEFAULT_255_1_388
10
21.5166235
20
26.5727252
40
0.5947474
50
7.8926278
51
20.2962188
0
ARC
8
DEFAULT_255_1_388
10
21.6997085
20
26.6402367
40
0.3996117
50
20.3231056
51
36.4990255
0
ARC
8
DEFAULT_255_1_388
10
21.7768383
20
26.6996399
40
0.3022818
50
36.1436715
51
85.6627846
0
ARC
8
DEFAULT_255_1_388
10
21.7585638
20
26.5826881
40
0.4203853
50
84.3845912
51
90.076054
0
ARC
8
DEFAULT_255_1_388
10
21.7537993
20
26.6569416
40
0.346157
50
89.3037228
51
109.9046209
0
ARC
8
DEFAULT_255_1_388
10
21.7433826
20
26.6999379
40
0.3022217
50
110.8229774
51
143.917961
0
ARC
8
DEFAULT_255_1_388
10
21.8484185
20
26.6197455
40
0.434348
50
143.5289166
51
163.2980252
0
ARC
8
DEFAULT_255_1_388
10
22.0630472
20
26.5522685
40
0.659321
50
163.0418884
51
174.3139873
0
ARC
8
DEFAULT_255_1_388
10
22.3335437
20
26.5210378
40
0.9315905
50
174.050934
51
179.4174954
0
ARC
8
DEFAULT_255_1_388
10
22.2767381
20
26.4291382
40
0.8747493
50
179.6928582
51
188.7908948
0
ARC
8
DEFAULT_255_1_388
10
21.9771181
20
26.3812086
40
0.5713262
50
188.6328449
51
202.5630732
0
ARC
8
DEFAULT_255_1_388
10
21.8360018
20
26.3245142
40
0.4192612
50
202.8078931
51
216.1195888
0
ARC
8
DEFAULT_255_1_388
10
21.7449535
20
26.2512479
40
0.3025752
50
215.0755613
51
264.6379773
0
ARC
8
DEFAULT_255_1_388
10
21.7592372
20
26.3447376
40
0.3970284
50
263.8464302
51
270.0830805
0
ARC
8
DEFAULT_255_1_388
10
21.7638917
20
26.3156808
40
0.3679937
50
269.3649295
51
287.5149684
0
ARC
8
DEFAULT_255_1_388
10
21.7839358
20
26.2428714
40
0.2925408
50
288.0629019
51
323.8115617
0
ARC
8
DEFAULT_255_1_388
10
21.6859334
20
26.3159754
40
0.4148018
50
323.6546541
51
342.6591359
0
ARC
8
DEFAULT_255_1_388
10
21.4573992
20
26.390328
40
0.6551163
50
342.4092446
51
353.6451501
0
ARC
8
DEFAULT_255_1_388
10
21.1388785
20
26.4299565
40
0.9760748
50
353.4027553
51
359.4846611
0
LINE
8
DEFAULT_255_1_388
10
23.0537172
20
27.1404148
11
23.0537172
21
25.8185
0
LINE
8
DEFAULT_255_1_388
10
23.0537172
20
25.8185
11
22.8856542
21
25.8185
0
LINE
8
DEFAULT_255_1_388
10
22.8856542
20
25.8185
11
22.8856542
21
26.932595
0
LINE
8
DEFAULT_255_1_388
10
22.8856542
20
26.932595
11
22.5486247
21
26.8088066
0
LINE
8
DEFAULT_255_1_388
10
22.5486247
20
26.8088066
11
22.5486247
21
26.9606055
0
LINE
8
DEFAULT_255_1_388
10
22.5486247
20
26.9606055
11
23.0275139
21
27.1404148
0
LINE
8
DEFAULT_255_1_388
10
23.0275139
20
27.1404148
11
23.0537172
21
27.1404148
0
LINE
8
DEFAULT_255_1_388
10
24.0928164
20
27.1404148
11
24.0928164
21
25.8185
0
LINE
8
DEFAULT_255_1_388
10
24.0928164
20
25.8185
11
23.9247534
21
25.8185
0
LINE
8
DEFAULT_255_1_388
10
23.9247534
20
25.8185
11
23.9247534
21
26.932595
0
LINE
8
DEFAULT_255_1_388
10
23.9247534
20
26.932595
11
23.5877238
21
26.8088066
0
LINE
8
DEFAULT_255_1_388
10
23.5877238
20
26.8088066
11
23.5877238
21
26.9606055
0
LINE
8
DEFAULT_255_1_388
10
23.5877238
20
26.9606055
11
24.066613
21
27.1404148
0
LINE
8
DEFAULT_255_1_388
10
24.066613
20
27.1404148
11
24.0928164
21
27.1404148
0
LINE
8
DEFAULT_255_1_388
10
22.2800946
20
31.8086553
11
22.2800946
21
31.7255274
0
LINE
8
DEFAULT_255_1_388
10
21.2220206
20
31.7137811
11
21.2220206
21
31.8086553
0
LINE
8
DEFAULT_255_1_388
10
22.1075138
20
31.7128775
11
22.1075138
21
31.8104625
0
LINE
8
DEFAULT_255_1_388
10
21.3946014
20
31.8222088
11
21.3946014
21
31.7255274
0
ARC
8
DEFAULT_255_1_388
10
21.3078684
20
31.7210726
40
0.9722364
50
350.4878118
51
0.2625322
0
ARC
8
DEFAULT_255_1_388
10
21.5658644
20
31.6766994
40
0.7104556
50
336.0277991
51
350.5787241
0
ARC
8
DEFAULT_255_1_388
10
21.7171751
20
31.6083243
40
0.544417
50
319.887443
51
336.1331163
0
ARC
8
DEFAULT_255_1_388
10
21.7849563
20
31.5540733
40
0.4576311
50
302.4806296
51
319.6144102
0
ARC
8
DEFAULT_255_1_388
10
21.7720184
20
31.5790067
40
0.4856183
50
275.8196423
51
302.1885521
0
ARC
8
DEFAULT_255_1_388
10
21.7533046
20
31.7075466
40
0.6154183
50
269.9169897
51
276.339506
0
ARC
8
DEFAULT_255_1_388
10
21.7482646
20
31.630368
40
0.5382553
50
252.5221437
51
270.441579
0
ARC
8
DEFAULT_255_1_388
10
21.7320897
20
31.5697046
40
0.4755426
50
237.5349961
51
252.1858334
0
ARC
8
DEFAULT_255_1_388
10
21.7421273
20
31.582512
40
0.4917393
50
209.0632754
51
237.3492577
0
ARC
8
DEFAULT_255_1_388
10
21.8400599
20
31.6440104
40
0.6072464
50
205.118533
51
209.6465345
0
ARC
8
DEFAULT_255_1_388
10
21.9296601
20
31.6820174
40
0.7045164
50
188.7216633
51
204.8239753
0
ARC
8
DEFAULT_255_1_388
10
22.1543376
20
31.7198387
40
0.9323368
50
180.3722704
51
188.9253909
0
ARC
8
DEFAULT_255_1_388
10
22.1512938
20
31.8131416
40
0.929284
50
169.5253055
51
180.2766048
0
ARC
8
DEFAULT_255_1_388
10
21.9372737
20
31.8525024
40
0.7116745
50
155.8314601
51
169.5088611
0
ARC
8
DEFAULT_255_1_388
10
21.79322
20
31.9193312
40
0.5528904
50
139.6259579
51
156.0379072
0
ARC
8
DEFAULT_255_1_388
10
21.7268733
20
31.9727143
40
0.4677708
50
122.6414784
51
139.3431662
0
ARC
8
DEFAULT_255_1_388
10
21.7381988
20
31.9520787
40
0.4912586
50
93.0224537
51
122.4556091
0
ARC
8
DEFAULT_255_1_388
10
21.7503509
20
31.8434776
40
0.6003837
50
89.9756766
51
93.6340839
0
ARC
8
DEFAULT_255_1_388
10
21.7547107
20
31.8883879
40
0.5554884
50
73.7463329
51
90.4234008
0
ARC
8
DEFAULT_255_1_388
10
21.774458
20
31.9648772
40
0.4765353
50
57.663051
51
73.4516911
0
ARC
8
DEFAULT_255_1_388
10
21.7735618
20
31.9673108
40
0.4749629
50
29.1441355
51
57.4146687
0
ARC
8
DEFAULT_255_1_388
10
21.6683429
20
31.9016046
40
0.5988917
50
24.0985653
51
29.732054
0
ARC
8
DEFAULT_255_1_388
10
21.5521061
20
31.8534154
40
0.7246823
50
8.6654943
51
23.8241215
0
ARC
8
DEFAULT_255_1_388
10
21.3007479
20
31.8124037
40
0.9793537
50
359.7807044
51
8.8218476
0
ARC
8
DEFAULT_255_1_388
10
21.1717184
20
31.8152731
40
0.9358078
50
359.7054632
51
8.0359751
0
ARC
8
DEFAULT_255_1_388
10
21.5092235
20
31.8644252
40
0.5947474
50
7.8926278
51
20.2962188
0
ARC
8
DEFAULT_255_1_388
10
21.6923085
20
31.9319367
40
0.3996117
50
20.3231056
51
36.4990255
0
ARC
8
DEFAULT_255_1_388
10
21.7694383
20
31.9913399
40
0.3022818
50
36.1436715
51
85.6627846
0
ARC
8
DEFAULT_255_1_388
10
21.7511638
20
31.8743881
40
0.4203853
50
84.3845912
51
90.076054
0
ARC
8
DEFAULT_255_1_388
10
21.7463993
20
31.9486416
40
0.346157
50
89.3037228
51
109.9046209
0
ARC
8
DEFAULT_255_1_388
10
21.7359826
20
31.9916379
40
0.3022217
50
110.8229774
51
143.917961
0
ARC
8
DEFAULT_255_1_388
10
21.8410185
20
31.9114455
40
0.434348
50
143.5289166
51
163.2980252
0
ARC
8
DEFAULT_255_1_388
10
22.0556472
20
31.8439685
40
0.659321
50
163.0418884
51
174.3139873
0
ARC
8
DEFAULT_255_1_388
10
22.3261437
20
31.8127378
40
0.9315905
50
174.050934
51
179.4174954
0
ARC
8
DEFAULT_255_1_388
10
22.2693381
20
31.7208382
40
0.8747493
50
179.6928582
51
188.7908948
0
ARC
8
DEFAULT_255_1_388
10
21.9697181
20
31.6729086
40
0.5713262
50
188.6328449
51
202.5630732
0
ARC
8
DEFAULT_255_1_388
10
21.8286018
20
31.6162142
40
0.4192612
50
202.8078931
51
216.1195888
0
ARC
8
DEFAULT_255_1_388
10
21.7375535
20
31.5429479
40
0.3025752
50
215.0755613
51
264.6379773
0
ARC
8
DEFAULT_255_1_388
10
21.7518372
20
31.6364376
40
0.3970284
50
263.8464302
51
270.0830805
0
ARC
8
DEFAULT_255_1_388
10
21.7564917
20
31.6073808
40
0.3679937
50
269.3649295
51
287.5149684
0
ARC
8
DEFAULT_255_1_388
10
21.7765358
20
31.5345714
40
0.2925408
50
288.0629019
51
323.8115617
0
ARC
8
DEFAULT_255_1_388
10
21.6785334
20
31.6076754
40
0.4148018
50
323.6546541
51
342.6591359
0
ARC
8
DEFAULT_255_1_388
10
21.4499992
20
31.682028
40
0.6551163
50
342.4092446
51
353.6451501
0
ARC
8
DEFAULT_255_1_388
10
21.1314785
20
31.7216565
40
0.9760748
50
353.4027553
51
359.4846611
0
LINE
8
DEFAULT_255_1_388
10
23.0463172
20
32.4321148
11
23.0463172
21
31.1102
0
LINE
8
DEFAULT_255_1_388
10
23.0463172
20
31.1102
11
22.8782542
21
31.1102
0
LINE
8
DEFAULT_255_1_388
10
22.8782542
20
31.1102
11
22.8782542
21
32.224295
0
LINE
8
DEFAULT_255_1_388
10
22.8782542
20
32.224295
11
22.5412247
21
32.1005066
0
LINE
8
DEFAULT_255_1_388
10
22.5412247
20
32.1005066
11
22.5412247
21
32.2523055
0
LINE
8
DEFAULT_255_1_388
10
22.5412247
20
32.2523055
11
23.0201139
21
32.4321148
0
LINE
8
DEFAULT_255_1_388
10
23.0201139
20
32.4321148
11
23.0463172
21
32.4321148
0
LINE
8
DEFAULT_255_1_388
10
24.3610035
20
31.888169
11
24.3610035
21
31.6713135
0
LINE
8
DEFAULT_255_1_388
10
23.5306278
20
31.6487244
11
23.5306278
21
31.8719048
0
LINE
8
DEFAULT_255_1_388
10
24.1938441
20
31.6261353
11
24.1938441
21
31.8999153
0
LINE
8
DEFAULT_255_1_388
10
23.6977872
20
31.9125652
11
23.6977872
21
31.6451102
0
ARC
8
DEFAULT_255_1_388
10
22.9832369
20
31.6658118
40
1.3777776
50
353.8440855
51
0.2287917
0
ARC
8
DEFAULT_255_1_388
10
23.5051387
20
31.6075414
40
0.852639
50
344.4934746
51
353.9763743
0
ARC
8
DEFAULT_255_1_388
10
23.8418194
20
31.5118191
40
0.5026273
50
329.2803599
51
344.7473406
0
ARC
8
DEFAULT_255_1_388
10
23.9533689
20
31.4506038
40
0.3754848
50
324.9361395
51
328.6153007
0
ARC
8
DEFAULT_255_1_388
10
23.9959339
20
31.4208586
40
0.3235566
50
280.5801797
51
324.9173226
0
ARC
8
DEFAULT_255_1_388
10
23.9507968
20
31.6088236
40
0.5167077
50
269.5979457
51
281.6732777
0
ARC
8
DEFAULT_255_1_388
10
23.9426871
20
31.5953113
40
0.5032026
50
256.6228565
51
270.5105488
0
ARC
8
DEFAULT_255_1_388
10
23.8974614
20
31.4211345
40
0.3233092
50
215.8618351
51
257.2787793
0
ARC
8
DEFAULT_255_1_388
10
24.0123321
20
31.4982106
40
0.4615831
50
197.9695203
51
215.2622745
0
ARC
8
DEFAULT_255_1_388
10
24.2918997
20
31.5925641
40
0.7566307
50
187.8816486
51
198.2346584
0
ARC
8
DEFAULT_255_1_388
10
24.7372235
20
31.6568453
40
1.2065653
50
180.8977266
51
188.0054894
0
ARC
8
DEFAULT_255_1_388
10
25.0422449
20
31.66834
40
1.5117443
50
180.7434591
51
181.152202
0
ARC
8
DEFAULT_255_1_388
10
24.8747445
20
31.8773371
40
1.3441277
50
173.7674302
51
180.2315596
0
ARC
8
DEFAULT_255_1_388
10
24.3665314
20
31.9347779
40
0.8326847
50
164.3058537
51
173.9000553
0
ARC
8
DEFAULT_255_1_388
10
24.0389314
20
32.0291652
40
0.4917711
50
148.7922028
51
164.5682288
0
ARC
8
DEFAULT_255_1_388
10
23.9320051
20
32.0888457
40
0.3694204
50
144.5883979
51
148.1161588
0
ARC
8
DEFAULT_255_1_388
10
23.8932796
20
32.1158667
40
0.322202
50
101.6440149
51
144.5142619
0
ARC
8
DEFAULT_255_1_388
10
23.9410989
20
31.9258337
40
0.5180451
50
89.528284
51
102.5820197
0
ARC
8
DEFAULT_255_1_388
10
23.949998
20
31.9214376
40
0.5224441
50
77.0437914
51
90.508231
0
ARC
8
DEFAULT_255_1_388
10
23.9952234
20
32.1062272
40
0.3322297
50
48.2777708
51
77.4996087
0
ARC
8
DEFAULT_255_1_388
10
24.0033974
20
32.1207557
40
0.315966
50
36.3141586
51
47.6307332
0
ARC
8
DEFAULT_255_1_388
10
23.9056696
20
32.0549159
40
0.4337313
50
18.2931065
51
35.6770203
0
ARC
8
DEFAULT_255_1_388
10
23.6195537
20
31.9567107
40
0.7362203
50
8.0246996
51
18.5605636
0
ARC
8
DEFAULT_255_1_388
10
23.1511893
20
31.8875432
40
1.2096583
50
1.127539
51
8.1718423
0
ARC
8
DEFAULT_255_1_388
10
22.7863026
20
31.8732374
40
1.5747719
50
0.5432713
51
1.38669
0
ARC
8
DEFAULT_255_1_388
10
22.9920405
20
31.9039163
40
1.2018103
50
359.8092569
51
4.9408001
0
ARC
8
DEFAULT_255_1_388
10
23.4656986
20
31.94619
40
0.7262727
50
4.8364937
51
12.2906017
0
ARC
8
DEFAULT_255_1_388
10
23.7756451
20
32.0152485
40
0.4087324
50
12.0806994
51
23.8171225
0
ARC
8
DEFAULT_255_1_388
10
23.9076847
20
32.0711508
40
0.2653719
50
24.2874621
51
31.3934353
0
ARC
8
DEFAULT_255_1_388
10
23.9667283
20
32.1097822
40
0.1948607
50
30.7407708
51
82.4658033
0
ARC
8
DEFAULT_255_1_388
10
23.9464944
20
32.0104017
40
0.2961198
50
81.1057101
51
90.2187368
0
ARC
8
DEFAULT_255_1_388
10
23.9424755
20
32.0394421
40
0.2670929
50
89.380395
51
105.6763916
0
ARC
8
DEFAULT_255_1_388
10
23.9218477
20
32.114432
40
0.1893189
50
105.7980655
51
149.7387869
0
ARC
8
DEFAULT_255_1_388
10
24.0415617
20
32.0424719
40
0.3289892
50
149.4208441
51
163.628295
0
ARC
8
DEFAULT_255_1_388
10
24.2767847
20
31.9707345
40
0.5749004
50
163.3764549
51
172.141138
0
ARC
8
DEFAULT_255_1_388
10
24.6480569
20
31.9175582
40
0.9499585
50
172.0258462
51
178.0705453
0
ARC
8
DEFAULT_255_1_388
10
24.9902121
20
31.9013682
40
1.2924734
50
177.8639301
51
179.5036263
0
ARC
8
DEFAULT_255_1_388
10
24.868314
20
31.6410151
40
1.170534
50
179.7995545
51
185.246089
0
ARC
8
DEFAULT_255_1_388
10
24.4134733
20
31.5979404
40
0.7136613
50
185.1411911
51
193.0082205
0
ARC
8
DEFAULT_255_1_388
10
24.1160994
20
31.5276441
40
0.4080987
50
192.7897338
51
205.2507384
0
ARC
8
DEFAULT_255_1_388
10
23.9983204
20
31.4750538
40
0.2791522
50
205.8001921
51
211.2545876
0
ARC
8
DEFAULT_255_1_388
10
23.9394743
20
31.4356132
40
0.2084074
50
210.3789935
51
238.4007996
0
ARC
8
DEFAULT_255_1_388
10
23.9372829
20
31.4408786
40
0.2117943
50
239.6521916
51
265.9793852
0
ARC
8
DEFAULT_255_1_388
10
23.9468678
20
31.5165358
40
0.2879689
50
265.1324455
51
270.0603288
0
ARC
8
DEFAULT_255_1_388
10
23.9501055
20
31.4800418
40
0.2514919
50
269.3314378
51
287.2180039
0
ARC
8
DEFAULT_255_1_388
10
23.9656137
20
31.4234291
40
0.1928357
50
287.7957942
51
329.0808983
0
ARC
8
DEFAULT_255_1_388
10
23.8578894
20
31.4906651
40
0.319808
50
328.6635261
51
343.3325043
0
ARC
8
DEFAULT_255_1_388
10
23.6134353
20
31.5668195
40
0.5758408
50
343.0498092
51
351.9392499
0
ARC
8
DEFAULT_255_1_388
10
23.2233674
20
31.6243205
40
0.9701202
50
351.8071632
51
357.7957897
0
ARC
8
DEFAULT_255_1_388
10
22.8599151
20
31.6431724
40
1.3340376
50
357.5870923
51
359.2682493
0
LINE
8
DEFAULT_255_1_388
10
23.3209946
20
37.1003553
11
23.3209946
21
37.0172274
0
LINE
8
DEFAULT_255_1_388
10
22.2629206
20
37.0054811
11
22.2629206
21
37.1003553
0
LINE
8
DEFAULT_255_1_388
10
23.1484138
20
37.0045775
11
23.1484138
21
37.1021625
0
LINE
8
DEFAULT_255_1_388
10
22.4355014
20
37.1139088
11
22.4355014
21
37.0172274
0
ARC
8
DEFAULT_255_1_388
10
22.3487684
20
37.0127726
40
0.9722364
50
350.4878118
51
0.2625322
0
ARC
8
DEFAULT_255_1_388
10
22.6067644
20
36.9683994
40
0.7104556
50
336.0277991
51
350.5787241
0
ARC
8
DEFAULT_255_1_388
10
22.7580751
20
36.9000243
40
0.544417
50
319.887443
51
336.1331163
0
ARC
8
DEFAULT_255_1_388
10
22.8258563
20
36.8457733
40
0.4576311
50
302.4806296
51
319.6144102
0
ARC
8
DEFAULT_255_1_388
10
22.8129184
20
36.8707067
40
0.4856183
50
275.8196423
51
302.1885521
0
ARC
8
DEFAULT_255_1_388
10
22.7942046
20
36.9992466
40
0.6154183
50
269.9169897
51
276.339506
0
ARC
8
DEFAULT_255_1_388
10
22.7891646
20
36.922068
40
0.5382553
50
252.5221437
51
270.441579
0
ARC
8
DEFAULT_255_1_388
10
22.7729897
20
36.8614046
40
0.4755426
50
237.5349961
51
252.1858334
0
ARC
8
DEFAULT_255_1_388
10
22.7830273
20
36.874212
40
0.4917393
50
209.0632754
51
237.3492577
0
ARC
8
DEFAULT_255_1_388
10
22.8809599
20
36.9357104
40
0.6072464
50
205.118533
51
209.6465345
0
ARC
8
DEFAULT_255_1_388
10
22.9705601
20
36.9737174
40
0.7045164
50
188.7216633
51
204.8239753
0
ARC
8
DEFAULT_255_1_388
10
23.1952376
20
37.0115387
40
0.9323368
50
180.3722704
51
188.9253909
0
ARC
8
DEFAULT_255_1_388
10
23.1921938
20
37.1048416
40
0.929284
50
169.5253055
51
180.2766048
0
ARC
8
DEFAULT_255_1_388
10
22.9781737
20
37.1442024
40
0.7116745
50
155.8314601
51
169.5088611
0
ARC
8
DEFAULT_255_1_388
10
22.83412
20
37.2110312
40
0.5528904
50
139.6259579
51
156.0379072
0
ARC
8
DEFAULT_255_1_388
10
22.7677733
20
37.2644143
40
0.4677708
50
122.6414784
51
139.3431662
0
ARC
8
DEFAULT_255_1_388
10
22.7790988
20
37.2437787
40
0.4912586
50
93.0224537
51
122.4556091
0
ARC
8
DEFAULT_255_1_388
10
22.7912509
20
37.1351776
40
0.6003837
50
89.9756766
51
93.6340839
0
ARC
8
DEFAULT_255_1_388
10
22.7956107
20
37.1800879
40
0.5554884
50
73.7463329
51
90.4234008
0
ARC
8
DEFAULT_255_1_388
10
22.815358
20
37.2565772
40
0.4765353
50
57.663051
51
73.4516911
0
ARC
8
DEFAULT_255_1_388
10
22.8144618
20
37.2590108
40
0.4749629
50
29.1441355
51
57.4146687
0
ARC
8
DEFAULT_255_1_388
10
22.7092429
20
37.1933046
40
0.5988917
50
24.0985653
51
29.732054
0
ARC
8
DEFAULT_255_1_388
10
22.5930061
20
37.1451154
40
0.7246823
50
8.6654943
51
23.8241215
0
ARC
8
DEFAULT_255_1_388
10
22.3416479
20
37.1041037
40
0.9793537
50
359.7807044
51
8.8218476
0
ARC
8
DEFAULT_255_1_388
10
22.2126184
20
37.1069731
40
0.9358078
50
359.7054632
51
8.0359751
0
ARC
8
DEFAULT_255_1_388
10
22.5501235
20
37.1561252
40
0.5947474
50
7.8926278
51
20.2962188
0
ARC
8
DEFAULT_255_1_388
10
22.7332085
20
37.2236367
40
0.3996117
50
20.3231056
51
36.4990255
0
ARC
8
DEFAULT_255_1_388
10
22.8103383
20
37.2830399
40
0.3022818
50
36.1436715
51
85.6627846
0
ARC
8
DEFAULT_255_1_388
10
22.7920638
20
37.1660881
40
0.4203853
50
84.3845912
51
90.076054
0
ARC
8
DEFAULT_255_1_388
10
22.7872993
20
37.2403416
40
0.346157
50
89.3037228
51
109.9046209
0
ARC
8
DEFAULT_255_1_388
10
22.7768826
20
37.2833379
40
0.3022217
50
110.8229774
51
143.917961
0
ARC
8
DEFAULT_255_1_388
10
22.8819185
20
37.2031455
40
0.434348
50
143.5289166
51
163.2980252
0
ARC
8
DEFAULT_255_1_388
10
23.0965472
20
37.1356685
40
0.659321
50
163.0418884
51
174.3139873
0
ARC
8
DEFAULT_255_1_388
10
23.3670437
20
37.1044378
40
0.9315905
50
174.050934
51
179.4174954
0
ARC
8
DEFAULT_255_1_388
10
23.3102381
20
37.0125382
40
0.8747493
50
179.6928582
51
188.7908948
0
ARC
8
DEFAULT_255_1_388
10
23.0106181
20
36.9646086
40
0.5713262
50
188.6328449
51
202.5630732
0
ARC
8
DEFAULT_255_1_388
10
22.8695018
20
36.9079142
40
0.4192612
50
202.8078931
51
216.1195888
0
ARC
8
DEFAULT_255_1_388
10
22.7784535
20
36.8346479
40
0.3025752
50
215.0755613
51
264.6379773
0
ARC
8
DEFAULT_255_1_388
10
22.7927372
20
36.9281376
40
0.3970284
50
263.8464302
51
270.0830805
0
ARC
8
DEFAULT_255_1_388
10
22.7973917
20
36.8990808
40
0.3679937
50
269.3649295
51
287.5149684
0
ARC
8
DEFAULT_255_1_388
10
22.8174358
20
36.8262714
40
0.2925408
50
288.0629019
51
323.8115617
0
ARC
8
DEFAULT_255_1_388
10
22.7194334
20
36.8993754
40
0.4148018
50
323.6546541
51
342.6591359
0
ARC
8
DEFAULT_255_1_388
10
22.4908992
20
36.973728
40
0.6551163
50
342.4092446
51
353.6451501
0
ARC
8
DEFAULT_255_1_388
10
22.1723785
20
37.0133565
40
0.9760748
50
353.4027553
51
359.4846611
0
LINE
8
DEFAULT_255_1_388
10
24.3465402
20
37.1916153
11
24.3465402
21
37.1428229
0
LINE
8
DEFAULT_255_1_388
10
23.7366342
20
36.4009964
11
23.7041059
21
36.4009964
0
LINE
8
DEFAULT_255_1_388
10
23.7041059
20
36.4009964
11
23.7041059
21
36.5419525
0
LINE
8
DEFAULT_255_1_388
10
23.7041059
20
36.5419525
11
23.7393449
21
36.5419525
0
LINE
8
DEFAULT_255_1_388
10
24.1793808
20
37.159087
11
24.1793808
21
37.2259508
0
ARC
8
DEFAULT_255_1_388
10
23.86509
20
37.2429877
40
0.4089973
50
297.4036461
51
320.0168133
0
ARC
8
DEFAULT_255_1_388
10
23.897708
20
37.1803072
40
0.3383378
50
270.2631886
51
297.3852322
0
ARC
8
DEFAULT_255_1_388
10
23.8938756
20
37.2340343
40
0.3920983
50
269.9969069
51
270.7871389
0
ARC
8
DEFAULT_255_1_388
10
23.891008
20
37.2322737
40
0.3903482
50
254.5997295
51
270.4178147
0
ARC
8
DEFAULT_255_1_388
10
23.8749611
20
37.1687693
40
0.3248657
50
236.4717231
51
254.3539376
0
ARC
8
DEFAULT_255_1_388
10
23.8925343
20
37.1923999
40
0.3542746
50
208.4727261
51
236.2134628
0
ARC
8
DEFAULT_255_1_388
10
23.9644106
20
37.2363676
40
0.4384402
50
204.3450776
51
209.0455365
0
ARC
8
DEFAULT_255_1_388
10
24.0408482
20
37.26878
40
0.5214459
50
183.9375459
51
204.1275509
0
ARC
8
DEFAULT_255_1_388
10
24.1430788
20
37.2797863
40
0.6242037
50
179.9652726
51
184.3010611
0
ARC
8
DEFAULT_255_1_388
10
24.1160334
20
37.2835004
40
0.5971675
50
166.7585952
51
180.3200491
0
ARC
8
DEFAULT_255_1_388
10
24.0208142
20
37.3041979
40
0.4997418
50
154.6954866
51
166.5679151
0
ARC
8
DEFAULT_255_1_388
10
23.9248382
20
37.3525411
40
0.3923208
50
136.3325251
51
155.0871367
0
ARC
8
DEFAULT_255_1_388
10
23.8932301
20
37.3796271
40
0.3507618
50
121.2365985
51
135.9680081
0
ARC
8
DEFAULT_255_1_388
10
23.9090366
20
37.3503541
40
0.3839917
50
96.8454764
51
120.9881329
0
ARC
8
DEFAULT_255_1_388
10
23.9254172
20
37.2450942
40
0.4904679
50
89.887204
51
97.2797758
0
ARC
8
DEFAULT_255_1_388
10
23.9313145
20
37.3168652
40
0.418725
50
70.6505767
51
90.6748382
0
ARC
8
DEFAULT_255_1_388
10
23.9460842
20
37.3746091
40
0.3593866
50
36.7493297
51
69.8220487
0
ARC
8
DEFAULT_255_1_388
10
23.8337189
20
37.2870446
40
0.5018201
50
15.3958155
51
37.0841102
0
ARC
8
DEFAULT_255_1_388
10
23.5941473
20
37.2172111
40
0.7513436
50
3.9487796
51
15.6798517
0
ARC
8
DEFAULT_255_1_388
10
23.3240115
20
37.192881
40
1.0225293
50
359.9290791
51
4.266464
0
ARC
8
DEFAULT_255_1_388
10
22.8059033
20
37.1353372
40
1.5406551
50
352.8365702
51
0.2783851
0
ARC
8
DEFAULT_255_1_388
10
23.4007263
20
37.0580664
40
0.9408425
50
341.8359339
51
352.9884057
0
ARC
8
DEFAULT_255_1_388
10
23.7628251
20
36.9360144
40
0.5587481
50
322.8579243
51
342.1527461
0
ARC
8
DEFAULT_255_1_388
10
23.8599943
20
36.869735
40
0.4413099
50
319.3348471
51
322.100194
0
ARC
8
DEFAULT_255_1_388
10
23.8251874
20
36.9046814
40
0.4904992
50
285.954114
51
318.8878716
0
ARC
8
DEFAULT_255_1_388
10
23.7434311
20
37.1645865
40
0.7628991
50
272.9280841
51
286.4924389
0
ARC
8
DEFAULT_255_1_388
10
23.7220616
20
37.418024
40
1.017132
50
270.8209173
51
273.4010121
0
ARC
8
DEFAULT_255_1_388
10
23.7320639
20
37.2132073
40
0.6712943
50
270.6214576
51
281.4062333
0
ARC
8
DEFAULT_255_1_388
10
23.7804363
20
36.981925
40
0.4350167
50
281.1852583
51
299.0622058
0
ARC
8
DEFAULT_255_1_388
10
23.8224608
20
36.9008138
40
0.3437146
50
299.5068171
51
313.1200142
0
ARC
8
DEFAULT_255_1_388
10
23.8249346
20
36.8918959
40
0.3355418
50
313.8525725
51
338.5989631
0
ARC
8
DEFAULT_255_1_388
10
23.6422474
20
36.9669576
40
0.5330317
50
338.2523315
51
351.2431701
0
ARC
8
DEFAULT_255_1_388
10
23.3710225
20
37.0130494
40
0.8081235
50
350.940933
51
357.6690137
0
ARC
8
DEFAULT_255_1_388
10
23.9212105
20
37.2383048
40
0.2581236
50
269.9447107
51
306.8249644
0
ARC
8
DEFAULT_255_1_388
10
23.8945406
20
37.285906
40
0.3122948
50
305.5071046
51
327.0773808
0
ARC
8
DEFAULT_255_1_388
10
23.9078458
20
37.2752445
40
0.2953369
50
327.4106457
51
336.8396801
0
ARC
8
DEFAULT_255_1_388
10
23.5598172
20
37.2295932
40
0.6195743
50
359.663158
51
10.1176387
0
ARC
8
DEFAULT_255_1_388
10
23.7570935
20
37.2660922
40
0.4189561
50
9.9431549
51
26.7699242
0
ARC
8
DEFAULT_255_1_388
10
23.8242921
20
37.2970796
40
0.3450125
50
27.2018067
51
34.6833639
0
ARC
8
DEFAULT_255_1_388
10
23.8793534
20
37.338456
40
0.2762035
50
34.124913
51
50.30709
0
ARC
8
DEFAULT_255_1_388
10
23.9296016
20
37.3985741
40
0.1978518
50
50.3850304
51
90.6705051
0
ARC
8
DEFAULT_255_1_388
10
23.924341
20
37.3643074
40
0.2321235
50
89.2729817
51
111.9140267
0
ARC
8
DEFAULT_255_1_388
10
23.9221498
20
37.3801308
40
0.2166604
50
112.9381864
51
142.5320936
0
ARC
8
DEFAULT_255_1_388
10
23.9835987
20
37.3302392
40
0.2957902
50
142.1024021
51
166.3835244
0
ARC
8
DEFAULT_255_1_388
10
24.1164956
20
37.2959213
40
0.4330361
50
166.1100968
51
178.6653563
0
ARC
8
DEFAULT_255_1_388
10
24.2346882
20
37.2893061
40
0.5513642
50
178.2641888
51
180.010994
0
ARC
8
DEFAULT_255_1_388
10
24.1441384
20
37.2861136
40
0.4608248
50
179.6162225
51
191.8786013
0
ARC
8
DEFAULT_255_1_388
10
24.0068693
20
37.255759
40
0.3202502
50
191.6192934
51
215.2970746
0
ARC
8
DEFAULT_255_1_388
10
23.9829349
20
37.2414963
40
0.2924827
50
215.7258926
51
216.5355437
0
ARC
8
DEFAULT_255_1_388
10
23.9240969
20
37.1941919
40
0.2170661
50
215.7486606
51
239.9728403
0
ARC
8
DEFAULT_255_1_388
10
23.9162135
20
37.1884838
40
0.208217
50
241.065081
51
269.280972
0
ARC
8
DEFAULT_255_1_388
10
23.9209293
20
37.2440327
40
0.2638514
50
268.4083352
51
270.0069622
0
LINE
8
DEFAULT_255_1_388
10
23.3209946
20
42.3919553
11
23.3209946
21
42.3088274
0
LINE
8
DEFAULT_255_1_388
10
22.2629206
20
42.2970811
11
22.2629206
21
42.3919553
0
LINE
8
DEFAULT_255_1_388
10
23.1484138
20
42.2961775
11
23.1484138
21
42.3937625
0
LINE
8
DEFAULT_255_1_388
10
22.4355014
20
42.4055088
11
22.4355014
21
42.3088274
0
ARC
8
DEFAULT_255_1_388
10
22.3487684
20
42.3043726
40
0.9722364
50
350.4878118
51
0.2625322
0
ARC
8
DEFAULT_255_1_388
10
22.6067644
20
42.2599994
40
0.7104556
50
336.0277991
51
350.5787241
0
ARC
8
DEFAULT_255_1_388
10
22.7580751
20
42.1916243
40
0.544417
50
319.887443
51
336.1331163
0
ARC
8
DEFAULT_255_1_388
10
22.8258563
20
42.1373733
40
0.4576311
50
302.4806296
51
319.6144102
0
ARC
8
DEFAULT_255_1_388
10
22.8129184
20
42.1623067
40
0.4856183
50
275.8196423
51
302.1885521
0
ARC
8
DEFAULT_255_1_388
10
22.7942046
20
42.2908466
40
0.6154183
50
269.9169897
51
276.339506
0
ARC
8
DEFAULT_255_1_388
10
22.7891646
20
42.213668
40
0.5382553
50
252.5221437
51
270.441579
0
ARC
8
DEFAULT_255_1_388
10
22.7729897
20
42.1530046
40
0.4755426
50
237.5349961
51
252.1858334
0
ARC
8
DEFAULT_255_1_388
10
22.7830273
20
42.165812
40
0.4917393
50
209.0632754
51
237.3492577
0
ARC
8
DEFAULT_255_1_388
10
22.8809599
20
42.2273104
40
0.6072464
50
205.118533
51
209.6465345
0
ARC
8
DEFAULT_255_1_388
10
22.9705601
20
42.2653174
40
0.7045164
50
188.7216633
51
204.8239753
0
ARC
8
DEFAULT_255_1_388
10
23.1952376
20
42.3031387
40
0.9323368
50
180.3722704
51
188.9253909
0
ARC
8
DEFAULT_255_1_388
10
23.1921938
20
42.3964416
40
0.929284
50
169.5253055
51
180.2766048
0
ARC
8
DEFAULT_255_1_388
10
22.9781737
20
42.4358024
40
0.7116745
50
155.8314601
51
169.5088611
0
ARC
8
DEFAULT_255_1_388
10
22.83412
20
42.5026312
40
0.5528904
50
139.6259579
51
156.0379072
0
ARC
8
DEFAULT_255_1_388
10
22.7677733
20
42.5560143
40
0.4677708
50
122.6414784
51
139.3431662
0
ARC
8
DEFAULT_255_1_388
10
22.7790988
20
42.5353787
40
0.4912586
50
93.0224537
51
122.4556091
0
ARC
8
DEFAULT_255_1_388
10
22.7912509
20
42.4267776
40
0.6003837
50
89.9756766
51
93.6340839
0
ARC
8
DEFAULT_255_1_388
10
22.7956107
20
42.4716879
40
0.5554884
50
73.7463329
51
90.4234008
0
ARC
8
DEFAULT_255_1_388
10
22.815358
20
42.5481772
40
0.4765353
50
57.663051
51
73.4516911
0
ARC
8
DEFAULT_255_1_388
10
22.8144618
20
42.5506108
40
0.4749629
50
29.1441355
51
57.4146687
0
ARC
8
DEFAULT_255_1_388
10
22.7092429
20
42.4849046
40
0.5988917
50
24.0985653
51
29.732054
0
ARC
8
DEFAULT_255_1_388
10
22.5930061
20
42.4367154
40
0.7246823
50
8.6654943
51
23.8241215
0
ARC
8
DEFAULT_255_1_388
10
22.3416479
20
42.3957037
40
0.9793537
50
359.7807044
51
8.8218476
0
ARC
8
DEFAULT_255_1_388
10
22.2126184
20
42.3985731
40
0.9358078
50
359.7054632
51
8.0359751
0
ARC
8
DEFAULT_255_1_388
10
22.5501235
20
42.4477252
40
0.5947474
50
7.8926278
51
20.2962188
0
ARC
8
DEFAULT_255_1_388
10
22.7332085
20
42.5152367
40
0.3996117
50
20.3231056
51
36.4990255
0
ARC
8
DEFAULT_255_1_388
10
22.8103383
20
42.5746399
40
0.3022818
50
36.1436715
51
85.6627846
0
ARC
8
DEFAULT_255_1_388
10
22.7920638
20
42.4576881
40
0.4203853
50
84.3845912
51
90.076054
0
ARC
8
DEFAULT_255_1_388
10
22.7872993
20
42.5319416
40
0.346157
50
89.3037228
51
109.9046209
0
ARC
8
DEFAULT_255_1_388
10
22.7768826
20
42.5749379
40
0.3022217
50
110.8229774
51
143.917961
0
ARC
8
DEFAULT_255_1_388
10
22.8819185
20
42.4947455
40
0.434348
50
143.5289166
51
163.2980252
0
ARC
8
DEFAULT_255_1_388
10
23.0965472
20
42.4272685
40
0.659321
50
163.0418884
51
174.3139873
0
ARC
8
DEFAULT_255_1_388
10
23.3670437
20
42.3960378
40
0.9315905
50
174.050934
51
179.4174954
0
ARC
8
DEFAULT_255_1_388
10
23.3102381
20
42.3041382
40
0.8747493
50
179.6928582
51
188.7908948
0
ARC
8
DEFAULT_255_1_388
10
23.0106181
20
42.2562086
40
0.5713262
50
188.6328449
51
202.5630732
0
ARC
8
DEFAULT_255_1_388
10
22.8695018
20
42.1995142
40
0.4192612
50
202.8078931
51
216.1195888
0
ARC
8
DEFAULT_255_1_388
10
22.7784535
20
42.1262479
40
0.3025752
50
215.0755613
51
264.6379773
0
ARC
8
DEFAULT_255_1_388
10
22.7927372
20
42.2197376
40
0.3970284
50
263.8464302
51
270.0830805
0
ARC
8
DEFAULT_255_1_388
10
22.7973917
20
42.1906808
40
0.3679937
50
269.3649295
51
287.5149684
0
ARC
8
DEFAULT_255_1_388
10
22.8174358
20
42.1178714
40
0.2925408
50
288.0629019
51
323.8115617
0
ARC
8
DEFAULT_255_1_388
10
22.7194334
20
42.1909754
40
0.4148018
50
323.6546541
51
342.6591359
0
ARC
8
DEFAULT_255_1_388
10
22.4908992
20
42.265328
40
0.6551163
50
342.4092446
51
353.6451501
0
ARC
8
DEFAULT_255_1_388
10
22.1723785
20
42.3049565
40
0.9760748
50
353.4027553
51
359.4846611
0
ARC
8
DEFAULT_255_1_388
10
24.0182006
20
42.662872
40
0.3175098
50
338.8762533
51
0.5167111
0
ARC
8
DEFAULT_255_1_388
10
24.03716
20
42.65776
40
0.2979894
50
325.8415285
51
338.4793574
0
ARC
8
DEFAULT_255_1_388
10
23.9932233
20
42.6882242
40
0.351452
50
296.7587686
51
325.7536481
0
ARC
8
DEFAULT_255_1_388
10
23.9603861
20
42.7436363
40
0.4157374
50
296.0927901
51
297.3613472
0
ARC
8
DEFAULT_255_1_388
10
23.9898056
20
42.0053593
40
0.395855
50
47.9007294
51
67.1948823
0
ARC
8
DEFAULT_255_1_388
10
24.0118698
20
42.0330599
40
0.360516
50
35.2363914
51
47.551141
0
ARC
8
DEFAULT_255_1_388
10
24.0413102
20
42.0527093
40
0.3251343
50
359.2759765
51
35.4014143
0
ARC
8
DEFAULT_255_1_388
10
23.9575029
20
42.0444787
40
0.4089365
50
343.1293083
51
0.5775513
0
ARC
8
DEFAULT_255_1_388
10
24.0390142
20
42.0220336
40
0.3244269
50
310.8496669
51
342.7449331
0
ARC
8
DEFAULT_255_1_388
10
23.9920017
20
42.0756913
40
0.3957651
50
281.5472888
51
310.9170406
0
ARC
8
DEFAULT_255_1_388
10
23.9518891
20
42.2503814
40
0.5749654
50
269.619248
51
281.9789564
0
ARC
8
DEFAULT_255_1_388
10
23.9437669
20
42.2504776
40
0.5750649
50
257.4585678
51
270.4285689
0
ARC
8
DEFAULT_255_1_388
10
23.9009189
20
42.0700741
40
0.389671
50
228.7554326
51
257.8484789
0
ARC
8
DEFAULT_255_1_388
10
23.8660675
20
42.0281228
40
0.335154
50
184.0104975
51
228.5071184
0
ARC
8
DEFAULT_255_1_388
10
23.9969067
20
42.048043
40
0.4671891
50
179.9315832
51
185.3253753
0
ARC
8
DEFAULT_255_1_388
10
23.864558
20
42.0522592
40
0.33486
50
145.6796023
51
180.6259786
0
ARC
8
DEFAULT_255_1_388
10
23.8829346
20
42.0394271
40
0.3572723
50
115.5537685
51
145.6415986
0
ARC
8
DEFAULT_255_1_388
10
23.921239
20
41.9708087
40
0.4357296
50
113.243307
51
116.2057839
0
ARC
8
DEFAULT_255_1_388
10
23.9041041
20
42.6905379
40
0.3549126
50
222.9549744
51
244.1370481
0
ARC
8
DEFAULT_255_1_388
10
23.8903685
20
42.6751378
40
0.3343711
50
213.3436887
51
222.6274467
0
ARC
8
DEFAULT_255_1_388
10
23.8687754
20
42.6604653
40
0.3082678
50
180.431584
51
213.271499
0
ARC
8
DEFAULT_255_1_388
10
23.9322753
20
42.6657296
40
0.3718363
50
179.9991191
51
181.1690594
0
ARC
8
DEFAULT_255_1_388
10
23.9795209
20
42.6696072
40
0.4190996
50
164.6186169
51
180.529336
0
ARC
8
DEFAULT_255_1_388
10
23.8784858
20
42.696778
40
0.3144772
50
132.2455553
51
164.5090724
0
ARC
8
DEFAULT_255_1_388
10
23.9107836
20
42.660207
40
0.3632644
50
100.7053914
51
132.1386381
0
ARC
8
DEFAULT_255_1_388
10
23.9450897
20
42.5052118
40
0.5219578
50
89.6730358
51
101.2451698
0
ARC
8
DEFAULT_255_1_388
10
23.9520888
20
42.5248648
40
0.5023124
50
76.287748
51
90.4586006
0
ARC
8
DEFAULT_255_1_388
10
23.986539
20
42.6623671
40
0.3605639
50
47.8240511
51
76.4266241
0
ARC
8
DEFAULT_255_1_388
10
24.0115775
20
42.6916599
40
0.3220463
50
6.9168387
51
47.6262497
0
ARC
8
DEFAULT_255_1_388
10
23.8781228
20
42.6670004
40
0.4575765
50
359.8415968
51
7.9697453
0
ARC
8
DEFAULT_255_1_388
10
23.9165497
20
42.0549519
40
0.2827228
50
359.445363
51
16.9256873
0
ARC
8
DEFAULT_255_1_388
10
23.9692931
20
42.0694781
40
0.2280396
50
17.2920767
51
45.4630727
0
ARC
8
DEFAULT_255_1_388
10
23.9632067
20
42.0642324
40
0.2360485
50
45.30305
51
83.1920945
0
ARC
8
DEFAULT_255_1_388
10
23.9470811
20
41.9740473
40
0.3275527
50
82.2612665
51
90.1434275
0
ARC
8
DEFAULT_255_1_388
10
23.9436088
20
42.0002869
40
0.3013237
50
89.4956434
51
104.8580688
0
ARC
8
DEFAULT_255_1_388
10
23.9237277
20
42.0756455
40
0.2233867
50
104.8856641
51
135.244616
0
ARC
8
DEFAULT_255_1_388
10
23.9293266
20
42.0706352
40
0.2308906
50
135.3399546
51
172.1044062
0
ARC
8
DEFAULT_255_1_388
10
24.0200791
20
42.0532667
40
0.3232034
50
171.2645637
51
180.186429
0
ARC
8
DEFAULT_255_1_388
10
24.0010795
20
42.0496426
40
0.304213
50
179.5154935
51
193.6464289
0
ARC
8
DEFAULT_255_1_388
10
23.9092471
20
42.0262473
40
0.209456
50
193.3540274
51
225.8258581
0
ARC
8
DEFAULT_255_1_388
10
23.9138343
20
42.0342076
40
0.2183738
50
226.4180634
51
255.8552336
0
ARC
8
DEFAULT_255_1_388
10
23.942681
20
42.1395521
40
0.3275812
50
255.4654104
51
268.7987425
0
ARC
8
DEFAULT_255_1_388
10
23.9479987
20
42.2337545
40
0.4218877
50
268.3449238
51
270.0094605
0
ARC
8
DEFAULT_255_1_388
10
23.950622
20
42.1569094
40
0.3450519
50
269.5759586
51
282.0820163
0
ARC
8
DEFAULT_255_1_388
10
23.9759256
20
42.0450363
40
0.2303642
50
281.752014
51
306.6056188
0
ARC
8
DEFAULT_255_1_388
10
23.9870064
20
42.0268802
40
0.2091906
50
307.1346085
51
314.027845
0
ARC
8
DEFAULT_255_1_388
10
23.9829576
20
42.0298459
40
0.2141385
50
314.2552483
51
350.1694025
0
ARC
8
DEFAULT_255_1_388
10
23.8871813
20
42.0506175
40
0.312082
50
349.4140529
51
0.2933014
0
ARC
8
DEFAULT_255_1_388
10
23.945709
20
42.6309924
40
0.2588377
50
89.477747
51
105.729729
0
ARC
8
DEFAULT_255_1_388
10
23.930401
20
42.6878367
40
0.1999733
50
105.9233417
51
135.1660906
0
ARC
8
DEFAULT_255_1_388
10
23.9327041
20
42.6862412
40
0.2027322
50
135.3052302
51
168.9883645
0
ARC
8
DEFAULT_255_1_388
10
24.0258057
20
42.6648996
40
0.2982129
50
168.3801673
51
180.3602268
0
ARC
8
DEFAULT_255_1_388
10
24.0001174
20
42.6606622
40
0.2725291
50
179.5033122
51
194.9125571
0
ARC
8
DEFAULT_255_1_388
10
23.9342581
20
42.6433427
40
0.204431
50
194.9720816
51
224.194444
0
ARC
8
DEFAULT_255_1_388
10
23.9310946
20
42.6407635
40
0.2003651
50
224.2962453
51
262.015664
0
ARC
8
DEFAULT_255_1_388
10
23.947095
20
42.7230315
40
0.2840925
50
261.1245923
51
270.1962896
0
ARC
8
DEFAULT_255_1_388
10
23.9504432
20
42.7019859
40
0.2630559
50
269.4827276
51
285.0987215
0
ARC
8
DEFAULT_255_1_388
10
23.9677868
20
42.6369175
40
0.1957162
50
285.1585357
51
315.9484501
0
ARC
8
DEFAULT_255_1_388
10
23.9577741
20
42.6461315
40
0.2093195
50
316.0413965
51
351.916092
0
ARC
8
DEFAULT_255_1_388
10
23.8753116
20
42.6620323
40
0.2932279
50
351.105835
51
0.1939062
0
ARC
8
DEFAULT_255_1_388
10
23.904875
20
42.6654224
40
0.2636739
50
359.4789618
51
16.0678224
0
ARC
8
DEFAULT_255_1_388
10
23.9584222
20
42.6798721
40
0.2082215
50
16.3252067
51
44.7913869
0
ARC
8
DEFAULT_255_1_388
10
23.9564284
20
42.679932
40
0.2095992
50
44.3957814
51
88.2499162
0
ARC
8
DEFAULT_255_1_388
10
23.9481618
20
42.6111006
40
0.2787189
50
86.9833854
51
90.0192215
0
LINE
8
DEFAULT_255_1_388
10
23.3209946
20
47.6836553
11
23.3209946
21
47.6005274
0
LINE
8
DEFAULT_255_1_388
10
22.2629206
20
47.5887811
11
22.2629206
21
47.6836553
0
LINE
8
DEFAULT_255_1_388
10
23.1484138
20
47.5878775
11
23.1484138
21
47.6854625
0
LINE
8
DEFAULT_255_1_388
10
22.4355014
20
47.6972088
11
22.4355014
21
47.6005274
0
ARC
8
DEFAULT_255_1_388
10
22.3487684
20
47.5960726
40
0.9722364
50
350.4878118
51
0.2625322
0
ARC
8
DEFAULT_255_1_388
10
22.6067644
20
47.5516994
40
0.7104556
50
336.0277991
51
350.5787241
0
ARC
8
DEFAULT_255_1_388
10
22.7580751
20
47.4833243
40
0.544417
50
319.887443
51
336.1331163
0
ARC
8
DEFAULT_255_1_388
10
22.8258563
20
47.4290733
40
0.4576311
50
302.4806296
51
319.6144102
0
ARC
8
DEFAULT_255_1_388
10
22.8129184
20
47.4540067
40
0.4856183
50
275.8196423
51
302.1885521
0
ARC
8
DEFAULT_255_1_388
10
22.7942046
20
47.5825466
40
0.6154183
50
269.9169897
51
276.339506
0
ARC
8
DEFAULT_255_1_388
10
22.7891646
20
47.505368
40
0.5382553
50
252.5221437
51
270.441579
0
ARC
8
DEFAULT_255_1_388
10
22.7729897
20
47.4447046
40
0.4755426
50
237.5349961
51
252.1858334
0
ARC
8
DEFAULT_255_1_388
10
22.7830273
20
47.457512
40
0.4917393
50
209.0632754
51
237.3492577
0
ARC
8
DEFAULT_255_1_388
10
22.8809599
20
47.5190104
40
0.6072464
50
205.118533
51
209.6465345
0
ARC
8
DEFAULT_255_1_388
10
22.9705601
20
47.5570174
40
0.7045164
50
188.7216633
51
204.8239753
0
ARC
8
DEFAULT_255_1_388
10
23.1952376
20
47.5948387
40
0.9323368
50
180.3722704
51
188.9253909
0
ARC
8
DEFAULT_255_1_388
10
23.1921938
20
47.6881416
40
0.929284
50
169.5253055
51
180.2766048
0
ARC
8
DEFAULT_255_1_388
10
22.9781737
20
47.7275024
40
0.7116745
50
155.8314601
51
169.5088611
0
ARC
8
DEFAULT_255_1_388
10
22.83412
20
47.7943312
40
0.5528904
50
139.6259579
51
156.0379072
0
ARC
8
DEFAULT_255_1_388
10
22.7677733
20
47.8477143
40
0.4677708
50
122.6414784
51
139.3431662
0
ARC
8
DEFAULT_255_1_388
10
22.7790988
20
47.8270787
40
0.4912586
50
93.0224537
51
122.4556091
0
ARC
8
DEFAULT_255_1_388
10
22.7912509
20
47.7184776
40
0.6003837
50
89.9756766
51
93.6340839
0
ARC
8
DEFAULT_255_1_388
10
22.7956107
20
47.7633879
40
0.5554884
50
73.7463329
51
90.4234008
0
ARC
8
DEFAULT_255_1_388
10
22.815358
20
47.8398772
40
0.4765353
50
57.663051
51
73.4516911
0
ARC
8
DEFAULT_255_1_388
10
22.8144618
20
47.8423108
40
0.4749629
50
29.1441355
51
57.4146687
0
ARC
8
DEFAULT_255_1_388
10
22.7092429
20
47.7766046
40
0.5988917
50
24.0985653
51
29.732054
0
ARC
8
DEFAULT_255_1_388
10
22.5930061
20
47.7284154
40
0.7246823
50
8.6654943
51
23.8241215
0
ARC
8
DEFAULT_255_1_388
10
22.3416479
20
47.6874037
40
0.9793537
50
359.7807044
51
8.8218476
0
ARC
8
DEFAULT_255_1_388
10
22.2126184
20
47.6902731
40
0.9358078
50
359.7054632
51
8.0359751
0
ARC
8
DEFAULT_255_1_388
10
22.5501235
20
47.7394252
40
0.5947474
50
7.8926278
51
20.2962188
0
ARC
8
DEFAULT_255_1_388
10
22.7332085
20
47.8069367
40
0.3996117
50
20.3231056
51
36.4990255
0
ARC
8
DEFAULT_255_1_388
10
22.8103383
20
47.8663399
40
0.3022818
50
36.1436715
51
85.6627846
0
ARC
8
DEFAULT_255_1_388
10
22.7920638
20
47.7493881
40
0.4203853
50
84.3845912
51
90.076054
0
ARC
8
DEFAULT_255_1_388
10
22.7872993
20
47.8236416
40
0.346157
50
89.3037228
51
109.9046209
0
ARC
8
DEFAULT_255_1_388
10
22.7768826
20
47.8666379
40
0.3022217
50
110.8229774
51
143.917961
0
ARC
8
DEFAULT_255_1_388
10
22.8819185
20
47.7864455
40
0.434348
50
143.5289166
51
163.2980252
0
ARC
8
DEFAULT_255_1_388
10
23.0965472
20
47.7189685
40
0.659321
50
163.0418884
51
174.3139873
0
ARC
8
DEFAULT_255_1_388
10
23.3670437
20
47.6877378
40
0.9315905
50
174.050934
51
179.4174954
0
ARC
8
DEFAULT_255_1_388
10
23.3102381
20
47.5958382
40
0.8747493
50
179.6928582
51
188.7908948
0
ARC
8
DEFAULT_255_1_388
10
23.0106181
20
47.5479086
40
0.5713262
50
188.6328449
51
202.5630732
0
ARC
8
DEFAULT_255_1_388
10
22.8695018
20
47.4912142
40
0.4192612
50
202.8078931
51
216.1195888
0
ARC
8
DEFAULT_255_1_388
10
22.7784535
20
47.4179479
40
0.3025752
50
215.0755613
51
264.6379773
0
ARC
8
DEFAULT_255_1_388
10
22.7927372
20
47.5114376
40
0.3970284
50
263.8464302
51
270.0830805
0
ARC
8
DEFAULT_255_1_388
10
22.7973917
20
47.4823808
40
0.3679937
50
269.3649295
51
287.5149684
0
ARC
8
DEFAULT_255_1_388
10
22.8174358
20
47.4095714
40
0.2925408
50
288.0629019
51
323.8115617
0
ARC
8
DEFAULT_255_1_388
10
22.7194334
20
47.4826754
40
0.4148018
50
323.6546541
51
342.6591359
0
ARC
8
DEFAULT_255_1_388
10
22.4908992
20
47.557028
40
0.6551163
50
342.4092446
51
353.6451501
0
ARC
8
DEFAULT_255_1_388
10
22.1723785
20
47.5966565
40
0.9760748
50
353.4027553
51
359.4846611
0
LINE
8
DEFAULT_255_1_388
10
24.3872006
20
48.3007898
11
24.3872006
21
48.2068191
0
LINE
8
DEFAULT_255_1_388
10
24.3872006
20
48.2068191
11
23.8423513
21
46.9852
0
LINE
8
DEFAULT_255_1_388
10
23.8423513
20
46.9852
11
23.6670598
21
46.9852
0
LINE
8
DEFAULT_255_1_388
10
23.6670598
20
46.9852
11
24.210102
21
48.163448
0
LINE
8
DEFAULT_255_1_388
10
24.210102
20
48.163448
11
23.4980932
21
48.163448
0
LINE
8
DEFAULT_255_1_388
10
23.4980932
20
48.163448
11
23.4980932
21
48.3007898
0
LINE
8
DEFAULT_255_1_388
10
23.4980932
20
48.3007898
11
24.3872006
21
48.3007898
0
LINE
8
DEFAULT_255_1_388
10
23.3209946
20
52.9753553
11
23.3209946
21
52.8922274
0
LINE
8
DEFAULT_255_1_388
10
22.2629206
20
52.8804811
11
22.2629206
21
52.9753553
0
LINE
8
DEFAULT_255_1_388
10
23.1484138
20
52.8795775
11
23.1484138
21
52.9771625
0
LINE
8
DEFAULT_255_1_388
10
22.4355014
20
52.9889088
11
22.4355014
21
52.8922274
0
ARC
8
DEFAULT_255_1_388
10
22.3487684
20
52.8877726
40
0.9722364
50
350.4878118
51
0.2625322
0
ARC
8
DEFAULT_255_1_388
10
22.6067644
20
52.8433994
40
0.7104556
50
336.0277991
51
350.5787241
0
ARC
8
DEFAULT_255_1_388
10
22.7580751
20
52.7750243
40
0.544417
50
319.887443
51
336.1331163
0
ARC
8
DEFAULT_255_1_388
10
22.8258563
20
52.7207733
40
0.4576311
50
302.4806296
51
319.6144102
0
ARC
8
DEFAULT_255_1_388
10
22.8129184
20
52.7457067
40
0.4856183
50
275.8196423
51
302.1885521
0
ARC
8
DEFAULT_255_1_388
10
22.7942046
20
52.8742466
40
0.6154183
50
269.9169897
51
276.339506
0
ARC
8
DEFAULT_255_1_388
10
22.7891646
20
52.797068
40
0.5382553
50
252.5221437
51
270.441579
0
ARC
8
DEFAULT_255_1_388
10
22.7729897
20
52.7364046
40
0.4755426
50
237.5349961
51
252.1858334
0
ARC
8
DEFAULT_255_1_388
10
22.7830273
20
52.749212
40
0.4917393
50
209.0632754
51
237.3492577
0
ARC
8
DEFAULT_255_1_388
10
22.8809599
20
52.8107104
40
0.6072464
50
205.118533
51
209.6465345
0
ARC
8
DEFAULT_255_1_388
10
22.9705601
20
52.8487174
40
0.7045164
50
188.7216633
51
204.8239753
0
ARC
8
DEFAULT_255_1_388
10
23.1952376
20
52.8865387
40
0.9323368
50
180.3722704
51
188.9253909
0
ARC
8
DEFAULT_255_1_388
10
23.1921938
20
52.9798416
40
0.929284
50
169.5253055
51
180.2766048
0
ARC
8
DEFAULT_255_1_388
10
22.9781737
20
53.0192024
40
0.7116745
50
155.8314601
51
169.5088611
0
ARC
8
DEFAULT_255_1_388
10
22.83412
20
53.0860312
40
0.5528904
50
139.6259579
51
156.0379072
0
ARC
8
DEFAULT_255_1_388
10
22.7677733
20
53.1394143
40
0.4677708
50
122.6414784
51
139.3431662
0
ARC
8
DEFAULT_255_1_388
10
22.7790988
20
53.1187787
40
0.4912586
50
93.0224537
51
122.4556091
0
ARC
8
DEFAULT_255_1_388
10
22.7912509
20
53.0101776
40
0.6003837
50
89.9756766
51
93.6340839
0
ARC
8
DEFAULT_255_1_388
10
22.7956107
20
53.0550879
40
0.5554884
50
73.7463329
51
90.4234008
0
ARC
8
DEFAULT_255_1_388
10
22.815358
20
53.1315772
40
0.4765353
50
57.663051
51
73.4516911
0
ARC
8
DEFAULT_255_1_388
10
22.8144618
20
53.1340108
40
0.4749629
50
29.1441355
51
57.4146687
0
ARC
8
DEFAULT_255_1_388
10
22.7092429
20
53.0683046
40
0.5988917
50
24.0985653
51
29.732054
0
ARC
8
DEFAULT_255_1_388
10
22.5930061
20
53.0201154
40
0.7246823
50
8.6654943
51
23.8241215
0
ARC
8
DEFAULT_255_1_388
10
22.3416479
20
52.9791037
40
0.9793537
50
359.7807044
51
8.8218476
0
ARC
8
DEFAULT_255_1_388
10
22.2126184
20
52.9819731
40
0.9358078
50
359.7054632
51
8.0359751
0
ARC
8
DEFAULT_255_1_388
10
22.5501235
20
53.0311252
40
0.5947474
50
7.8926278
51
20.2962188
0
ARC
8
DEFAULT_255_1_388
10
22.7332085
20
53.0986367
40
0.3996117
50
20.3231056
51
36.4990255
0
ARC
8
DEFAULT_255_1_388
10
22.8103383
20
53.1580399
40
0.3022818
50
36.1436715
51
85.6627846
0
ARC
8
DEFAULT_255_1_388
10
22.7920638
20
53.0410881
40
0.4203853
50
84.3845912
51
90.076054
0
ARC
8
DEFAULT_255_1_388
10
22.7872993
20
53.1153416
40
0.346157
50
89.3037228
51
109.9046209
0
ARC
8
DEFAULT_255_1_388
10
22.7768826
20
53.1583379
40
0.3022217
50
110.8229774
51
143.917961
0
ARC
8
DEFAULT_255_1_388
10
22.8819185
20
53.0781455
40
0.434348
50
143.5289166
51
163.2980252
0
ARC
8
DEFAULT_255_1_388
10
23.0965472
20
53.0106685
40
0.659321
50
163.0418884
51
174.3139873
0
ARC
8
DEFAULT_255_1_388
10
23.3670437
20
52.9794378
40
0.9315905
50
174.050934
51
179.4174954
0
ARC
8
DEFAULT_255_1_388
10
23.3102381
20
52.8875382
40
0.8747493
50
179.6928582
51
188.7908948
0
ARC
8
DEFAULT_255_1_388
10
23.0106181
20
52.8396086
40
0.5713262
50
188.6328449
51
202.5630732
0
ARC
8
DEFAULT_255_1_388
10
22.8695018
20
52.7829142
40
0.4192612
50
202.8078931
51
216.1195888
0
ARC
8
DEFAULT_255_1_388
10
22.7784535
20
52.7096479
40
0.3025752
50
215.0755613
51
264.6379773
0
ARC
8
DEFAULT_255_1_388
10
22.7927372
20
52.8031376
40
0.3970284
50
263.8464302
51
270.0830805
0
ARC
8
DEFAULT_255_1_388
10
22.7973917
20
52.7740808
40
0.3679937
50
269.3649295
51
287.5149684
0
ARC
8
DEFAULT_255_1_388
10
22.8174358
20
52.7012714
40
0.2925408
50
288.0629019
51
323.8115617
0
ARC
8
DEFAULT_255_1_388
10
22.7194334
20
52.7743754
40
0.4148018
50
323.6546541
51
342.6591359
0
ARC
8
DEFAULT_255_1_388
10
22.4908992
20
52.848728
40
0.6551163
50
342.4092446
51
353.6451501
0
ARC
8
DEFAULT_255_1_388
10
22.1723785
20
52.8883565
40
0.9760748
50
353.4027553
51
359.4846611
0
LINE
8
DEFAULT_255_1_388
10
24.1640202
20
53.5933934
11
24.1938378
21
53.5933934
0
LINE
8
DEFAULT_255_1_388
10
24.1938378
20
53.5933934
11
24.1938378
21
53.4515338
0
LINE
8
DEFAULT_255_1_388
10
24.1938378
20
53.4515338
11
24.1631167
21
53.4515338
0
LINE
8
DEFAULT_255_1_388
10
23.5477893
20
52.7774747
11
23.5477893
21
52.8416278
0
LINE
8
DEFAULT_255_1_388
10
23.7158522
20
52.8199422
11
23.7158522
21
52.7584999
0
ARC
8
DEFAULT_255_1_388
10
24.1690058
20
52.8892826
40
0.562282
50
90.6001079
51
104.5146616
0
ARC
8
DEFAULT_255_1_388
10
24.1253018
20
53.05181
40
0.3939917
50
104.2855758
51
133.8630124
0
ARC
8
DEFAULT_255_1_388
10
24.143727
20
53.0396243
40
0.4155734
50
134.5304124
51
161.6210222
0
ARC
8
DEFAULT_255_1_388
10
24.3297202
20
52.9740421
40
0.6127682
50
161.2850533
51
174.2074364
0
ARC
8
DEFAULT_255_1_388
10
24.4886769
20
52.9521437
40
0.7731446
50
173.7817938
51
174.9251711
0
ARC
8
DEFAULT_255_1_388
10
23.9760963
20
52.796627
40
0.3412588
50
95.8332067
51
138.995412
0
ARC
8
DEFAULT_255_1_388
10
24.0012243
20
52.6527695
40
0.4870358
50
89.8755506
51
97.0540979
0
ARC
8
DEFAULT_255_1_388
10
24.0065632
20
52.7467841
40
0.3930432
50
71.6407016
51
90.6240821
0
ARC
8
DEFAULT_255_1_388
10
24.0235026
20
52.8091433
40
0.3285421
50
39.6368051
51
71.0190743
0
ARC
8
DEFAULT_255_1_388
10
23.9518933
20
52.7472586
40
0.4231706
50
10.6588054
51
39.9044509
0
ARC
8
DEFAULT_255_1_388
10
23.7777479
20
52.7094223
40
0.60133
50
359.6827842
51
11.1326896
0
ARC
8
DEFAULT_255_1_388
10
23.7732815
20
52.7014715
40
0.6058047
50
347.2485908
51
0.4371098
0
ARC
8
DEFAULT_255_1_388
10
23.96086
20
52.6563379
40
0.4128987
50
318.1408565
51
347.6118497
0
ARC
8
DEFAULT_255_1_388
10
23.9974197
20
52.6262903
40
0.3656244
50
275.6342406
51
317.824739
0
ARC
8
DEFAULT_255_1_388
10
23.9725718
20
52.7724827
40
0.513655
50
269.8872513
51
276.7916069
0
ARC
8
DEFAULT_255_1_388
10
23.966391
20
52.6571181
40
0.398323
50
246.9139443
51
270.7436787
0
ARC
8
DEFAULT_255_1_388
10
23.9671106
20
52.6411044
40
0.3839368
50
218.1665534
51
245.8780431
0
ARC
8
DEFAULT_255_1_388
10
24.0660478
20
52.7238903
40
0.5128958
50
191.4115343
51
218.6077624
0
ARC
8
DEFAULT_255_1_388
10
24.2840795
20
52.7727777
40
0.7363054
50
179.6344971
51
191.7836758
0
ARC
8
DEFAULT_255_1_388
10
24.9120669
20
52.8491495
40
1.3642984
50
171.4523743
51
180.3158856
0
ARC
8
DEFAULT_255_1_388
10
24.4176396
20
52.9260895
40
0.8639311
50
157.9802296
51
171.6246761
0
ARC
8
DEFAULT_255_1_388
10
24.1685747
20
53.0254038
40
0.5958004
50
141.4299236
51
157.8541251
0
ARC
8
DEFAULT_255_1_388
10
24.096383
20
53.0764746
40
0.5075416
50
102.871586
51
140.8564533
0
ARC
8
DEFAULT_255_1_388
10
24.1692383
20
52.8019943
40
0.7914163
50
90.377773
51
103.5868422
0
ARC
8
DEFAULT_255_1_388
10
23.9736904
20
52.7339543
40
0.2667015
50
89.8751238
51
126.2072139
0
ARC
8
DEFAULT_255_1_388
10
23.9788375
20
52.7165847
40
0.2838229
50
124.9742447
51
144.8960197
0
ARC
8
DEFAULT_255_1_388
10
23.959062
20
52.7326981
40
0.2583845
50
145.2974778
51
160.2660922
0
ARC
8
DEFAULT_255_1_388
10
24.3047108
20
52.7549151
40
0.5888695
50
179.6512124
51
190.285571
0
ARC
8
DEFAULT_255_1_388
10
24.1141588
20
52.7189968
40
0.3949683
50
190.0944895
51
207.5099647
0
ARC
8
DEFAULT_255_1_388
10
24.050517
20
52.6887177
40
0.3245464
50
207.9585471
51
216.325377
0
ARC
8
DEFAULT_255_1_388
10
24.0122807
20
52.6572712
40
0.2751259
50
215.7661336
51
232.5457193
0
ARC
8
DEFAULT_255_1_388
10
23.9691923
20
52.6025273
40
0.2054668
50
232.8005815
51
270.6605497
0
ARC
8
DEFAULT_255_1_388
10
23.9743347
20
52.6434853
40
0.2464268
50
269.3550767
51
288.474612
0
ARC
8
DEFAULT_255_1_388
10
23.9847854
20
52.6041721
40
0.2058436
50
289.1831976
51
322.9685307
0
ARC
8
DEFAULT_255_1_388
10
23.9159956
20
52.6584279
40
0.2934408
50
322.6007085
51
346.5183319
0
ARC
8
DEFAULT_255_1_388
10
23.7857712
20
52.6916434
40
0.4278249
50
346.2584622
51
358.7739592
0
ARC
8
DEFAULT_255_1_388
10
23.6706287
20
52.6978829
40
0.5430876
50
358.3757628
51
0.0082477
0
ARC
8
DEFAULT_255_1_388
10
23.7563106
20
52.7009856
40
0.4574157
50
359.6211417
51
11.28403
0
ARC
8
DEFAULT_255_1_388
10
23.8999712
20
52.7309535
40
0.3106708
50
11.0483152
51
31.8145585
0
ARC
8
DEFAULT_255_1_388
10
23.9347417
20
52.7498045
40
0.2711963
50
32.3028554
51
38.0820598
0
ARC
8
DEFAULT_255_1_388
10
23.982065
20
52.7926717
40
0.2075566
50
36.8249851
51
85.741667
0
ARC
8
DEFAULT_255_1_388
10
23.9745063
20
52.7363065
40
0.2643487
50
85.0150021
51
90.050843
0
LINE
8
DEFAULT_255_1_388
10
23.3209946
20
58.2669553
11
23.3209946
21
58.1838274
0
LINE
8
DEFAULT_255_1_388
10
22.2629206
20
58.1720811
11
22.2629206
21
58.2669553
0
LINE
8
DEFAULT_255_1_388
10
23.1484138
20
58.1711775
11
23.1484138
21
58.2687625
0
LINE
8
DEFAULT_255_1_388
10
22.4355014
20
58.2805088
11
22.4355014
21
58.1838274
0
ARC
8
DEFAULT_255_1_388
10
22.3487684
20
58.1793726
40
0.9722364
50
350.4878118
51
0.2625322
0
ARC
8
DEFAULT_255_1_388
10
22.6067644
20
58.1349994
40
0.7104556
50
336.0277991
51
350.5787241
0
ARC
8
DEFAULT_255_1_388
10
22.7580751
20
58.0666243
40
0.544417
50
319.887443
51
336.1331163
0
ARC
8
DEFAULT_255_1_388
10
22.8258563
20
58.0123733
40
0.4576311
50
302.4806296
51
319.6144102
0
ARC
8
DEFAULT_255_1_388
10
22.8129184
20
58.0373067
40
0.4856183
50
275.8196423
51
302.1885521
0
ARC
8
DEFAULT_255_1_388
10
22.7942046
20
58.1658466
40
0.6154183
50
269.9169897
51
276.339506
0
ARC
8
DEFAULT_255_1_388
10
22.7891646
20
58.088668
40
0.5382553
50
252.5221437
51
270.441579
0
ARC
8
DEFAULT_255_1_388
10
22.7729897
20
58.0280046
40
0.4755426
50
237.5349961
51
252.1858334
0
ARC
8
DEFAULT_255_1_388
10
22.7830273
20
58.040812
40
0.4917393
50
209.0632754
51
237.3492577
0
ARC
8
DEFAULT_255_1_388
10
22.8809599
20
58.1023104
40
0.6072464
50
205.118533
51
209.6465345
0
ARC
8
DEFAULT_255_1_388
10
22.9705601
20
58.1403174
40
0.7045164
50
188.7216633
51
204.8239753
0
ARC
8
DEFAULT_255_1_388
10
23.1952376
20
58.1781387
40
0.9323368
50
180.3722704
51
188.9253909
0
ARC
8
DEFAULT_255_1_388
10
23.1921938
20
58.2714416
40
0.929284
50
169.5253055
51
180.2766048
0
ARC
8
DEFAULT_255_1_388
10
22.9781737
20
58.3108024
40
0.7116745
50
155.8314601
51
169.5088611
0
ARC
8
DEFAULT_255_1_388
10
22.83412
20
58.3776312
40
0.5528904
50
139.6259579
51
156.0379072
0
ARC
8
DEFAULT_255_1_388
10
22.7677733
20
58.4310143
40
0.4677708
50
122.6414784
51
139.3431662
0
ARC
8
DEFAULT_255_1_388
10
22.7790988
20
58.4103787
40
0.4912586
50
93.0224537
51
122.4556091
0
ARC
8
DEFAULT_255_1_388
10
22.7912509
20
58.3017776
40
0.6003837
50
89.9756766
51
93.6340839
0
ARC
8
DEFAULT_255_1_388
10
22.7956107
20
58.3466879
40
0.5554884
50
73.7463329
51
90.4234008
0
ARC
8
DEFAULT_255_1_388
10
22.815358
20
58.4231772
40
0.4765353
50
57.663051
51
73.4516911
0
ARC
8
DEFAULT_255_1_388
10
22.8144618
20
58.4256108
40
0.4749629
50
29.1441355
51
57.4146687
0
ARC
8
DEFAULT_255_1_388
10
22.7092429
20
58.3599046
40
0.5988917
50
24.0985653
51
29.732054
0
ARC
8
DEFAULT_255_1_388
10
22.5930061
20
58.3117154
40
0.7246823
50
8.6654943
51
23.8241215
0
ARC
8
DEFAULT_255_1_388
10
22.3416479
20
58.2707037
40
0.9793537
50
359.7807044
51
8.8218476
0
ARC
8
DEFAULT_255_1_388
10
22.2126184
20
58.2735731
40
0.9358078
50
359.7054632
51
8.0359751
0
ARC
8
DEFAULT_255_1_388
10
22.5501235
20
58.3227252
40
0.5947474
50
7.8926278
51
20.2962188
0
ARC
8
DEFAULT_255_1_388
10
22.7332085
20
58.3902367
40
0.3996117
50
20.3231056
51
36.4990255
0
ARC
8
DEFAULT_255_1_388
10
22.8103383
20
58.4496399
40
0.3022818
50
36.1436715
51
85.6627846
0
ARC
8
DEFAULT_255_1_388
10
22.7920638
20
58.3326881
40
0.4203853
50
84.3845912
51
90.076054
0
ARC
8
DEFAULT_255_1_388
10
22.7872993
20
58.4069416
40
0.346157
50
89.3037228
51
109.9046209
0
ARC
8
DEFAULT_255_1_388
10
22.7768826
20
58.4499379
40
0.3022217
50
110.8229774
51
143.917961
0
ARC
8
DEFAULT_255_1_388
10
22.8819185
20
58.3697455
40
0.434348
50
143.5289166
51
163.2980252
0
ARC
8
DEFAULT_255_1_388
10
23.0965472
20
58.3022685
40
0.659321
50
163.0418884
51
174.3139873
0
ARC
8
DEFAULT_255_1_388
10
23.3670437
20
58.2710378
40
0.9315905
50
174.050934
51
179.4174954
0
ARC
8
DEFAULT_255_1_388
10
23.3102381
20
58.1791382
40
0.8747493
50
179.6928582
51
188.7908948
0
ARC
8
DEFAULT_255_1_388
10
23.0106181
20
58.1312086
40
0.5713262
50
188.6328449
51
202.5630732
0
ARC
8
DEFAULT_255_1_388
10
22.8695018
20
58.0745142
40
0.4192612
50
202.8078931
51
216.1195888
0
ARC
8
DEFAULT_255_1_388
10
22.7784535
20
58.0012479
40
0.3025752
50
215.0755613
51
264.6379773
0
ARC
8
DEFAULT_255_1_388
10
22.7927372
20
58.0947376
40
0.3970284
50
263.8464302
51
270.0830805
0
ARC
8
DEFAULT_255_1_388
10
22.7973917
20
58.0656808
40
0.3679937
50
269.3649295
51
287.5149684
0
ARC
8
DEFAULT_255_1_388
10
22.8174358
20
57.9928714
40
0.2925408
50
288.0629019
51
323.8115617
0
ARC
8
DEFAULT_255_1_388
10
22.7194334
20
58.0659754
40
0.4148018
50
323.6546541
51
342.6591359
0
ARC
8
DEFAULT_255_1_388
10
22.4908992
20
58.140328
40
0.6551163
50
342.4092446
51
353.6451501
0
ARC
8
DEFAULT_255_1_388
10
22.1723785
20
58.1799565
40
0.9760748
50
353.4027553
51
359.4846611
0
LINE
8
DEFAULT_255_1_388
10
23.7483806
20
58.1937666
11
23.614653
21
58.2281021
0
LINE
8
DEFAULT_255_1_388
10
23.614653
20
58.2281021
11
23.6815168
21
58.8840898
0
LINE
8
DEFAULT_255_1_388
10
23.6815168
20
58.8840898
11
24.3555759
21
58.8840898
0
LINE
8
DEFAULT_255_1_388
10
24.3555759
20
58.8840898
11
24.3555759
21
58.7295803
0
LINE
8
DEFAULT_255_1_388
10
24.3555759
20
58.7295803
11
23.8233764
21
58.7295803
0
LINE
8
DEFAULT_255_1_388
10
23.8233764
20
58.7295803
11
23.7836196
21
58.3708652
0
LINE
8
DEFAULT_255_1_388
10
23.5676677
20
57.9145652
11
23.7257915
21
57.9145652
0
LINE
8
DEFAULT_255_1_388
10
23.7926552
20
58.2299092
11
23.7483806
21
58.1937666
0
ARC
8
DEFAULT_255_1_388
10
23.9922809
20
58.0131241
40
0.4141476
50
93.7181681
51
120.253934
0
ARC
8
DEFAULT_255_1_388
10
24.0028862
20
57.9222284
40
0.5055616
50
89.9660471
51
94.2495185
0
ARC
8
DEFAULT_255_1_388
10
24.0074683
20
57.9885154
40
0.4392953
50
73.8045384
51
90.5585736
0
ARC
8
DEFAULT_255_1_388
10
24.0338941
20
58.085052
40
0.3392225
50
41.3071072
51
73.543002
0
ARC
8
DEFAULT_255_1_388
10
23.9870761
20
58.0447461
40
0.4009977
50
13.5075837
51
41.2174839
0
ARC
8
DEFAULT_255_1_388
10
23.8023858
20
57.9963907
40
0.5918864
50
1.1330171
51
13.8830737
0
ARC
8
DEFAULT_255_1_388
10
23.6427504
20
57.9878522
40
0.7516787
50
359.9925091
51
1.5431298
0
ARC
8
DEFAULT_255_1_388
10
23.7872119
20
57.9832027
40
0.6072343
50
347.8572712
51
0.4294349
0
ARC
8
DEFAULT_255_1_388
10
23.9841254
20
57.9385898
40
0.4053482
50
323.6727442
51
348.1674594
0
ARC
8
DEFAULT_255_1_388
10
24.0172219
20
57.9184175
40
0.3667495
50
316.8171818
51
323.1486802
0
ARC
8
DEFAULT_255_1_388
10
24.0241342
20
57.9142612
40
0.358869
50
281.839603
51
316.5458142
0
ARC
8
DEFAULT_255_1_388
10
23.981863
20
58.0892363
40
0.5388223
50
269.5770964
51
282.4214641
0
ARC
8
DEFAULT_255_1_388
10
23.9738551
20
58.065193
40
0.5147801
50
256.2425863
51
270.4486481
0
ARC
8
DEFAULT_255_1_388
10
23.9402078
20
57.9302124
40
0.3756708
50
228.9024379
51
256.33135
0
ARC
8
DEFAULT_255_1_388
10
23.9319058
20
57.9171054
40
0.360344
50
193.7536029
51
228.5272638
0
ARC
8
DEFAULT_255_1_388
10
24.0711623
20
57.9579463
40
0.5053599
50
184.9244437
51
194.4976052
0
ARC
8
DEFAULT_255_1_388
10
24.0928265
20
57.9619722
40
0.3700839
50
187.3596909
51
198.6733728
0
ARC
8
DEFAULT_255_1_388
10
23.9747508
20
57.9210373
40
0.2451195
50
198.4453795
51
217.7945479
0
ARC
8
DEFAULT_255_1_388
10
23.9414681
20
57.8974563
40
0.2043754
50
218.2887146
51
228.5613203
0
ARC
8
DEFAULT_255_1_388
10
23.9524688
20
57.9122902
40
0.2227819
50
228.9652423
51
258.1237049
0
ARC
8
DEFAULT_255_1_388
10
23.9756125
20
58.0113964
40
0.3245374
50
257.7260585
51
270.4013717
0
ARC
8
DEFAULT_255_1_388
10
23.9806623
20
57.9613255
40
0.2744726
50
269.4204315
51
286.420998
0
ARC
8
DEFAULT_255_1_388
10
23.9973679
20
57.9006705
40
0.2115721
50
286.7250065
51
320.6004665
0
ARC
8
DEFAULT_255_1_388
10
23.9542594
20
57.9356527
40
0.2670878
50
320.6712228
51
344.5440474
0
ARC
8
DEFAULT_255_1_388
10
23.8241308
20
57.9738394
40
0.4026927
50
344.241448
51
356.735803
0
ARC
8
DEFAULT_255_1_388
10
23.6837615
20
57.9854656
40
0.5435085
50
356.3547471
51
0.0507222
0
ARC
8
DEFAULT_255_1_388
10
23.833988
20
57.9889812
40
0.3932934
50
359.5579289
51
12.9534322
0
ARC
8
DEFAULT_255_1_388
10
23.952672
20
58.0177586
40
0.2711827
50
12.6489751
51
41.608121
0
ARC
8
DEFAULT_255_1_388
10
23.978588
20
58.0397946
40
0.2371737
50
41.7851122
51
85.9892156
0
ARC
8
DEFAULT_255_1_388
10
23.964719
20
57.9482738
40
0.3295244
50
84.6965848
51
90.0672125
0
ARC
8
DEFAULT_255_1_388
10
23.9620758
20
57.8731118
40
0.4046926
50
89.6804991
51
99.161352
0
ARC
8
DEFAULT_255_1_388
10
23.9389767
20
58.0111848
40
0.2647044
50
98.9836248
51
113.8905702
0
ARC
8
DEFAULT_255_1_388
10
23.9131442
20
58.0721118
40
0.1985386
50
114.195234
51
127.3641866
0
LINE
8
DEFAULT_255_1_388
10
23.1886946
20
63.5586553
11
23.1886946
21
63.4755274
0
LINE
8
DEFAULT_255_1_388
10
22.1306206
20
63.4637811
11
22.1306206
21
63.5586553
0
LINE
8
DEFAULT_255_1_388
10
23.0161138
20
63.4628775
11
23.0161138
21
63.5604625
0
LINE
8
DEFAULT_255_1_388
10
22.3032014
20
63.5722088
11
22.3032014
21
63.4755274
0
ARC
8
DEFAULT_255_1_388
10
22.2164684
20
63.4710726
40
0.9722364
50
350.4878118
51
0.2625322
0
ARC
8
DEFAULT_255_1_388
10
22.4744644
20
63.4266994
40
0.7104556
50
336.0277991
51
350.5787241
0
ARC
8
DEFAULT_255_1_388
10
22.6257751
20
63.3583243
40
0.544417
50
319.887443
51
336.1331163
0
ARC
8
DEFAULT_255_1_388
10
22.6935563
20
63.3040733
40
0.4576311
50
302.4806296
51
319.6144102
0
ARC
8
DEFAULT_255_1_388
10
22.6806184
20
63.3290067
40
0.4856183
50
275.8196423
51
302.1885521
0
ARC
8
DEFAULT_255_1_388
10
22.6619046
20
63.4575466
40
0.6154183
50
269.9169897
51
276.339506
0
ARC
8
DEFAULT_255_1_388
10
22.6568646
20
63.380368
40
0.5382553
50
252.5221437
51
270.441579
0
ARC
8
DEFAULT_255_1_388
10
22.6406897
20
63.3197046
40
0.4755426
50
237.5349961
51
252.1858334
0
ARC
8
DEFAULT_255_1_388
10
22.6507273
20
63.332512
40
0.4917393
50
209.0632754
51
237.3492577
0
ARC
8
DEFAULT_255_1_388
10
22.7486599
20
63.3940104
40
0.6072464
50
205.118533
51
209.6465345
0
ARC
8
DEFAULT_255_1_388
10
22.8382601
20
63.4320174
40
0.7045164
50
188.7216633
51
204.8239753
0
ARC
8
DEFAULT_255_1_388
10
23.0629376
20
63.4698387
40
0.9323368
50
180.3722704
51
188.9253909
0
ARC
8
DEFAULT_255_1_388
10
23.0598938
20
63.5631416
40
0.929284
50
169.5253055
51
180.2766048
0
ARC
8
DEFAULT_255_1_388
10
22.8458737
20
63.6025024
40
0.7116745
50
155.8314601
51
169.5088611
0
ARC
8
DEFAULT_255_1_388
10
22.70182
20
63.6693312
40
0.5528904
50
139.6259579
51
156.0379072
0
ARC
8
DEFAULT_255_1_388
10
22.6354733
20
63.7227143
40
0.4677708
50
122.6414784
51
139.3431662
0
ARC
8
DEFAULT_255_1_388
10
22.6467988
20
63.7020787
40
0.4912586
50
93.0224537
51
122.4556091
0
ARC
8
DEFAULT_255_1_388
10
22.6589509
20
63.5934776
40
0.6003837
50
89.9756766
51
93.6340839
0
ARC
8
DEFAULT_255_1_388
10
22.6633107
20
63.6383879
40
0.5554884
50
73.7463329
51
90.4234008
0
ARC
8
DEFAULT_255_1_388
10
22.683058
20
63.7148772
40
0.4765353
50
57.663051
51
73.4516911
0
ARC
8
DEFAULT_255_1_388
10
22.6821618
20
63.7173108
40
0.4749629
50
29.1441355
51
57.4146687
0
ARC
8
DEFAULT_255_1_388
10
22.5769429
20
63.6516046
40
0.5988917
50
24.0985653
51
29.732054
0
ARC
8
DEFAULT_255_1_388
10
22.4607061
20
63.6034154
40
0.7246823
50
8.6654943
51
23.8241215
0
ARC
8
DEFAULT_255_1_388
10
22.2093479
20
63.5624037
40
0.9793537
50
359.7807044
51
8.8218476
0
ARC
8
DEFAULT_255_1_388
10
22.0803184
20
63.5652731
40
0.9358078
50
359.7054632
51
8.0359751
0
ARC
8
DEFAULT_255_1_388
10
22.4178235
20
63.6144252
40
0.5947474
50
7.8926278
51
20.2962188
0
ARC
8
DEFAULT_255_1_388
10
22.6009085
20
63.6819367
40
0.3996117
50
20.3231056
51
36.4990255
0
ARC
8
DEFAULT_255_1_388
10
22.6780383
20
63.7413399
40
0.3022818
50
36.1436715
51
85.6627846
0
ARC
8
DEFAULT_255_1_388
10
22.6597638
20
63.6243881
40
0.4203853
50
84.3845912
51
90.076054
0
ARC
8
DEFAULT_255_1_388
10
22.6549993
20
63.6986416
40
0.346157
50
89.3037228
51
109.9046209
0
ARC
8
DEFAULT_255_1_388
10
22.6445826
20
63.7416379
40
0.3022217
50
110.8229774
51
143.917961
0
ARC
8
DEFAULT_255_1_388
10
22.7496185
20
63.6614455
40
0.434348
50
143.5289166
51
163.2980252
0
ARC
8
DEFAULT_255_1_388
10
22.9642472
20
63.5939685
40
0.659321
50
163.0418884
51
174.3139873
0
ARC
8
DEFAULT_255_1_388
10
23.2347437
20
63.5627378
40
0.9315905
50
174.050934
51
179.4174954
0
ARC
8
DEFAULT_255_1_388
10
23.1779381
20
63.4708382
40
0.8747493
50
179.6928582
51
188.7908948
0
ARC
8
DEFAULT_255_1_388
10
22.8783181
20
63.4229086
40
0.5713262
50
188.6328449
51
202.5630732
0
ARC
8
DEFAULT_255_1_388
10
22.7372018
20
63.3662142
40
0.4192612
50
202.8078931
51
216.1195888
0
ARC
8
DEFAULT_255_1_388
10
22.6461535
20
63.2929479
40
0.3025752
50
215.0755613
51
264.6379773
0
ARC
8
DEFAULT_255_1_388
10
22.6604372
20
63.3864376
40
0.3970284
50
263.8464302
51
270.0830805
0
ARC
8
DEFAULT_255_1_388
10
22.6650917
20
63.3573808
40
0.3679937
50
269.3649295
51
287.5149684
0
ARC
8
DEFAULT_255_1_388
10
22.6851358
20
63.2845714
40
0.2925408
50
288.0629019
51
323.8115617
0
ARC
8
DEFAULT_255_1_388
10
22.5871334
20
63.3576754
40
0.4148018
50
323.6546541
51
342.6591359
0
ARC
8
DEFAULT_255_1_388
10
22.3585992
20
63.432028
40
0.6551163
50
342.4092446
51
353.6451501
0
ARC
8
DEFAULT_255_1_388
10
22.0400785
20
63.4716565
40
0.9760748
50
353.4027553
51
359.4846611
0
LINE
8
DEFAULT_255_1_388
10
24.1112339
20
64.1757898
11
24.1112339
21
63.302043
0
LINE
8
DEFAULT_255_1_388
10
24.1112339
20
63.302043
11
24.2937539
21
63.302043
0
LINE
8
DEFAULT_255_1_388
10
24.2937539
20
63.302043
11
24.2937539
21
63.1656048
0
LINE
8
DEFAULT_255_1_388
10
24.2937539
20
63.1656048
11
24.1112339
21
63.1656048
0
LINE
8
DEFAULT_255_1_388
10
24.1112339
20
63.1656048
11
24.1112339
21
62.8602
0
LINE
8
DEFAULT_255_1_388
10
24.1112339
20
62.8602
11
23.9431709
21
62.8602
0
LINE
8
DEFAULT_255_1_388
10
23.9431709
20
62.8602
11
23.9431709
21
63.1656048
0
LINE
8
DEFAULT_255_1_388
10
23.9431709
20
63.1656048
11
23.3441077
21
63.1656048
0
LINE
8
DEFAULT_255_1_388
10
23.3441077
20
63.1656048
11
23.3441077
21
63.2640933
0
LINE
8
DEFAULT_255_1_388
10
23.3441077
20
63.2640933
11
23.9332317
21
64.1757898
0
LINE
8
DEFAULT_255_1_388
10
23.9332317
20
64.1757898
11
24.1112339
21
64.1757898
0
LINE
8
DEFAULT_255_1_388
10
23.9232925
20
63.9110455
11
23.5338562
21
63.302043
0
LINE
8
DEFAULT_255_1_388
10
23.5338562
20
63.302043
11
23.9431709
21
63.302043
0
LINE
8
DEFAULT_255_1_388
10
23.9431709
20
63.302043
11
23.9431709
21
63.947188
0
LINE
8
DEFAULT_255_1_388
10
23.9431709
20
63.947188
11
23.9232925
21
63.9110455
0
LINE
8
DEFAULT_255_1_388
10
23.3209946
20
68.8503553
11
23.3209946
21
68.7672274
0
LINE
8
DEFAULT_255_1_388
10
22.2629206
20
68.7554811
11
22.2629206
21
68.8503553
0
LINE
8
DEFAULT_255_1_388
10
23.1484138
20
68.7545775
11
23.1484138
21
68.8521625
0
LINE
8
DEFAULT_255_1_388
10
22.4355014
20
68.8639088
11
22.4355014
21
68.7672274
0
ARC
8
DEFAULT_255_1_388
10
22.3487684
20
68.7627726
40
0.9722364
50
350.4878118
51
0.2625322
0
ARC
8
DEFAULT_255_1_388
10
22.6067644
20
68.7183994
40
0.7104556
50
336.0277991
51
350.5787241
0
ARC
8
DEFAULT_255_1_388
10
22.7580751
20
68.6500243
40
0.544417
50
319.887443
51
336.1331163
0
ARC
8
DEFAULT_255_1_388
10
22.8258563
20
68.5957733
40
0.4576311
50
302.4806296
51
319.6144102
0
ARC
8
DEFAULT_255_1_388
10
22.8129184
20
68.6207067
40
0.4856183
50
275.8196423
51
302.1885521
0
ARC
8
DEFAULT_255_1_388
10
22.7942046
20
68.7492466
40
0.6154183
50
269.9169897
51
276.339506
0
ARC
8
DEFAULT_255_1_388
10
22.7891646
20
68.672068
40
0.5382553
50
252.5221437
51
270.441579
0
ARC
8
DEFAULT_255_1_388
10
22.7729897
20
68.6114046
40
0.4755426
50
237.5349961
51
252.1858334
0
ARC
8
DEFAULT_255_1_388
10
22.7830273
20
68.624212
40
0.4917393
50
209.0632754
51
237.3492577
0
ARC
8
DEFAULT_255_1_388
10
22.8809599
20
68.6857104
40
0.6072464
50
205.118533
51
209.6465345
0
ARC
8
DEFAULT_255_1_388
10
22.9705601
20
68.7237174
40
0.7045164
50
188.7216633
51
204.8239753
0
ARC
8
DEFAULT_255_1_388
10
23.1952376
20
68.7615387
40
0.9323368
50
180.3722704
51
188.9253909
0
ARC
8
DEFAULT_255_1_388
10
23.1921938
20
68.8548416
40
0.929284
50
169.5253055
51
180.2766048
0
ARC
8
DEFAULT_255_1_388
10
22.9781737
20
68.8942024
40
0.7116745
50
155.8314601
51
169.5088611
0
ARC
8
DEFAULT_255_1_388
10
22.83412
20
68.9610312
40
0.5528904
50
139.6259579
51
156.0379072
0
ARC
8
DEFAULT_255_1_388
10
22.7677733
20
69.0144143
40
0.4677708
50
122.6414784
51
139.3431662
0
ARC
8
DEFAULT_255_1_388
10
22.7790988
20
68.9937787
40
0.4912586
50
93.0224537
51
122.4556091
0
ARC
8
DEFAULT_255_1_388
10
22.7912509
20
68.8851776
40
0.6003837
50
89.9756766
51
93.6340839
0
ARC
8
DEFAULT_255_1_388
10
22.7956107
20
68.9300879
40
0.5554884
50
73.7463329
51
90.4234008
0
ARC
8
DEFAULT_255_1_388
10
22.815358
20
69.0065772
40
0.4765353
50
57.663051
51
73.4516911
0
ARC
8
DEFAULT_255_1_388
10
22.8144618
20
69.0090108
40
0.4749629
50
29.1441355
51
57.4146687
0
ARC
8
DEFAULT_255_1_388
10
22.7092429
20
68.9433046
40
0.5988917
50
24.0985653
51
29.732054
0
ARC
8
DEFAULT_255_1_388
10
22.5930061
20
68.8951154
40
0.7246823
50
8.6654943
51
23.8241215
0
ARC
8
DEFAULT_255_1_388
10
22.3416479
20
68.8541037
40
0.9793537
50
359.7807044
51
8.8218476
0
ARC
8
DEFAULT_255_1_388
10
22.2126184
20
68.8569731
40
0.9358078
50
359.7054632
51
8.0359751
0
ARC
8
DEFAULT_255_1_388
10
22.5501235
20
68.9061252
40
0.5947474
50
7.8926278
51
20.2962188
0
ARC
8
DEFAULT_255_1_388
10
22.7332085
20
68.9736367
40
0.3996117
50
20.3231056
51
36.4990255
0
ARC
8
DEFAULT_255_1_388
10
22.8103383
20
69.0330399
40
0.3022818
50
36.1436715
51
85.6627846
0
ARC
8
DEFAULT_255_1_388
10
22.7920638
20
68.9160881
40
0.4203853
50
84.3845912
51
90.076054
0
ARC
8
DEFAULT_255_1_388
10
22.7872993
20
68.9903416
40
0.346157
50
89.3037228
51
109.9046209
0
ARC
8
DEFAULT_255_1_388
10
22.7768826
20
69.0333379
40
0.3022217
50
110.8229774
51
143.917961
0
ARC
8
DEFAULT_255_1_388
10
22.8819185
20
68.9531455
40
0.434348
50
143.5289166
51
163.2980252
0
ARC
8
DEFAULT_255_1_388
10
23.0965472
20
68.8856685
40
0.659321
50
163.0418884
51
174.3139873
0
ARC
8
DEFAULT_255_1_388
10
23.3670437
20
68.8544378
40
0.9315905
50
174.050934
51
179.4174954
0
ARC
8
DEFAULT_255_1_388
10
23.3102381
20
68.7625382
40
0.8747493
50
179.6928582
51
188.7908948
0
ARC
8
DEFAULT_255_1_388
10
23.0106181
20
68.7146086
40
0.5713262
50
188.6328449
51
202.5630732
0
ARC
8
DEFAULT_255_1_388
10
22.8695018
20
68.6579142
40
0.4192612
50
202.8078931
51
216.1195888
0
ARC
8
DEFAULT_255_1_388
10
22.7784535
20
68.5846479
40
0.3025752
50
215.0755613
51
264.6379773
0
ARC
8
DEFAULT_255_1_388
10
22.7927372
20
68.6781376
40
0.3970284
50
263.8464302
51
270.0830805
0
ARC
8
DEFAULT_255_1_388
10
22.7973917
20
68.6490808
40
0.3679937
50
269.3649295
51
287.5149684
0
ARC
8
DEFAULT_255_1_388
10
22.8174358
20
68.5762714
40
0.2925408
50
288.0629019
51
323.8115617
0
ARC
8
DEFAULT_255_1_388
10
22.7194334
20
68.6493754
40
0.4148018
50
323.6546541
51
342.6591359
0
ARC
8
DEFAULT_255_1_388
10
22.4908992
20
68.723728
40
0.6551163
50
342.4092446
51
353.6451501
0
ARC
8
DEFAULT_255_1_388
10
22.1723785
20
68.7633565
40
0.9760748
50
353.4027553
51
359.4846611
0
LINE
8
DEFAULT_255_1_388
10
23.7809089
20
68.7545775
11
23.7809089
21
68.8910157
0
LINE
8
DEFAULT_255_1_388
10
23.7809089
20
68.8910157
11
23.9065043
21
68.8910157
0
LINE
8
DEFAULT_255_1_388
10
23.6923596
20
69.1223282
11
23.5252001
21
69.1223282
0
LINE
8
DEFAULT_255_1_388
10
23.5134538
20
68.4988688
11
23.6815168
21
68.4988688
0
LINE
8
DEFAULT_255_1_388
10
23.9065043
20
68.7545775
11
23.7809089
21
68.7545775
0
ARC
8
DEFAULT_255_1_388
10
23.903227
20
69.2726922
40
0.3816905
50
270.491971
51
281.8953028
0
ARC
8
DEFAULT_255_1_388
10
23.9303697
20
69.1487199
40
0.2547877
50
281.6690378
51
301.2943765
0
ARC
8
DEFAULT_255_1_388
10
23.9495148
20
69.1136926
40
0.2149197
50
301.7834992
51
311.754567
0
ARC
8
DEFAULT_255_1_388
10
23.959819
20
69.102265
40
0.1995326
50
311.7325027
51
354.2803031
0
ARC
8
DEFAULT_255_1_388
10
23.8780606
20
69.116328
40
0.2823461
50
353.0941646
51
0.1174696
0
ARC
8
DEFAULT_255_1_388
10
23.8262163
20
69.1216874
40
0.3342238
50
359.1804452
51
15.0452323
0
ARC
8
DEFAULT_255_1_388
10
23.9776222
20
69.1658546
40
0.1765747
50
13.957816
51
77.6713812
0
ARC
8
DEFAULT_255_1_388
10
23.9341458
20
69.0100464
40
0.3381982
50
76.111571
51
90.7028736
0
ARC
8
DEFAULT_255_1_388
10
23.927487
20
69.040825
40
0.3074046
50
89.5321574
51
103.5319393
0
ARC
8
DEFAULT_255_1_388
10
23.9049253
20
69.1307443
40
0.2147041
50
103.2930114
51
133.5619756
0
ARC
8
DEFAULT_255_1_388
10
23.8999195
20
69.1374351
40
0.2064084
50
133.8349761
51
173.5343225
0
ARC
8
DEFAULT_255_1_388
10
23.9812852
20
69.1230144
40
0.2889266
50
172.5097183
51
180.1360699
0
ARC
8
DEFAULT_255_1_388
10
23.8742616
20
69.126888
40
0.3490913
50
155.3483706
51
180.7484035
0
ARC
8
DEFAULT_255_1_388
10
23.8687592
20
69.1236519
40
0.3454798
50
131.5745177
51
154.4799474
0
ARC
8
DEFAULT_255_1_388
10
23.9039874
20
69.0880422
40
0.3955058
50
96.9874487
51
131.9690874
0
ARC
8
DEFAULT_255_1_388
10
23.9286767
20
68.9479407
40
0.537622
50
89.8592909
51
97.7827481
0
ARC
8
DEFAULT_255_1_388
10
23.9340876
20
68.918436
40
0.5671399
50
78.3654493
51
90.4132586
0
ARC
8
DEFAULT_255_1_388
10
23.9743517
20
69.1050918
40
0.3762034
50
56.6229818
51
78.6387103
0
ARC
8
DEFAULT_255_1_388
10
23.9985347
20
69.1473846
40
0.3275964
50
47.0254604
51
56.085558
0
ARC
8
DEFAULT_255_1_388
10
24.0007598
20
69.1518189
40
0.3228382
50
10.9207523
51
46.777927
0
ARC
8
DEFAULT_255_1_388
10
23.8473191
20
69.1163401
40
0.4802559
50
359.6364235
51
11.6087615
0
ARC
8
DEFAULT_255_1_388
10
24.0537357
20
69.1146404
40
0.273833
50
332.3549969
51
359.7179765
0
ARC
8
DEFAULT_255_1_388
10
23.9805758
20
69.1493285
40
0.3547505
50
325.2332381
51
332.8746682
0
ARC
8
DEFAULT_255_1_388
10
23.9977341
20
69.1373763
40
0.3338396
50
292.9803892
51
325.2391113
0
ARC
8
DEFAULT_255_1_388
10
23.9666536
20
69.1978679
40
0.4016959
50
292.542178
51
293.6931461
0
ARC
8
DEFAULT_255_1_388
10
24.0110108
20
68.4713036
40
0.372079
50
57.643292
51
72.8626085
0
ARC
8
DEFAULT_255_1_388
10
24.0508943
20
68.5359273
40
0.2961455
50
36.7246661
51
57.4701329
0
ARC
8
DEFAULT_255_1_388
10
24.04961
20
68.537347
40
0.2963321
50
8.054535
51
36.3561529
0
ARC
8
DEFAULT_255_1_388
10
23.9525772
20
68.5199073
40
0.3948682
50
359.8316595
51
8.5873361
0
ARC
8
DEFAULT_255_1_388
10
23.9103246
20
68.514497
40
0.4371398
50
343.9831631
51
0.557075
0
ARC
8
DEFAULT_255_1_388
10
24.0100296
20
68.4871963
40
0.3337749
50
311.6358204
51
343.7652116
0
ARC
8
DEFAULT_255_1_388
10
23.967455
20
68.5351955
40
0.3979351
50
279.7829743
51
311.625622
0
ARC
8
DEFAULT_255_1_388
10
23.9335685
20
68.6968642
40
0.5630417
50
269.7285092
51
280.3857694
0
ARC
8
DEFAULT_255_1_388
10
23.9265998
20
68.6922241
40
0.5584119
50
256.6827433
51
270.4412869
0
ARC
8
DEFAULT_255_1_388
10
23.8884984
20
68.5364698
40
0.3980715
50
229.4223821
51
256.8554507
0
ARC
8
DEFAULT_255_1_388
10
23.8418538
20
68.4839683
40
0.3278564
50
181.8183354
51
229.6455015
0
ARC
8
DEFAULT_255_1_388
10
23.9588147
20
68.4986825
40
0.4453611
50
179.9760419
51
183.2330638
0
ARC
8
DEFAULT_255_1_388
10
23.93947
20
68.4963781
40
0.2579652
50
179.4467996
51
196.2871626
0
ARC
8
DEFAULT_255_1_388
10
23.8846153
20
68.4813709
40
0.2011057
50
196.5661293
51
227.7059371
0
ARC
8
DEFAULT_255_1_388
10
23.9030761
20
68.5020155
40
0.2287994
50
227.7653015
51
257.8763321
0
ARC
8
DEFAULT_255_1_388
10
23.9283844
20
68.6080961
40
0.3378385
50
257.4583525
51
270.4267406
0
ARC
8
DEFAULT_255_1_388
10
23.9335093
20
68.640723
40
0.3704652
50
269.5965319
51
280.8788143
0
ARC
8
DEFAULT_255_1_388
10
23.9593321
20
68.5117529
40
0.2389415
50
280.6347277
51
299.8594068
0
ARC
8
DEFAULT_255_1_388
10
23.9808091
20
68.4709736
40
0.19289
50
300.3575552
51
314.5515667
0
ARC
8
DEFAULT_255_1_388
10
23.9714767
20
68.4778025
40
0.204312
50
315.0730962
51
345.0429362
0
ARC
8
DEFAULT_255_1_388
10
23.8676274
20
68.5080539
40
0.31246
50
344.598526
51
357.9270698
0
ARC
8
DEFAULT_255_1_388
10
23.7666579
20
68.5149705
40
0.4136265
50
357.4755098
51
0.0224936
0
ARC
8
DEFAULT_255_1_388
10
23.8819457
20
68.5177099
40
0.2983498
50
359.5051035
51
13.4236939
0
ARC
8
DEFAULT_255_1_388
10
23.9794546
20
68.5426637
40
0.1977186
50
12.9497905
51
48.7550905
0
ARC
8
DEFAULT_255_1_388
10
23.9589468
20
68.5146373
40
0.2323321
50
49.509109
51
72.1832965
0
ARC
8
DEFAULT_255_1_388
10
23.9186937
20
68.3951632
40
0.358397
50
71.9008458
51
84.3555134
0
ARC
8
DEFAULT_255_1_388
10
23.9005331
20
68.2419712
40
0.512641
50
84.019632
51
89.3326067
0
LINE
8
DEFAULT_255_1_388
10
23.3209946
20
74.1419553
11
23.3209946
21
74.0588274
0
LINE
8
DEFAULT_255_1_388
10
22.2629206
20
74.0470811
11
22.2629206
21
74.1419553
0
LINE
8
DEFAULT_255_1_388
10
23.1484138
20
74.0461775
11
23.1484138
21
74.1437625
0
LINE
8
DEFAULT_255_1_388
10
22.4355014
20
74.1555088
11
22.4355014
21
74.0588274
0
ARC
8
DEFAULT_255_1_388
10
22.3487684
20
74.0543726
40
0.9722364
50
350.4878118
51
0.2625322
0
ARC
8
DEFAULT_255_1_388
10
22.6067644
20
74.0099994
40
0.7104556
50
336.0277991
51
350.5787241
0
ARC
8
DEFAULT_255_1_388
10
22.7580751
20
73.9416243
40
0.544417
50
319.887443
51
336.1331163
0
ARC
8
DEFAULT_255_1_388
10
22.8258563
20
73.8873733
40
0.4576311
50
302.4806296
51
319.6144102
0
ARC
8
DEFAULT_255_1_388
10
22.8129184
20
73.9123067
40
0.4856183
50
275.8196423
51
302.1885521
0
ARC
8
DEFAULT_255_1_388
10
22.7942046
20
74.0408466
40
0.6154183
50
269.9169897
51
276.339506
0
ARC
8
DEFAULT_255_1_388
10
22.7891646
20
73.963668
40
0.5382553
50
252.5221437
51
270.441579
0
ARC
8
DEFAULT_255_1_388
10
22.7729897
20
73.9030046
40
0.4755426
50
237.5349961
51
252.1858334
0
ARC
8
DEFAULT_255_1_388
10
22.7830273
20
73.915812
40
0.4917393
50
209.0632754
51
237.3492577
0
ARC
8
DEFAULT_255_1_388
10
22.8809599
20
73.9773104
40
0.6072464
50
205.118533
51
209.6465345
0
ARC
8
DEFAULT_255_1_388
10
22.9705601
20
74.0153174
40
0.7045164
50
188.7216633
51
204.8239753
0
ARC
8
DEFAULT_255_1_388
10
23.1952376
20
74.0531387
40
0.9323368
50
180.3722704
51
188.9253909
0
ARC
8
DEFAULT_255_1_388
10
23.1921938
20
74.1464416
40
0.929284
50
169.5253055
51
180.2766048
0
ARC
8
DEFAULT_255_1_388
10
22.9781737
20
74.1858024
40
0.7116745
50
155.8314601
51
169.5088611
0
ARC
8
DEFAULT_255_1_388
10
22.83412
20
74.2526312
40
0.5528904
50
139.6259579
51
156.0379072
0
ARC
8
DEFAULT_255_1_388
10
22.7677733
20
74.3060143
40
0.4677708
50
122.6414784
51
139.3431662
0
ARC
8
DEFAULT_255_1_388
10
22.7790988
20
74.2853787
40
0.4912586
50
93.0224537
51
122.4556091
0
ARC
8
DEFAULT_255_1_388
10
22.7912509
20
74.1767776
40
0.6003837
50
89.9756766
51
93.6340839
0
ARC
8
DEFAULT_255_1_388
10
22.7956107
20
74.2216879
40
0.5554884
50
73.7463329
51
90.4234008
0
ARC
8
DEFAULT_255_1_388
10
22.815358
20
74.2981772
40
0.4765353
50
57.663051
51
73.4516911
0
ARC
8
DEFAULT_255_1_388
10
22.8144618
20
74.3006108
40
0.4749629
50
29.1441355
51
57.4146687
0
ARC
8
DEFAULT_255_1_388
10
22.7092429
20
74.2349046
40
0.5988917
50
24.0985653
51
29.732054
0
ARC
8
DEFAULT_255_1_388
10
22.5930061
20
74.1867154
40
0.7246823
50
8.6654943
51
23.8241215
0
ARC
8
DEFAULT_255_1_388
10
22.3416479
20
74.1457037
40
0.9793537
50
359.7807044
51
8.8218476
0
ARC
8
DEFAULT_255_1_388
10
22.2126184
20
74.1485731
40
0.9358078
50
359.7054632
51
8.0359751
0
ARC
8
DEFAULT_255_1_388
10
22.5501235
20
74.1977252
40
0.5947474
50
7.8926278
51
20.2962188
0
ARC
8
DEFAULT_255_1_388
10
22.7332085
20
74.2652367
40
0.3996117
50
20.3231056
51
36.4990255
0
ARC
8
DEFAULT_255_1_388
10
22.8103383
20
74.3246399
40
0.3022818
50
36.1436715
51
85.6627846
0
ARC
8
DEFAULT_255_1_388
10
22.7920638
20
74.2076881
40
0.4203853
50
84.3845912
51
90.076054
0
ARC
8
DEFAULT_255_1_388
10
22.7872993
20
74.2819416
40
0.346157
50
89.3037228
51
109.9046209
0
ARC
8
DEFAULT_255_1_388
10
22.7768826
20
74.3249379
40
0.3022217
50
110.8229774
51
143.917961
0
ARC
8
DEFAULT_255_1_388
10
22.8819185
20
74.2447455
40
0.434348
50
143.5289166
51
163.2980252
0
ARC
8
DEFAULT_255_1_388
10
23.0965472
20
74.1772685
40
0.659321
50
163.0418884
51
174.3139873
0
ARC
8
DEFAULT_255_1_388
10
23.3670437
20
74.1460378
40
0.9315905
50
174.050934
51
179.4174954
0
ARC
8
DEFAULT_255_1_388
10
23.3102381
20
74.0541382
40
0.8747493
50
179.6928582
51
188.7908948
0
ARC
8
DEFAULT_255_1_388
10
23.0106181
20
74.0062086
40
0.5713262
50
188.6328449
51
202.5630732
0
ARC
8
DEFAULT_255_1_388
10
22.8695018
20
73.9495142
40
0.4192612
50
202.8078931
51
216.1195888
0
ARC
8
DEFAULT_255_1_388
10
22.7784535
20
73.8762479
40
0.3025752
50
215.0755613
51
264.6379773
0
ARC
8
DEFAULT_255_1_388
10
22.7927372
20
73.9697376
40
0.3970284
50
263.8464302
51
270.0830805
0
ARC
8
DEFAULT_255_1_388
10
22.7973917
20
73.9406808
40
0.3679937
50
269.3649295
51
287.5149684
0
ARC
8
DEFAULT_255_1_388
10
22.8174358
20
73.8678714
40
0.2925408
50
288.0629019
51
323.8115617
0
ARC
8
DEFAULT_255_1_388
10
22.7194334
20
73.9409754
40
0.4148018
50
323.6546541
51
342.6591359
0
ARC
8
DEFAULT_255_1_388
10
22.4908992
20
74.015328
40
0.6551163
50
342.4092446
51
353.6451501
0
ARC
8
DEFAULT_255_1_388
10
22.1723785
20
74.0549565
40
0.9760748
50
353.4027553
51
359.4846611
0
LINE
8
DEFAULT_255_1_388
10
24.3998505
20
73.5799382
11
24.3998505
21
73.4435
0
LINE
8
DEFAULT_255_1_388
10
24.3998505
20
73.4435
11
23.53785
21
73.4435
0
LINE
8
DEFAULT_255_1_388
10
23.53785
20
73.4435
11
23.53785
21
73.5636741
0
LINE
8
DEFAULT_255_1_388
10
23.53785
20
73.5636741
11
23.9932465
21
74.0696702
0
LINE
8
DEFAULT_255_1_388
10
23.6797097
20
74.3714607
11
23.5125502
21
74.3714607
0
LINE
8
DEFAULT_255_1_388
10
24.0917351
20
73.962146
11
23.7393449
21
73.5799382
0
LINE
8
DEFAULT_255_1_388
10
23.7393449
20
73.5799382
11
24.3998505
21
73.5799382
0
ARC
8
DEFAULT_255_1_388
10
22.4756525
20
75.4116983
40
2.0258655
50
318.5132526
51
320.7829045
0
ARC
8
DEFAULT_255_1_388
10
23.0704482
20
74.9275929
40
1.2589638
50
320.7372878
51
323.9739031
0
ARC
8
DEFAULT_255_1_388
10
23.5113413
20
74.6081554
40
0.7145141
50
323.8962701
51
328.64194
0
ARC
8
DEFAULT_255_1_388
10
23.7415671
20
74.4661545
40
0.4440242
50
328.8294576
51
331.7891185
0
ARC
8
DEFAULT_255_1_388
10
23.8537991
20
74.4082374
40
0.3177517
50
331.4254512
51
352.9365785
0
ARC
8
DEFAULT_255_1_388
10
23.8690991
20
74.404805
40
0.3021496
50
353.2257659
51
0.0166158
0
ARC
8
DEFAULT_255_1_388
10
23.8927752
20
74.4073894
40
0.2784847
50
359.486299
51
15.9343185
0
ARC
8
DEFAULT_255_1_388
10
23.9498018
20
74.4227269
40
0.2194403
50
16.1712913
51
43.5286088
0
ARC
8
DEFAULT_255_1_388
10
23.9584963
20
74.4314191
40
0.2071504
50
43.4417391
51
83.1661095
0
ARC
8
DEFAULT_255_1_388
10
23.9434124
20
74.3485316
40
0.2912888
50
82.160179
51
90.1505708
0
ARC
8
DEFAULT_255_1_388
10
23.9398606
20
74.2881279
40
0.3517025
50
89.5460741
51
102.5418361
0
ARC
8
DEFAULT_255_1_388
10
23.9125326
20
74.4040933
40
0.2325748
50
102.1738499
51
129.206123
0
ARC
8
DEFAULT_255_1_388
10
23.9036779
20
74.4180664
40
0.2161591
50
129.72865
51
135.753947
0
ARC
8
DEFAULT_255_1_388
10
23.9173261
20
74.4071728
40
0.2335433
50
136.1757367
51
166.3673339
0
ARC
8
DEFAULT_255_1_388
10
24.030595
20
74.3768148
40
0.3507873
50
165.9090694
51
178.8684636
0
ARC
8
DEFAULT_255_1_388
10
24.1281721
20
74.3715263
40
0.4484624
50
178.4391136
51
180.0083808
0
ARC
8
DEFAULT_255_1_388
10
23.9702423
20
74.3759197
40
0.4577138
50
163.2878482
51
180.5581842
0
ARC
8
DEFAULT_255_1_388
10
23.8800464
20
74.4007393
40
0.3641968
50
133.4540601
51
162.947111
0
ARC
8
DEFAULT_255_1_388
10
23.9001346
20
74.3793789
40
0.3935189
50
100.7869829
51
133.4382499
0
ARC
8
DEFAULT_255_1_388
10
23.9392591
20
74.2051399
40
0.5720313
50
89.660664
51
101.3702276
0
ARC
8
DEFAULT_255_1_388
10
23.94672
20
74.2120263
40
0.5651495
50
78.2172678
51
90.412935
0
ARC
8
DEFAULT_255_1_388
10
23.9866665
20
74.3947511
40
0.378122
50
55.9269121
51
78.4888449
0
ARC
8
DEFAULT_255_1_388
10
24.008738
20
74.4328187
40
0.3342379
50
47.929771
51
55.4049217
0
ARC
8
DEFAULT_255_1_388
10
24.0201911
20
74.4444618
40
0.3179217
50
4.334829
51
48.0560205
0
ARC
8
DEFAULT_255_1_388
10
23.8969713
20
74.4253487
40
0.442341
50
359.9251713
51
5.5971671
0
ARC
8
DEFAULT_255_1_388
10
23.9451867
20
74.4316728
40
0.3941854
50
337.8914027
51
358.9967534
0
ARC
8
DEFAULT_255_1_388
10
23.6399437
20
74.5494295
40
0.7213271
50
326.9132501
51
338.3508308
0
ARC
8
DEFAULT_255_1_388
10
23.1915549
20
74.8368105
40
1.2538973
50
319.6471833
51
327.0959558
0
ARC
8
DEFAULT_255_1_388
10
22.7602207
20
75.192605
40
1.8129975
50
317.2588228
51
319.9045804
0
LINE
8
DEFAULT_255_1_388
10
23.3292946
20
79.4336553
11
23.3292946
21
79.3505274
0
LINE
8
DEFAULT_255_1_388
10
22.2712206
20
79.3387811
11
22.2712206
21
79.4336553
0
LINE
8
DEFAULT_255_1_388
10
23.1567138
20
79.3378775
11
23.1567138
21
79.4354625
0
LINE
8
DEFAULT_255_1_388
10
22.4438014
20
79.4472088
11
22.4438014
21
79.3505274
0
ARC
8
DEFAULT_255_1_388
10
22.3570684
20
79.3460726
40
0.9722364
50
350.4878118
51
0.2625322
0
ARC
8
DEFAULT_255_1_388
10
22.6150644
20
79.3016994
40
0.7104556
50
336.0277991
51
350.5787241
0
ARC
8
DEFAULT_255_1_388
10
22.7663751
20
79.2333243
40
0.544417
50
319.887443
51
336.1331163
0
ARC
8
DEFAULT_255_1_388
10
22.8341563
20
79.1790733
40
0.4576311
50
302.4806296
51
319.6144102
0
ARC
8
DEFAULT_255_1_388
10
22.8212184
20
79.2040067
40
0.4856183
50
275.8196423
51
302.1885521
0
ARC
8
DEFAULT_255_1_388
10
22.8025046
20
79.3325466
40
0.6154183
50
269.9169897
51
276.339506
0
ARC
8
DEFAULT_255_1_388
10
22.7974646
20
79.255368
40
0.5382553
50
252.5221437
51
270.441579
0
ARC
8
DEFAULT_255_1_388
10
22.7812897
20
79.1947046
40
0.4755426
50
237.5349961
51
252.1858334
0
ARC
8
DEFAULT_255_1_388
10
22.7913273
20
79.207512
40
0.4917393
50
209.0632754
51
237.3492577
0
ARC
8
DEFAULT_255_1_388
10
22.8892599
20
79.2690104
40
0.6072464
50
205.118533
51
209.6465345
0
ARC
8
DEFAULT_255_1_388
10
22.9788601
20
79.3070174
40
0.7045164
50
188.7216633
51
204.8239753
0
ARC
8
DEFAULT_255_1_388
10
23.2035376
20
79.3448387
40
0.9323368
50
180.3722704
51
188.9253909
0
ARC
8
DEFAULT_255_1_388
10
23.2004938
20
79.4381416
40
0.929284
50
169.5253055
51
180.2766048
0
ARC
8
DEFAULT_255_1_388
10
22.9864737
20
79.4775024
40
0.7116745
50
155.8314601
51
169.5088611
0
ARC
8
DEFAULT_255_1_388
10
22.84242
20
79.5443312
40
0.5528904
50
139.6259579
51
156.0379072
0
ARC
8
DEFAULT_255_1_388
10
22.7760733
20
79.5977143
40
0.4677708
50
122.6414784
51
139.3431662
0
ARC
8
DEFAULT_255_1_388
10
22.7873988
20
79.5770787
40
0.4912586
50
93.0224537
51
122.4556091
0
ARC
8
DEFAULT_255_1_388
10
22.7995509
20
79.4684776
40
0.6003837
50
89.9756766
51
93.6340839
0
ARC
8
DEFAULT_255_1_388
10
22.8039107
20
79.5133879
40
0.5554884
50
73.7463329
51
90.4234008
0
ARC
8
DEFAULT_255_1_388
10
22.823658
20
79.5898772
40
0.4765353
50
57.663051
51
73.4516911
0
ARC
8
DEFAULT_255_1_388
10
22.8227618
20
79.5923108
40
0.4749629
50
29.1441355
51
57.4146687
0
ARC
8
DEFAULT_255_1_388
10
22.7175429
20
79.5266046
40
0.5988917
50
24.0985653
51
29.732054
0
ARC
8
DEFAULT_255_1_388
10
22.6013061
20
79.4784154
40
0.7246823
50
8.6654943
51
23.8241215
0
ARC
8
DEFAULT_255_1_388
10
22.3499479
20
79.4374037
40
0.9793537
50
359.7807044
51
8.8218476
0
ARC
8
DEFAULT_255_1_388
10
22.2209184
20
79.4402731
40
0.9358078
50
359.7054632
51
8.0359751
0
ARC
8
DEFAULT_255_1_388
10
22.5584235
20
79.4894252
40
0.5947474
50
7.8926278
51
20.2962188
0
ARC
8
DEFAULT_255_1_388
10
22.7415085
20
79.5569367
40
0.3996117
50
20.3231056
51
36.4990255
0
ARC
8
DEFAULT_255_1_388
10
22.8186383
20
79.6163399
40
0.3022818
50
36.1436715
51
85.6627846
0
ARC
8
DEFAULT_255_1_388
10
22.8003638
20
79.4993881
40
0.4203853
50
84.3845912
51
90.076054
0
ARC
8
DEFAULT_255_1_388
10
22.7955993
20
79.5736416
40
0.346157
50
89.3037228
51
109.9046209
0
ARC
8
DEFAULT_255_1_388
10
22.7851826
20
79.6166379
40
0.3022217
50
110.8229774
51
143.917961
0
ARC
8
DEFAULT_255_1_388
10
22.8902185
20
79.5364455
40
0.434348
50
143.5289166
51
163.2980252
0
ARC
8
DEFAULT_255_1_388
10
23.1048472
20
79.4689685
40
0.659321
50
163.0418884
51
174.3139873
0
ARC
8
DEFAULT_255_1_388
10
23.3753437
20
79.4377378
40
0.9315905
50
174.050934
51
179.4174954
0
ARC
8
DEFAULT_255_1_388
10
23.3185381
20
79.3458382
40
0.8747493
50
179.6928582
51
188.7908948
0
ARC
8
DEFAULT_255_1_388
10
23.0189181
20
79.2979086
40
0.5713262
50
188.6328449
51
202.5630732
0
ARC
8
DEFAULT_255_1_388
10
22.8778018
20
79.2412142
40
0.4192612
50
202.8078931
51
216.1195888
0
ARC
8
DEFAULT_255_1_388
10
22.7867535
20
79.1679479
40
0.3025752
50
215.0755613
51
264.6379773
0
ARC
8
DEFAULT_255_1_388
10
22.8010372
20
79.2614376
40
0.3970284
50
263.8464302
51
270.0830805
0
ARC
8
DEFAULT_255_1_388
10
22.8056917
20
79.2323808
40
0.3679937
50
269.3649295
51
287.5149684
0
ARC
8
DEFAULT_255_1_388
10
22.8257358
20
79.1595714
40
0.2925408
50
288.0629019
51
323.8115617
0
ARC
8
DEFAULT_255_1_388
10
22.7277334
20
79.2326754
40
0.4148018
50
323.6546541
51
342.6591359
0
ARC
8
DEFAULT_255_1_388
10
22.4991992
20
79.307028
40
0.6551163
50
342.4092446
51
353.6451501
0
ARC
8
DEFAULT_255_1_388
10
22.1806785
20
79.3466565
40
0.9760748
50
353.4027553
51
359.4846611
0
LINE
8
DEFAULT_255_1_388
10
24.0955172
20
80.0571148
11
24.0955172
21
78.7352
0
LINE
8
DEFAULT_255_1_388
10
24.0955172
20
78.7352
11
23.9274542
21
78.7352
0
LINE
8
DEFAULT_255_1_388
10
23.9274542
20
78.7352
11
23.9274542
21
79.849295
0
LINE
8
DEFAULT_255_1_388
10
23.9274542
20
79.849295
11
23.5904247
21
79.7255066
0
LINE
8
DEFAULT_255_1_388
10
23.5904247
20
79.7255066
11
23.5904247
21
79.8773055
0
LINE
8
DEFAULT_255_1_388
10
23.5904247
20
79.8773055
11
24.0693139
21
80.0571148
0
LINE
8
DEFAULT_255_1_388
10
24.0693139
20
80.0571148
11
24.0955172
21
80.0571148
0
LINE
8
DEFAULT_255_1_388
10
23.3209946
20
84.7253553
11
23.3209946
21
84.6422274
0
LINE
8
DEFAULT_255_1_388
10
22.2629206
20
84.6304811
11
22.2629206
21
84.7253553
0
LINE
8
DEFAULT_255_1_388
10
23.1484138
20
84.6295775
11
23.1484138
21
84.7271625
0
LINE
8
DEFAULT_255_1_388
10
22.4355014
20
84.7389088
11
22.4355014
21
84.6422274
0
ARC
8
DEFAULT_255_1_388
10
22.3487684
20
84.6377726
40
0.9722364
50
350.4878118
51
0.2625322
0
ARC
8
DEFAULT_255_1_388
10
22.6067644
20
84.5933994
40
0.7104556
50
336.0277991
51
350.5787241
0
ARC
8
DEFAULT_255_1_388
10
22.7580751
20
84.5250243
40
0.544417
50
319.887443
51
336.1331163
0
ARC
8
DEFAULT_255_1_388
10
22.8258563
20
84.4707733
40
0.4576311
50
302.4806296
51
319.6144102
0
ARC
8
DEFAULT_255_1_388
10
22.8129184
20
84.4957067
40
0.4856183
50
275.8196423
51
302.1885521
0
ARC
8
DEFAULT_255_1_388
10
22.7942046
20
84.6242466
40
0.6154183
50
269.9169897
51
276.339506
0
ARC
8
DEFAULT_255_1_388
10
22.7891646
20
84.547068
40
0.5382553
50
252.5221437
51
270.441579
0
ARC
8
DEFAULT_255_1_388
10
22.7729897
20
84.4864046
40
0.4755426
50
237.5349961
51
252.1858334
0
ARC
8
DEFAULT_255_1_388
10
22.7830273
20
84.499212
40
0.4917393
50
209.0632754
51
237.3492577
0
ARC
8
DEFAULT_255_1_388
10
22.8809599
20
84.5607104
40
0.6072464
50
205.118533
51
209.6465345
0
ARC
8
DEFAULT_255_1_388
10
22.9705601
20
84.5987174
40
0.7045164
50
188.7216633
51
204.8239753
0
ARC
8
DEFAULT_255_1_388
10
23.1952376
20
84.6365387
40
0.9323368
50
180.3722704
51
188.9253909
0
ARC
8
DEFAULT_255_1_388
10
23.1921938
20
84.7298416
40
0.929284
50
169.5253055
51
180.2766048
0
ARC
8
DEFAULT_255_1_388
10
22.9781737
20
84.7692024
40
0.7116745
50
155.8314601
51
169.5088611
0
ARC
8
DEFAULT_255_1_388
10
22.83412
20
84.8360312
40
0.5528904
50
139.6259579
51
156.0379072
0
ARC
8
DEFAULT_255_1_388
10
22.7677733
20
84.8894143
40
0.4677708
50
122.6414784
51
139.3431662
0
ARC
8
DEFAULT_255_1_388
10
22.7790988
20
84.8687787
40
0.4912586
50
93.0224537
51
122.4556091
0
ARC
8
DEFAULT_255_1_388
10
22.7912509
20
84.7601776
40
0.6003837
50
89.9756766
51
93.6340839
0
ARC
8
DEFAULT_255_1_388
10
22.7956107
20
84.8050879
40
0.5554884
50
73.7463329
51
90.4234008
0
ARC
8
DEFAULT_255_1_388
10
22.815358
20
84.8815772
40
0.4765353
50
57.663051
51
73.4516911
0
ARC
8
DEFAULT_255_1_388
10
22.8144618
20
84.8840108
40
0.4749629
50
29.1441355
51
57.4146687
0
ARC
8
DEFAULT_255_1_388
10
22.7092429
20
84.8183046
40
0.5988917
50
24.0985653
51
29.732054
0
ARC
8
DEFAULT_255_1_388
10
22.5930061
20
84.7701154
40
0.7246823
50
8.6654943
51
23.8241215
0
ARC
8
DEFAULT_255_1_388
10
22.3416479
20
84.7291037
40
0.9793537
50
359.7807044
51
8.8218476
0
ARC
8
DEFAULT_255_1_388
10
22.2126184
20
84.7319731
40
0.9358078
50
359.7054632
51
8.0359751
0
ARC
8
DEFAULT_255_1_388
10
22.5501235
20
84.7811252
40
0.5947474
50
7.8926278
51
20.2962188
0
ARC
8
DEFAULT_255_1_388
10
22.7332085
20
84.8486367
40
0.3996117
50
20.3231056
51
36.4990255
0
ARC
8
DEFAULT_255_1_388
10
22.8103383
20
84.9080399
40
0.3022818
50
36.1436715
51
85.6627846
0
ARC
8
DEFAULT_255_1_388
10
22.7920638
20
84.7910881
40
0.4203853
50
84.3845912
51
90.076054
0
ARC
8
DEFAULT_255_1_388
10
22.7872993
20
84.8653416
40
0.346157
50
89.3037228
51
109.9046209
0
ARC
8
DEFAULT_255_1_388
10
22.7768826
20
84.9083379
40
0.3022217
50
110.8229774
51
143.917961
0
ARC
8
DEFAULT_255_1_388
10
22.8819185
20
84.8281455
40
0.434348
50
143.5289166
51
163.2980252
0
ARC
8
DEFAULT_255_1_388
10
23.0965472
20
84.7606685
40
0.659321
50
163.0418884
51
174.3139873
0
ARC
8
DEFAULT_255_1_388
10
23.3670437
20
84.7294378
40
0.9315905
50
174.050934
51
179.4174954
0
ARC
8
DEFAULT_255_1_388
10
23.3102381
20
84.6375382
40
0.8747493
50
179.6928582
51
188.7908948
0
ARC
8
DEFAULT_255_1_388
10
23.0106181
20
84.5896086
40
0.5713262
50
188.6328449
51
202.5630732
0
ARC
8
DEFAULT_255_1_388
10
22.8695018
20
84.5329142
40
0.4192612
50
202.8078931
51
216.1195888
0
ARC
8
DEFAULT_255_1_388
10
22.7784535
20
84.4596479
40
0.3025752
50
215.0755613
51
264.6379773
0
ARC
8
DEFAULT_255_1_388
10
22.7927372
20
84.5531376
40
0.3970284
50
263.8464302
51
270.0830805
0
ARC
8
DEFAULT_255_1_388
10
22.7973917
20
84.5240808
40
0.3679937
50
269.3649295
51
287.5149684
0
ARC
8
DEFAULT_255_1_388
10
22.8174358
20
84.4512714
40
0.2925408
50
288.0629019
51
323.8115617
0
ARC
8
DEFAULT_255_1_388
10
22.7194334
20
84.5243754
40
0.4148018
50
323.6546541
51
342.6591359
0
ARC
8
DEFAULT_255_1_388
10
22.4908992
20
84.598728
40
0.6551163
50
342.4092446
51
353.6451501
0
ARC
8
DEFAULT_255_1_388
10
22.1723785
20
84.6383565
40
0.9760748
50
353.4027553
51
359.4846611
0
LINE
8
DEFAULT_255_1_388
10
24.3628044
20
84.804869
11
24.3628044
21
84.5880135
0
LINE
8
DEFAULT_255_1_388
10
23.5324287
20
84.5654244
11
23.5324287
21
84.7886048
0
LINE
8
DEFAULT_255_1_388
10
24.195645
20
84.5428353
11
24.195645
21
84.8166153
0
LINE
8
DEFAULT_255_1_388
10
23.6995881
20
84.8292652
11
23.6995881
21
84.5618102
0
ARC
8
DEFAULT_255_1_388
10
22.9850378
20
84.5825118
40
1.3777776
50
353.8440855
51
0.2287917
0
ARC
8
DEFAULT_255_1_388
10
23.5069395
20
84.5242414
40
0.852639
50
344.4934746
51
353.9763743
0
ARC
8
DEFAULT_255_1_388
10
23.8436202
20
84.4285191
40
0.5026273
50
329.2803599
51
344.7473406
0
ARC
8
DEFAULT_255_1_388
10
23.9551698
20
84.3673038
40
0.3754848
50
324.9361395
51
328.6153007
0
ARC
8
DEFAULT_255_1_388
10
23.9977348
20
84.3375586
40
0.3235566
50
280.5801797
51
324.9173226
0
ARC
8
DEFAULT_255_1_388
10
23.9525977
20
84.5255236
40
0.5167077
50
269.5979457
51
281.6732777
0
ARC
8
DEFAULT_255_1_388
10
23.944488
20
84.5120113
40
0.5032026
50
256.6228565
51
270.5105488
0
ARC
8
DEFAULT_255_1_388
10
23.8992623
20
84.3378345
40
0.3233092
50
215.8618351
51
257.2787793
0
ARC
8
DEFAULT_255_1_388
10
24.014133
20
84.4149106
40
0.4615831
50
197.9695203
51
215.2622745
0
ARC
8
DEFAULT_255_1_388
10
24.2937006
20
84.5092641
40
0.7566307
50
187.8816486
51
198.2346584
0
ARC
8
DEFAULT_255_1_388
10
24.7390244
20
84.5735453
40
1.2065653
50
180.8977266
51
188.0054894
0
ARC
8
DEFAULT_255_1_388
10
25.0440458
20
84.58504
40
1.5117443
50
180.7434591
51
181.152202
0
ARC
8
DEFAULT_255_1_388
10
24.8765453
20
84.7940371
40
1.3441277
50
173.7674302
51
180.2315596
0
ARC
8
DEFAULT_255_1_388
10
24.3683322
20
84.8514779
40
0.8326847
50
164.3058537
51
173.9000553
0
ARC
8
DEFAULT_255_1_388
10
24.0407322
20
84.9458652
40
0.4917711
50
148.7922028
51
164.5682288
0
ARC
8
DEFAULT_255_1_388
10
23.933806
20
85.0055457
40
0.3694204
50
144.5883979
51
148.1161588
0
ARC
8
DEFAULT_255_1_388
10
23.8950805
20
85.0325667
40
0.322202
50
101.6440149
51
144.5142619
0
ARC
8
DEFAULT_255_1_388
10
23.9428997
20
84.8425337
40
0.5180451
50
89.528284
51
102.5820197
0
ARC
8
DEFAULT_255_1_388
10
23.9517989
20
84.8381376
40
0.5224441
50
77.0437914
51
90.508231
0
ARC
8
DEFAULT_255_1_388
10
23.9970243
20
85.0229272
40
0.3322297
50
48.2777708
51
77.4996087
0
ARC
8
DEFAULT_255_1_388
10
24.0051983
20
85.0374557
40
0.315966
50
36.3141586
51
47.6307332
0
ARC
8
DEFAULT_255_1_388
10
23.9074705
20
84.9716159
40
0.4337313
50
18.2931065
51
35.6770203
0
ARC
8
DEFAULT_255_1_388
10
23.6213546
20
84.8734107
40
0.7362203
50
8.0246996
51
18.5605636
0
ARC
8
DEFAULT_255_1_388
10
23.1529901
20
84.8042432
40
1.2096583
50
1.127539
51
8.1718423
0
ARC
8
DEFAULT_255_1_388
10
22.7881035
20
84.7899374
40
1.5747719
50
0.5432713
51
1.38669
0
ARC
8
DEFAULT_255_1_388
10
22.9938414
20
84.8206163
40
1.2018103
50
359.8092569
51
4.9408001
0
ARC
8
DEFAULT_255_1_388
10
23.4674995
20
84.86289
40
0.7262727
50
4.8364937
51
12.2906017
0
ARC
8
DEFAULT_255_1_388
10
23.777446
20
84.9319485
40
0.4087324
50
12.0806994
51
23.8171225
0
ARC
8
DEFAULT_255_1_388
10
23.9094856
20
84.9878508
40
0.2653719
50
24.2874621
51
31.3934353
0
ARC
8
DEFAULT_255_1_388
10
23.9685291
20
85.0264822
40
0.1948607
50
30.7407708
51
82.4658033
0
ARC
8
DEFAULT_255_1_388
10
23.9482952
20
84.9271017
40
0.2961198
50
81.1057101
51
90.2187368
0
ARC
8
DEFAULT_255_1_388
10
23.9442764
20
84.9561421
40
0.2670929
50
89.380395
51
105.6763916
0
ARC
8
DEFAULT_255_1_388
10
23.9236486
20
85.031132
40
0.1893189
50
105.7980655
51
149.7387869
0
ARC
8
DEFAULT_255_1_388
10
24.0433626
20
84.9591719
40
0.3289892
50
149.4208441
51
163.628295
0
ARC
8
DEFAULT_255_1_388
10
24.2785856
20
84.8874345
40
0.5749004
50
163.3764549
51
172.141138
0
ARC
8
DEFAULT_255_1_388
10
24.6498577
20
84.8342582
40
0.9499585
50
172.0258462
51
178.0705453
0
ARC
8
DEFAULT_255_1_388
10
24.992013
20
84.8180682
40
1.2924734
50
177.8639301
51
179.5036263
0
ARC
8
DEFAULT_255_1_388
10
24.8701149
20
84.5577151
40
1.170534
50
179.7995545
51
185.246089
0
ARC
8
DEFAULT_255_1_388
10
24.4152742
20
84.5146404
40
0.7136613
50
185.1411911
51
193.0082205
0
ARC
8
DEFAULT_255_1_388
10
24.1179003
20
84.4443441
40
0.4080987
50
192.7897338
51
205.2507384
0
ARC
8
DEFAULT_255_1_388
10
24.0001213
20
84.3917538
40
0.2791522
50
205.8001921
51
211.2545876
0
ARC
8
DEFAULT_255_1_388
10
23.9412752
20
84.3523132
40
0.2084074
50
210.3789935
51
238.4007996
0
ARC
8
DEFAULT_255_1_388
10
23.9390838
20
84.3575786
40
0.2117943
50
239.6521916
51
265.9793852
0
ARC
8
DEFAULT_255_1_388
10
23.9486687
20
84.4332358
40
0.2879689
50
265.1324455
51
270.0603288
0
ARC
8
DEFAULT_255_1_388
10
23.9519064
20
84.3967418
40
0.2514919
50
269.3314378
51
287.2180039
0
ARC
8
DEFAULT_255_1_388
10
23.9674146
20
84.3401291
40
0.1928357
50
287.7957942
51
329.0808983
0
ARC
8
DEFAULT_255_1_388
10
23.8596903
20
84.4073651
40
0.319808
50
328.6635261
51
343.3325043
0
ARC
8
DEFAULT_255_1_388
10
23.6152362
20
84.4835195
40
0.5758408
50
343.0498092
51
351.9392499
0
ARC
8
DEFAULT_255_1_388
10
23.2251683
20
84.5410205
40
0.9701202
50
351.8071632
51
357.7957897
0
ARC
8
DEFAULT_255_1_388
10
22.861716
20
84.5598724
40
1.3340376
50
357.5870923
51
359.2682493
0
LINE
8
DEFAULT_255_1_388
10
22.2800946
20
90.0169553
11
22.2800946
21
89.9338274
0
LINE
8
DEFAULT_255_1_388
10
21.2220206
20
89.9220811
11
21.2220206
21
90.0169553
0
LINE
8
DEFAULT_255_1_388
10
22.1075138
20
89.9211775
11
22.1075138
21
90.0187625
0
LINE
8
DEFAULT_255_1_388
10
21.3946014
20
90.0305088
11
21.3946014
21
89.9338274
0
ARC
8
DEFAULT_255_1_388
10
21.3078684
20
89.9293726
40
0.9722364
50
350.4878118
51
0.2625322
0
ARC
8
DEFAULT_255_1_388
10
21.5658644
20
89.8849994
40
0.7104556
50
336.0277991
51
350.5787241
0
ARC
8
DEFAULT_255_1_388
10
21.7171751
20
89.8166243
40
0.544417
50
319.887443
51
336.1331163
0
ARC
8
DEFAULT_255_1_388
10
21.7849563
20
89.7623733
40
0.4576311
50
302.4806296
51
319.6144102
0
ARC
8
DEFAULT_255_1_388
10
21.7720184
20
89.7873067
40
0.4856183
50
275.8196423
51
302.1885521
0
ARC
8
DEFAULT_255_1_388
10
21.7533046
20
89.9158466
40
0.6154183
50
269.9169897
51
276.339506
0
ARC
8
DEFAULT_255_1_388
10
21.7482646
20
89.838668
40
0.5382553
50
252.5221437
51
270.441579
0
ARC
8
DEFAULT_255_1_388
10
21.7320897
20
89.7780046
40
0.4755426
50
237.5349961
51
252.1858334
0
ARC
8
DEFAULT_255_1_388
10
21.7421273
20
89.790812
40
0.4917393
50
209.0632754
51
237.3492577
0
ARC
8
DEFAULT_255_1_388
10
21.8400599
20
89.8523104
40
0.6072464
50
205.118533
51
209.6465345
0
ARC
8
DEFAULT_255_1_388
10
21.9296601
20
89.8903174
40
0.7045164
50
188.7216633
51
204.8239753
0
ARC
8
DEFAULT_255_1_388
10
22.1543376
20
89.9281387
40
0.9323368
50
180.3722704
51
188.9253909
0
ARC
8
DEFAULT_255_1_388
10
22.1512938
20
90.0214416
40
0.929284
50
169.5253055
51
180.2766048
0
ARC
8
DEFAULT_255_1_388
10
21.9372737
20
90.0608024
40
0.7116745
50
155.8314601
51
169.5088611
0
ARC
8
DEFAULT_255_1_388
10
21.79322
20
90.1276312
40
0.5528904
50
139.6259579
51
156.0379072
0
ARC
8
DEFAULT_255_1_388
10
21.7268733
20
90.1810143
40
0.4677708
50
122.6414784
51
139.3431662
0
ARC
8
DEFAULT_255_1_388
10
21.7381988
20
90.1603787
40
0.4912586
50
93.0224537
51
122.4556091
0
ARC
8
DEFAULT_255_1_388
10
21.7503509
20
90.0517776
40
0.6003837
50
89.9756766
51
93.6340839
0
ARC
8
DEFAULT_255_1_388
10
21.7547107
20
90.0966879
40
0.5554884
50
73.7463329
51
90.4234008
0
ARC
8
DEFAULT_255_1_388
10
21.774458
20
90.1731772
40
0.4765353
50
57.663051
51
73.4516911
0
ARC
8
DEFAULT_255_1_388
10
21.7735618
20
90.1756108
40
0.4749629
50
29.1441355
51
57.4146687
0
ARC
8
DEFAULT_255_1_388
10
21.6683429
20
90.1099046
40
0.5988917
50
24.0985653
51
29.732054
0
ARC
8
DEFAULT_255_1_388
10
21.5521061
20
90.0617154
40
0.7246823
50
8.6654943
51
23.8241215
0
ARC
8
DEFAULT_255_1_388
10
21.3007479
20
90.0207037
40
0.9793537
50
359.7807044
51
8.8218476
0
ARC
8
DEFAULT_255_1_388
10
21.1717184
20
90.0235731
40
0.9358078
50
359.7054632
51
8.0359751
0
ARC
8
DEFAULT_255_1_388
10
21.5092235
20
90.0727252
40
0.5947474
50
7.8926278
51
20.2962188
0
ARC
8
DEFAULT_255_1_388
10
21.6923085
20
90.1402367
40
0.3996117
50
20.3231056
51
36.4990255
0
ARC
8
DEFAULT_255_1_388
10
21.7694383
20
90.1996399
40
0.3022818
50
36.1436715
51
85.6627846
0
ARC
8
DEFAULT_255_1_388
10
21.7511638
20
90.0826881
40
0.4203853
50
84.3845912
51
90.076054
0
ARC
8
DEFAULT_255_1_388
10
21.7463993
20
90.1569416
40
0.346157
50
89.3037228
51
109.9046209
0
ARC
8
DEFAULT_255_1_388
10
21.7359826
20
90.1999379
40
0.3022217
50
110.8229774
51
143.917961
0
ARC
8
DEFAULT_255_1_388
10
21.8410185
20
90.1197455
40
0.434348
50
143.5289166
51
163.2980252
0
ARC
8
DEFAULT_255_1_388
10
22.0556472
20
90.0522685
40
0.659321
50
163.0418884
51
174.3139873
0
ARC
8
DEFAULT_255_1_388
10
22.3261437
20
90.0210378
40
0.9315905
50
174.050934
51
179.4174954
0
ARC
8
DEFAULT_255_1_388
10
22.2693381
20
89.9291382
40
0.8747493
50
179.6928582
51
188.7908948
0
ARC
8
DEFAULT_255_1_388
10
21.9697181
20
89.8812086
40
0.5713262
50
188.6328449
51
202.5630732
0
ARC
8
DEFAULT_255_1_388
10
21.8286018
20
89.8245142
40
0.4192612
50
202.8078931
51
216.1195888
0
ARC
8
DEFAULT_255_1_388
10
21.7375535
20
89.7512479
40
0.3025752
50
215.0755613
51
264.6379773
0
ARC
8
DEFAULT_255_1_388
10
21.7518372
20
89.8447376
40
0.3970284
50
263.8464302
51
270.0830805
0
ARC
8
DEFAULT_255_1_388
10
21.7564917
20
89.8156808
40
0.3679937
50
269.3649295
51
287.5149684
0
ARC
8
DEFAULT_255_1_388
10
21.7765358
20
89.7428714
40
0.2925408
50
288.0629019
51
323.8115617
0
ARC
8
DEFAULT_255_1_388
10
21.6785334
20
89.8159754
40
0.4148018
50
323.6546541
51
342.6591359
0
ARC
8
DEFAULT_255_1_388
10
21.4499992
20
89.890328
40
0.6551163
50
342.4092446
51
353.6451501
0
ARC
8
DEFAULT_255_1_388
10
21.1314785
20
89.9299565
40
0.9760748
50
353.4027553
51
359.4846611
0
LINE
8
DEFAULT_255_1_388
10
23.0463172
20
90.6404148
11
23.0463172
21
89.3185
0
LINE
8
DEFAULT_255_1_388
10
23.0463172
20
89.3185
11
22.8782542
21
89.3185
0
LINE
8
DEFAULT_255_1_388
10
22.8782542
20
89.3185
11
22.8782542
21
90.432595
0
LINE
8
DEFAULT_255_1_388
10
22.8782542
20
90.432595
11
22.5412247
21
90.3088066
0
LINE
8
DEFAULT_255_1_388
10
22.5412247
20
90.3088066
11
22.5412247
21
90.4606055
0
LINE
8
DEFAULT_255_1_388
10
22.5412247
20
90.4606055
11
23.0201139
21
90.6404148
0
LINE
8
DEFAULT_255_1_388
10
23.0201139
20
90.6404148
11
23.0463172
21
90.6404148
0
LINE
8
DEFAULT_255_1_388
10
23.7465797
20
89.9437666
11
23.6128521
21
89.9781021
0
LINE
8
DEFAULT_255_1_388
10
23.6128521
20
89.9781021
11
23.6797159
21
90.6340898
0
LINE
8
DEFAULT_255_1_388
10
23.6797159
20
90.6340898
11
24.353775
21
90.6340898
0
LINE
8
DEFAULT_255_1_388
10
24.353775
20
90.6340898
11
24.353775
21
90.4795803
0
LINE
8
DEFAULT_255_1_388
10
24.353775
20
90.4795803
11
23.8215755
21
90.4795803
0
LINE
8
DEFAULT_255_1_388
10
23.8215755
20
90.4795803
11
23.7818187
21
90.1208652
0
LINE
8
DEFAULT_255_1_388
10
23.5658668
20
89.6645652
11
23.7239906
21
89.6645652
0
LINE
8
DEFAULT_255_1_388
10
23.7908543
20
89.9799092
11
23.7465797
21
89.9437666
0
ARC
8
DEFAULT_255_1_388
10
23.9904801
20
89.7631241
40
0.4141476
50
93.7181681
51
120.253934
0
ARC
8
DEFAULT_255_1_388
10
24.0010853
20
89.6722284
40
0.5055616
50
89.9660471
51
94.2495185
0
ARC
8
DEFAULT_255_1_388
10
24.0056675
20
89.7385154
40
0.4392953
50
73.8045384
51
90.5585736
0
ARC
8
DEFAULT_255_1_388
10
24.0320932
20
89.835052
40
0.3392225
50
41.3071072
51
73.543002
0
ARC
8
DEFAULT_255_1_388
10
23.9852752
20
89.7947461
40
0.4009977
50
13.5075837
51
41.2174839
0
ARC
8
DEFAULT_255_1_388
10
23.800585
20
89.7463907
40
0.5918864
50
1.1330171
51
13.8830737
0
ARC
8
DEFAULT_255_1_388
10
23.6409496
20
89.7378522
40
0.7516787
50
359.9925091
51
1.5431298
0
ARC
8
DEFAULT_255_1_388
10
23.785411
20
89.7332027
40
0.6072343
50
347.8572712
51
0.4294349
0
ARC
8
DEFAULT_255_1_388
10
23.9823245
20
89.6885898
40
0.4053482
50
323.6727442
51
348.1674594
0
ARC
8
DEFAULT_255_1_388
10
24.015421
20
89.6684175
40
0.3667495
50
316.8171818
51
323.1486802
0
ARC
8
DEFAULT_255_1_388
10
24.0223333
20
89.6642612
40
0.358869
50
281.839603
51
316.5458142
0
ARC
8
DEFAULT_255_1_388
10
23.9800621
20
89.8392363
40
0.5388223
50
269.5770964
51
282.4214641
0
ARC
8
DEFAULT_255_1_388
10
23.9720542
20
89.815193
40
0.5147801
50
256.2425863
51
270.4486481
0
ARC
8
DEFAULT_255_1_388
10
23.9384069
20
89.6802124
40
0.3756708
50
228.9024379
51
256.33135
0
ARC
8
DEFAULT_255_1_388
10
23.930105
20
89.6671054
40
0.360344
50
193.7536029
51
228.5272638
0
ARC
8
DEFAULT_255_1_388
10
24.0693615
20
89.7079463
40
0.5053599
50
184.9244437
51
194.4976052
0
ARC
8
DEFAULT_255_1_388
10
24.0910256
20
89.7119722
40
0.3700839
50
187.3596909
51
198.6733728
0
ARC
8
DEFAULT_255_1_388
10
23.9729499
20
89.6710373
40
0.2451195
50
198.4453795
51
217.7945479
0
ARC
8
DEFAULT_255_1_388
10
23.9396672
20
89.6474563
40
0.2043754
50
218.2887146
51
228.5613203
0
ARC
8
DEFAULT_255_1_388
10
23.9506679
20
89.6622902
40
0.2227819
50
228.9652423
51
258.1237049
0
ARC
8
DEFAULT_255_1_388
10
23.9738116
20
89.7613964
40
0.3245374
50
257.7260585
51
270.4013717
0
ARC
8
DEFAULT_255_1_388
10
23.9788614
20
89.7113255
40
0.2744726
50
269.4204315
51
286.420998
0
ARC
8
DEFAULT_255_1_388
10
23.995567
20
89.6506705
40
0.2115721
50
286.7250065
51
320.6004665
0
ARC
8
DEFAULT_255_1_388
10
23.9524585
20
89.6856527
40
0.2670878
50
320.6712228
51
344.5440474
0
ARC
8
DEFAULT_255_1_388
10
23.8223299
20
89.7238394
40
0.4026927
50
344.241448
51
356.735803
0
ARC
8
DEFAULT_255_1_388
10
23.6819606
20
89.7354656
40
0.5435085
50
356.3547471
51
0.0507222
0
ARC
8
DEFAULT_255_1_388
10
23.8321871
20
89.7389812
40
0.3932934
50
359.5579289
51
12.9534322
0
ARC
8
DEFAULT_255_1_388
10
23.9508711
20
89.7677586
40
0.2711827
50
12.6489751
51
41.608121
0
ARC
8
DEFAULT_255_1_388
10
23.9767871
20
89.7897946
40
0.2371737
50
41.7851122
51
85.9892156
0
ARC
8
DEFAULT_255_1_388
10
23.9629182
20
89.6982738
40
0.3295244
50
84.6965848
51
90.0672125
0
ARC
8
DEFAULT_255_1_388
10
23.9602749
20
89.6231118
40
0.4046926
50
89.6804991
51
99.161352
0
ARC
8
DEFAULT_255_1_388
10
23.9371758
20
89.7611848
40
0.2647044
50
98.9836248
51
113.8905702
0
ARC
8
DEFAULT_255_1_388
10
23.9113433
20
89.8221118
40
0.1985386
50
114.195234
51
127.3641866
0
LINE
8
DEFAULT_255_1_388
10
22.1477946
20
95.3086553
11
22.1477946
21
95.2255274
0
LINE
8
DEFAULT_255_1_388
10
21.0897206
20
95.2137811
11
21.0897206
21
95.3086553
0
LINE
8
DEFAULT_255_1_388
10
21.9752138
20
95.2128775
11
21.9752138
21
95.3104625
0
LINE
8
DEFAULT_255_1_388
10
21.2623014
20
95.3222088
11
21.2623014
21
95.2255274
0
ARC
8
DEFAULT_255_1_388
10
21.1755684
20
95.2210726
40
0.9722364
50
350.4878118
51
0.2625322
0
ARC
8
DEFAULT_255_1_388
10
21.4335644
20
95.1766994
40
0.7104556
50
336.0277991
51
350.5787241
0
ARC
8
DEFAULT_255_1_388
10
21.5848751
20
95.1083243
40
0.544417
50
319.887443
51
336.1331163
0
ARC
8
DEFAULT_255_1_388
10
21.6526563
20
95.0540733
40
0.4576311
50
302.4806296
51
319.6144102
0
ARC
8
DEFAULT_255_1_388
10
21.6397184
20
95.0790067
40
0.4856183
50
275.8196423
51
302.1885521
0
ARC
8
DEFAULT_255_1_388
10
21.6210046
20
95.2075466
40
0.6154183
50
269.9169897
51
276.339506
0
ARC
8
DEFAULT_255_1_388
10
21.6159646
20
95.130368
40
0.5382553
50
252.5221437
51
270.441579
0
ARC
8
DEFAULT_255_1_388
10
21.5997897
20
95.0697046
40
0.4755426
50
237.5349961
51
252.1858334
0
ARC
8
DEFAULT_255_1_388
10
21.6098273
20
95.082512
40
0.4917393
50
209.0632754
51
237.3492577
0
ARC
8
DEFAULT_255_1_388
10
21.7077599
20
95.1440104
40
0.6072464
50
205.118533
51
209.6465345
0
ARC
8
DEFAULT_255_1_388
10
21.7973601
20
95.1820174
40
0.7045164
50
188.7216633
51
204.8239753
0
ARC
8
DEFAULT_255_1_388
10
22.0220376
20
95.2198387
40
0.9323368
50
180.3722704
51
188.9253909
0
ARC
8
DEFAULT_255_1_388
10
22.0189938
20
95.3131416
40
0.929284
50
169.5253055
51
180.2766048
0
ARC
8
DEFAULT_255_1_388
10
21.8049737
20
95.3525024
40
0.7116745
50
155.8314601
51
169.5088611
0
ARC
8
DEFAULT_255_1_388
10
21.66092
20
95.4193312
40
0.5528904
50
139.6259579
51
156.0379072
0
ARC
8
DEFAULT_255_1_388
10
21.5945733
20
95.4727143
40
0.4677708
50
122.6414784
51
139.3431662
0
ARC
8
DEFAULT_255_1_388
10
21.6058988
20
95.4520787
40
0.4912586
50
93.0224537
51
122.4556091
0
ARC
8
DEFAULT_255_1_388
10
21.6180509
20
95.3434776
40
0.6003837
50
89.9756766
51
93.6340839
0
ARC
8
DEFAULT_255_1_388
10
21.6224107
20
95.3883879
40
0.5554884
50
73.7463329
51
90.4234008
0
ARC
8
DEFAULT_255_1_388
10
21.642158
20
95.4648772
40
0.4765353
50
57.663051
51
73.4516911
0
ARC
8
DEFAULT_255_1_388
10
21.6412618
20
95.4673108
40
0.4749629
50
29.1441355
51
57.4146687
0
ARC
8
DEFAULT_255_1_388
10
21.5360429
20
95.4016046
40
0.5988917
50
24.0985653
51
29.732054
0
ARC
8
DEFAULT_255_1_388
10
21.4198061
20
95.3534154
40
0.7246823
50
8.6654943
51
23.8241215
0
ARC
8
DEFAULT_255_1_388
10
21.1684479
20
95.3124037
40
0.9793537
50
359.7807044
51
8.8218476
0
ARC
8
DEFAULT_255_1_388
10
21.0394184
20
95.3152731
40
0.9358078
50
359.7054632
51
8.0359751
0
ARC
8
DEFAULT_255_1_388
10
21.3769235
20
95.3644252
40
0.5947474
50
7.8926278
51
20.2962188
0
ARC
8
DEFAULT_255_1_388
10
21.5600085
20
95.4319367
40
0.3996117
50
20.3231056
51
36.4990255
0
ARC
8
DEFAULT_255_1_388
10
21.6371383
20
95.4913399
40
0.3022818
50
36.1436715
51
85.6627846
0
ARC
8
DEFAULT_255_1_388
10
21.6188638
20
95.3743881
40
0.4203853
50
84.3845912
51
90.076054
0
ARC
8
DEFAULT_255_1_388
10
21.6140993
20
95.4486416
40
0.346157
50
89.3037228
51
109.9046209
0
ARC
8
DEFAULT_255_1_388
10
21.6036826
20
95.4916379
40
0.3022217
50
110.8229774
51
143.917961
0
ARC
8
DEFAULT_255_1_388
10
21.7087185
20
95.4114455
40
0.434348
50
143.5289166
51
163.2980252
0
ARC
8
DEFAULT_255_1_388
10
21.9233472
20
95.3439685
40
0.659321
50
163.0418884
51
174.3139873
0
ARC
8
DEFAULT_255_1_388
10
22.1938437
20
95.3127378
40
0.9315905
50
174.050934
51
179.4174954
0
ARC
8
DEFAULT_255_1_388
10
22.1370381
20
95.2208382
40
0.8747493
50
179.6928582
51
188.7908948
0
ARC
8
DEFAULT_255_1_388
10
21.8374181
20
95.1729086
40
0.5713262
50
188.6328449
51
202.5630732
0
ARC
8
DEFAULT_255_1_388
10
21.6963018
20
95.1162142
40
0.4192612
50
202.8078931
51
216.1195888
0
ARC
8
DEFAULT_255_1_388
10
21.6052535
20
95.0429479
40
0.3025752
50
215.0755613
51
264.6379773
0
ARC
8
DEFAULT_255_1_388
10
21.6195372
20
95.1364376
40
0.3970284
50
263.8464302
51
270.0830805
0
ARC
8
DEFAULT_255_1_388
10
21.6241917
20
95.1073808
40
0.3679937
50
269.3649295
51
287.5149684
0
ARC
8
DEFAULT_255_1_388
10
21.6442358
20
95.0345714
40
0.2925408
50
288.0629019
51
323.8115617
0
ARC
8
DEFAULT_255_1_388
10
21.5462334
20
95.1076754
40
0.4148018
50
323.6546541
51
342.6591359
0
ARC
8
DEFAULT_255_1_388
10
21.3176992
20
95.182028
40
0.6551163
50
342.4092446
51
353.6451501
0
ARC
8
DEFAULT_255_1_388
10
20.9991785
20
95.2216565
40
0.9760748
50
353.4027553
51
359.4846611
0
LINE
8
DEFAULT_255_1_388
10
22.9140172
20
95.9321148
11
22.9140172
21
94.6102
0
LINE
8
DEFAULT_255_1_388
10
22.9140172
20
94.6102
11
22.7459542
21
94.6102
0
LINE
8
DEFAULT_255_1_388
10
22.7459542
20
94.6102
11
22.7459542
21
95.724295
0
LINE
8
DEFAULT_255_1_388
10
22.7459542
20
95.724295
11
22.4089247
21
95.6005066
0
LINE
8
DEFAULT_255_1_388
10
22.4089247
20
95.6005066
11
22.4089247
21
95.7523055
0
LINE
8
DEFAULT_255_1_388
10
22.4089247
20
95.7523055
11
22.8878139
21
95.9321148
0
LINE
8
DEFAULT_255_1_388
10
22.8878139
20
95.9321148
11
22.9140172
21
95.9321148
0
LINE
8
DEFAULT_255_1_388
10
24.109433
20
95.9257898
11
24.109433
21
95.052043
0
LINE
8
DEFAULT_255_1_388
10
24.109433
20
95.052043
11
24.291953
21
95.052043
0
LINE
8
DEFAULT_255_1_388
10
24.291953
20
95.052043
11
24.291953
21
94.9156048
0
LINE
8
DEFAULT_255_1_388
10
24.291953
20
94.9156048
11
24.109433
21
94.9156048
0
LINE
8
DEFAULT_255_1_388
10
24.109433
20
94.9156048
11
24.109433
21
94.6102
0
LINE
8
DEFAULT_255_1_388
10
24.109433
20
94.6102
11
23.94137
21
94.6102
0
LINE
8
DEFAULT_255_1_388
10
23.94137
20
94.6102
11
23.94137
21
94.9156048
0
LINE
8
DEFAULT_255_1_388
10
23.94137
20
94.9156048
11
23.3423068
21
94.9156048
0
LINE
8
DEFAULT_255_1_388
10
23.3423068
20
94.9156048
11
23.3423068
21
95.0140933
0
LINE
8
DEFAULT_255_1_388
10
23.3423068
20
95.0140933
11
23.9314308
21
95.9257898
0
LINE
8
DEFAULT_255_1_388
10
23.9314308
20
95.9257898
11
24.109433
21
95.9257898
0
LINE
8
DEFAULT_255_1_388
10
23.9214916
20
95.6610455
11
23.5320553
21
95.052043
0
LINE
8
DEFAULT_255_1_388
10
23.5320553
20
95.052043
11
23.94137
21
95.052043
0
LINE
8
DEFAULT_255_1_388
10
23.94137
20
95.052043
11
23.94137
21
95.697188
0
LINE
8
DEFAULT_255_1_388
10
23.94137
20
95.697188
11
23.9214916
21
95.6610455
0
LINE
8
DEFAULT_255_1_388
10
22.2800946
20
100.6003553
11
22.2800946
21
100.5172274
0
LINE
8
DEFAULT_255_1_388
10
21.2220206
20
100.5054811
11
21.2220206
21
100.6003553
0
LINE
8
DEFAULT_255_1_388
10
22.1075138
20
100.5045775
11
22.1075138
21
100.6021625
0
LINE
8
DEFAULT_255_1_388
10
21.3946014
20
100.6139088
11
21.3946014
21
100.5172274
0
ARC
8
DEFAULT_255_1_388
10
21.3078684
20
100.5127726
40
0.9722364
50
350.4878118
51
0.2625322
0
ARC
8
DEFAULT_255_1_388
10
21.5658644
20
100.4683994
40
0.7104556
50
336.0277991
51
350.5787241
0
ARC
8
DEFAULT_255_1_388
10
21.7171751
20
100.4000243
40
0.544417
50
319.887443
51
336.1331163
0
ARC
8
DEFAULT_255_1_388
10
21.7849563
20
100.3457733
40
0.4576311
50
302.4806296
51
319.6144102
0
ARC
8
DEFAULT_255_1_388
10
21.7720184
20
100.3707067
40
0.4856183
50
275.8196423
51
302.1885521
0
ARC
8
DEFAULT_255_1_388
10
21.7533046
20
100.4992466
40
0.6154183
50
269.9169897
51
276.339506
0
ARC
8
DEFAULT_255_1_388
10
21.7482646
20
100.422068
40
0.5382553
50
252.5221437
51
270.441579
0
ARC
8
DEFAULT_255_1_388
10
21.7320897
20
100.3614046
40
0.4755426
50
237.5349961
51
252.1858334
0
ARC
8
DEFAULT_255_1_388
10
21.7421273
20
100.374212
40
0.4917393
50
209.0632754
51
237.3492577
0
ARC
8
DEFAULT_255_1_388
10
21.8400599
20
100.4357104
40
0.6072464
50
205.118533
51
209.6465345
0
ARC
8
DEFAULT_255_1_388
10
21.9296601
20
100.4737174
40
0.7045164
50
188.7216633
51
204.8239753
0
ARC
8
DEFAULT_255_1_388
10
22.1543376
20
100.5115387
40
0.9323368
50
180.3722704
51
188.9253909
0
ARC
8
DEFAULT_255_1_388
10
22.1512938
20
100.6048416
40
0.929284
50
169.5253055
51
180.2766048
0
ARC
8
DEFAULT_255_1_388
10
21.9372737
20
100.6442024
40
0.7116745
50
155.8314601
51
169.5088611
0
ARC
8
DEFAULT_255_1_388
10
21.79322
20
100.7110312
40
0.5528904
50
139.6259579
51
156.0379072
0
ARC
8
DEFAULT_255_1_388
10
21.7268733
20
100.7644143
40
0.4677708
50
122.6414784
51
139.3431662
0
ARC
8
DEFAULT_255_1_388
10
21.7381988
20
100.7437787
40
0.4912586
50
93.0224537
51
122.4556091
0
ARC
8
DEFAULT_255_1_388
10
21.7503509
20
100.6351776
40
0.6003837
50
89.9756766
51
93.6340839
0
ARC
8
DEFAULT_255_1_388
10
21.7547107
20
100.6800879
40
0.5554884
50
73.7463329
51
90.4234008
0
ARC
8
DEFAULT_255_1_388
10
21.774458
20
100.7565772
40
0.4765353
50
57.663051
51
73.4516911
0
ARC
8
DEFAULT_255_1_388
10
21.7735618
20
100.7590108
40
0.4749629
50
29.1441355
51
57.4146687
0
ARC
8
DEFAULT_255_1_388
10
21.6683429
20
100.6933046
40
0.5988917
50
24.0985653
51
29.732054
0
ARC
8
DEFAULT_255_1_388
10
21.5521061
20
100.6451154
40
0.7246823
50
8.6654943
51
23.8241215
0
ARC
8
DEFAULT_255_1_388
10
21.3007479
20
100.6041037
40
0.9793537
50
359.7807044
51
8.8218476
0
ARC
8
DEFAULT_255_1_388
10
21.1717184
20
100.6069731
40
0.9358078
50
359.7054632
51
8.0359751
0
ARC
8
DEFAULT_255_1_388
10
21.5092235
20
100.6561252
40
0.5947474
50
7.8926278
51
20.2962188
0
ARC
8
DEFAULT_255_1_388
10
21.6923085
20
100.7236367
40
0.3996117
50
20.3231056
51
36.4990255
0
ARC
8
DEFAULT_255_1_388
10
21.7694383
20
100.7830399
40
0.3022818
50
36.1436715
51
85.6627846
0
ARC
8
DEFAULT_255_1_388
10
21.7511638
20
100.6660881
40
0.4203853
50
84.3845912
51
90.076054
0
ARC
8
DEFAULT_255_1_388
10
21.7463993
20
100.7403416
40
0.346157
50
89.3037228
51
109.9046209
0
ARC
8
DEFAULT_255_1_388
10
21.7359826
20
100.7833379
40
0.3022217
50
110.8229774
51
143.917961
0
ARC
8
DEFAULT_255_1_388
10
21.8410185
20
100.7031455
40
0.434348
50
143.5289166
51
163.2980252
0
ARC
8
DEFAULT_255_1_388
10
22.0556472
20
100.6356685
40
0.659321
50
163.0418884
51
174.3139873
0
ARC
8
DEFAULT_255_1_388
10
22.3261437
20
100.6044378
40
0.9315905
50
174.050934
51
179.4174954
0
ARC
8
DEFAULT_255_1_388
10
22.2693381
20
100.5125382
40
0.8747493
50
179.6928582
51
188.7908948
0
ARC
8
DEFAULT_255_1_388
10
21.9697181
20
100.4646086
40
0.5713262
50
188.6328449
51
202.5630732
0
ARC
8
DEFAULT_255_1_388
10
21.8286018
20
100.4079142
40
0.4192612
50
202.8078931
51
216.1195888
0
ARC
8
DEFAULT_255_1_388
10
21.7375535
20
100.3346479
40
0.3025752
50
215.0755613
51
264.6379773
0
ARC
8
DEFAULT_255_1_388
10
21.7518372
20
100.4281376
40
0.3970284
50
263.8464302
51
270.0830805
0
ARC
8
DEFAULT_255_1_388
10
21.7564917
20
100.3990808
40
0.3679937
50
269.3649295
51
287.5149684
0
ARC
8
DEFAULT_255_1_388
10
21.7765358
20
100.3262714
40
0.2925408
50
288.0629019
51
323.8115617
0
ARC
8
DEFAULT_255_1_388
10
21.6785334
20
100.3993754
40
0.4148018
50
323.6546541
51
342.6591359
0
ARC
8
DEFAULT_255_1_388
10
21.4499992
20
100.473728
40
0.6551163
50
342.4092446
51
353.6451501
0
ARC
8
DEFAULT_255_1_388
10
21.1314785
20
100.5133565
40
0.9760748
50
353.4027553
51
359.4846611
0
LINE
8
DEFAULT_255_1_388
10
23.0463172
20
101.2238148
11
23.0463172
21
99.9019
0
LINE
8
DEFAULT_255_1_388
10
23.0463172
20
99.9019
11
22.8782542
21
99.9019
0
LINE
8
DEFAULT_255_1_388
10
22.8782542
20
99.9019
11
22.8782542
21
101.015995
0
LINE
8
DEFAULT_255_1_388
10
22.8782542
20
101.015995
11
22.5412247
21
100.8922066
0
LINE
8
DEFAULT_255_1_388
10
22.5412247
20
100.8922066
11
22.5412247
21
101.0440055
0
LINE
8
DEFAULT_255_1_388
10
22.5412247
20
101.0440055
11
23.0201139
21
101.2238148
0
LINE
8
DEFAULT_255_1_388
10
23.0201139
20
101.2238148
11
23.0463172
21
101.2238148
0
LINE
8
DEFAULT_255_1_388
10
23.779108
20
100.5045775
11
23.779108
21
100.6410157
0
LINE
8
DEFAULT_255_1_388
10
23.779108
20
100.6410157
11
23.9047035
21
100.6410157
0
LINE
8
DEFAULT_255_1_388
10
23.6905587
20
100.8723282
11
23.5233993
21
100.8723282
0
LINE
8
DEFAULT_255_1_388
10
23.5116529
20
100.2488688
11
23.6797159
21
100.2488688
0
LINE
8
DEFAULT_255_1_388
10
23.9047035
20
100.5045775
11
23.779108
21
100.5045775
0
ARC
8
DEFAULT_255_1_388
10
23.9014261
20
101.0226922
40
0.3816905
50
270.491971
51
281.8953028
0
ARC
8
DEFAULT_255_1_388
10
23.9285688
20
100.8987199
40
0.2547877
50
281.6690378
51
301.2943765
0
ARC
8
DEFAULT_255_1_388
10
23.9477139
20
100.8636926
40
0.2149197
50
301.7834992
51
311.754567
0
ARC
8
DEFAULT_255_1_388
10
23.9580181
20
100.852265
40
0.1995326
50
311.7325027
51
354.2803031
0
ARC
8
DEFAULT_255_1_388
10
23.8762597
20
100.866328
40
0.2823461
50
353.0941646
51
0.1174696
0
ARC
8
DEFAULT_255_1_388
10
23.8244155
20
100.8716874
40
0.3342238
50
359.1804452
51
15.0452323
0
ARC
8
DEFAULT_255_1_388
10
23.9758213
20
100.9158546
40
0.1765747
50
13.957816
51
77.6713812
0
ARC
8
DEFAULT_255_1_388
10
23.9323449
20
100.7600464
40
0.3381982
50
76.111571
51
90.7028736
0
ARC
8
DEFAULT_255_1_388
10
23.9256861
20
100.790825
40
0.3074046
50
89.5321574
51
103.5319393
0
ARC
8
DEFAULT_255_1_388
10
23.9031245
20
100.8807443
40
0.2147041
50
103.2930114
51
133.5619756
0
ARC
8
DEFAULT_255_1_388
10
23.8981186
20
100.8874351
40
0.2064084
50
133.8349761
51
173.5343225
0
ARC
8
DEFAULT_255_1_388
10
23.9794844
20
100.8730144
40
0.2889266
50
172.5097183
51
180.1360699
0
ARC
8
DEFAULT_255_1_388
10
23.8724607
20
100.876888
40
0.3490913
50
155.3483706
51
180.7484035
0
ARC
8
DEFAULT_255_1_388
10
23.8669583
20
100.8736519
40
0.3454798
50
131.5745177
51
154.4799474
0
ARC
8
DEFAULT_255_1_388
10
23.9021866
20
100.8380422
40
0.3955058
50
96.9874487
51
131.9690874
0
ARC
8
DEFAULT_255_1_388
10
23.9268758
20
100.6979407
40
0.537622
50
89.8592909
51
97.7827481
0
ARC
8
DEFAULT_255_1_388
10
23.9322867
20
100.668436
40
0.5671399
50
78.3654493
51
90.4132586
0
ARC
8
DEFAULT_255_1_388
10
23.9725508
20
100.8550918
40
0.3762034
50
56.6229818
51
78.6387103
0
ARC
8
DEFAULT_255_1_388
10
23.9967338
20
100.8973846
40
0.3275964
50
47.0254604
51
56.085558
0
ARC
8
DEFAULT_255_1_388
10
23.9989589
20
100.9018189
40
0.3228382
50
10.9207523
51
46.777927
0
ARC
8
DEFAULT_255_1_388
10
23.8455183
20
100.8663401
40
0.4802559
50
359.6364235
51
11.6087615
0
ARC
8
DEFAULT_255_1_388
10
24.0519348
20
100.8646404
40
0.273833
50
332.3549969
51
359.7179765
0
ARC
8
DEFAULT_255_1_388
10
23.9787749
20
100.8993285
40
0.3547505
50
325.2332381
51
332.8746682
0
ARC
8
DEFAULT_255_1_388
10
23.9959332
20
100.8873763
40
0.3338396
50
292.9803892
51
325.2391113
0
ARC
8
DEFAULT_255_1_388
10
23.9648528
20
100.9478679
40
0.4016959
50
292.542178
51
293.6931461
0
ARC
8
DEFAULT_255_1_388
10
24.00921
20
100.2213036
40
0.372079
50
57.643292
51
72.8626085
0
ARC
8
DEFAULT_255_1_388
10
24.0490934
20
100.2859273
40
0.2961455
50
36.7246661
51
57.4701329
0
ARC
8
DEFAULT_255_1_388
10
24.0478091
20
100.287347
40
0.2963321
50
8.054535
51
36.3561529
0
ARC
8
DEFAULT_255_1_388
10
23.9507763
20
100.2699073
40
0.3948682
50
359.8316595
51
8.5873361
0
ARC
8
DEFAULT_255_1_388
10
23.9085238
20
100.264497
40
0.4371398
50
343.9831631
51
0.557075
0
ARC
8
DEFAULT_255_1_388
10
24.0082287
20
100.2371963
40
0.3337749
50
311.6358204
51
343.7652116
0
ARC
8
DEFAULT_255_1_388
10
23.9656541
20
100.2851955
40
0.3979351
50
279.7829743
51
311.625622
0
ARC
8
DEFAULT_255_1_388
10
23.9317676
20
100.4468642
40
0.5630417
50
269.7285092
51
280.3857694
0
ARC
8
DEFAULT_255_1_388
10
23.9247989
20
100.4422241
40
0.5584119
50
256.6827433
51
270.4412869
0
ARC
8
DEFAULT_255_1_388
10
23.8866976
20
100.2864698
40
0.3980715
50
229.4223821
51
256.8554507
0
ARC
8
DEFAULT_255_1_388
10
23.8400529
20
100.2339683
40
0.3278564
50
181.8183354
51
229.6455015
0
ARC
8
DEFAULT_255_1_388
10
23.9570139
20
100.2486825
40
0.4453611
50
179.9760419
51
183.2330638
0
ARC
8
DEFAULT_255_1_388
10
23.9376691
20
100.2463781
40
0.2579652
50
179.4467996
51
196.2871626
0
ARC
8
DEFAULT_255_1_388
10
23.8828145
20
100.2313709
40
0.2011057
50
196.5661293
51
227.7059371
0
ARC
8
DEFAULT_255_1_388
10
23.9012752
20
100.2520155
40
0.2287994
50
227.7653015
51
257.8763321
0
ARC
8
DEFAULT_255_1_388
10
23.9265835
20
100.3580961
40
0.3378385
50
257.4583525
51
270.4267406
0
ARC
8
DEFAULT_255_1_388
10
23.9317084
20
100.390723
40
0.3704652
50
269.5965319
51
280.8788143
0
ARC
8
DEFAULT_255_1_388
10
23.9575312
20
100.2617529
40
0.2389415
50
280.6347277
51
299.8594068
0
ARC
8
DEFAULT_255_1_388
10
23.9790082
20
100.2209736
40
0.19289
50
300.3575552
51
314.5515667
0
ARC
8
DEFAULT_255_1_388
10
23.9696758
20
100.2278025
40
0.204312
50
315.0730962
51
345.0429362
0
ARC
8
DEFAULT_255_1_388
10
23.8658265
20
100.2580539
40
0.31246
50
344.598526
51
357.9270698
0
ARC
8
DEFAULT_255_1_388
10
23.764857
20
100.2649705
40
0.4136265
50
357.4755098
51
0.0224936
0
ARC
8
DEFAULT_255_1_388
10
23.8801448
20
100.2677099
40
0.2983498
50
359.5051035
51
13.4236939
0
ARC
8
DEFAULT_255_1_388
10
23.9776538
20
100.2926637
40
0.1977186
50
12.9497905
51
48.7550905
0
ARC
8
DEFAULT_255_1_388
10
23.957146
20
100.2646373
40
0.2323321
50
49.509109
51
72.1832965
0
ARC
8
DEFAULT_255_1_388
10
23.9168928
20
100.1451632
40
0.358397
50
71.9008458
51
84.3555134
0
ARC
8
DEFAULT_255_1_388
10
23.8987323
20
99.9919712
40
0.512641
50
84.019632
51
89.3326067
0
LINE
8
DEFAULT_255_1_388
10
22.2800946
20
105.8919553
11
22.2800946
21
105.8088274
0
LINE
8
DEFAULT_255_1_388
10
21.2220206
20
105.7970811
11
21.2220206
21
105.8919553
0
LINE
8
DEFAULT_255_1_388
10
22.1075138
20
105.7961775
11
22.1075138
21
105.8937625
0
LINE
8
DEFAULT_255_1_388
10
21.3946014
20
105.9055088
11
21.3946014
21
105.8088274
0
ARC
8
DEFAULT_255_1_388
10
21.3078684
20
105.8043726
40
0.9722364
50
350.4878118
51
0.2625322
0
ARC
8
DEFAULT_255_1_388
10
21.5658644
20
105.7599994
40
0.7104556
50
336.0277991
51
350.5787241
0
ARC
8
DEFAULT_255_1_388
10
21.7171751
20
105.6916243
40
0.544417
50
319.887443
51
336.1331163
0
ARC
8
DEFAULT_255_1_388
10
21.7849563
20
105.6373733
40
0.4576311
50
302.4806296
51
319.6144102
0
ARC
8
DEFAULT_255_1_388
10
21.7720184
20
105.6623067
40
0.4856183
50
275.8196423
51
302.1885521
0
ARC
8
DEFAULT_255_1_388
10
21.7533046
20
105.7908466
40
0.6154183
50
269.9169897
51
276.339506
0
ARC
8
DEFAULT_255_1_388
10
21.7482646
20
105.713668
40
0.5382553
50
252.5221437
51
270.441579
0
ARC
8
DEFAULT_255_1_388
10
21.7320897
20
105.6530046
40
0.4755426
50
237.5349961
51
252.1858334
0
ARC
8
DEFAULT_255_1_388
10
21.7421273
20
105.665812
40
0.4917393
50
209.0632754
51
237.3492577
0
ARC
8
DEFAULT_255_1_388
10
21.8400599
20
105.7273104
40
0.6072464
50
205.118533
51
209.6465345
0
ARC
8
DEFAULT_255_1_388
10
21.9296601
20
105.7653174
40
0.7045164
50
188.7216633
51
204.8239753
0
ARC
8
DEFAULT_255_1_388
10
22.1543376
20
105.8031387
40
0.9323368
50
180.3722704
51
188.9253909
0
ARC
8
DEFAULT_255_1_388
10
22.1512938
20
105.8964416
40
0.929284
50
169.5253055
51
180.2766048
0
ARC
8
DEFAULT_255_1_388
10
21.9372737
20
105.9358024
40
0.7116745
50
155.8314601
51
169.5088611
0
ARC
8
DEFAULT_255_1_388
10
21.79322
20
106.0026312
40
0.5528904
50
139.6259579
51
156.0379072
0
ARC
8
DEFAULT_255_1_388
10
21.7268733
20
106.0560143
40
0.4677708
50
122.6414784
51
139.3431662
0
ARC
8
DEFAULT_255_1_388
10
21.7381988
20
106.0353787
40
0.4912586
50
93.0224537
51
122.4556091
0
ARC
8
DEFAULT_255_1_388
10
21.7503509
20
105.9267776
40
0.6003837
50
89.9756766
51
93.6340839
0
ARC
8
DEFAULT_255_1_388
10
21.7547107
20
105.9716879
40
0.5554884
50
73.7463329
51
90.4234008
0
ARC
8
DEFAULT_255_1_388
10
21.774458
20
106.0481772
40
0.4765353
50
57.663051
51
73.4516911
0
ARC
8
DEFAULT_255_1_388
10
21.7735618
20
106.0506108
40
0.4749629
50
29.1441355
51
57.4146687
0
ARC
8
DEFAULT_255_1_388
10
21.6683429
20
105.9849046
40
0.5988917
50
24.0985653
51
29.732054
0
ARC
8
DEFAULT_255_1_388
10
21.5521061
20
105.9367154
40
0.7246823
50
8.6654943
51
23.8241215
0
ARC
8
DEFAULT_255_1_388
10
21.3007479
20
105.8957037
40
0.9793537
50
359.7807044
51
8.8218476
0
ARC
8
DEFAULT_255_1_388
10
21.1717184
20
105.8985731
40
0.9358078
50
359.7054632
51
8.0359751
0
ARC
8
DEFAULT_255_1_388
10
21.5092235
20
105.9477252
40
0.5947474
50
7.8926278
51
20.2962188
0
ARC
8
DEFAULT_255_1_388
10
21.6923085
20
106.0152367
40
0.3996117
50
20.3231056
51
36.4990255
0
ARC
8
DEFAULT_255_1_388
10
21.7694383
20
106.0746399
40
0.3022818
50
36.1436715
51
85.6627846
0
ARC
8
DEFAULT_255_1_388
10
21.7511638
20
105.9576881
40
0.4203853
50
84.3845912
51
90.076054
0
ARC
8
DEFAULT_255_1_388
10
21.7463993
20
106.0319416
40
0.346157
50
89.3037228
51
109.9046209
0
ARC
8
DEFAULT_255_1_388
10
21.7359826
20
106.0749379
40
0.3022217
50
110.8229774
51
143.917961
0
ARC
8
DEFAULT_255_1_388
10
21.8410185
20
105.9947455
40
0.434348
50
143.5289166
51
163.2980252
0
ARC
8
DEFAULT_255_1_388
10
22.0556472
20
105.9272685
40
0.659321
50
163.0418884
51
174.3139873
0
ARC
8
DEFAULT_255_1_388
10
22.3261437
20
105.8960378
40
0.9315905
50
174.050934
51
179.4174954
0
ARC
8
DEFAULT_255_1_388
10
22.2693381
20
105.8041382
40
0.8747493
50
179.6928582
51
188.7908948
0
ARC
8
DEFAULT_255_1_388
10
21.9697181
20
105.7562086
40
0.5713262
50
188.6328449
51
202.5630732
0
ARC
8
DEFAULT_255_1_388
10
21.8286018
20
105.6995142
40
0.4192612
50
202.8078931
51
216.1195888
0
ARC
8
DEFAULT_255_1_388
10
21.7375535
20
105.6262479
40
0.3025752
50
215.0755613
51
264.6379773
0
ARC
8
DEFAULT_255_1_388
10
21.7518372
20
105.7197376
40
0.3970284
50
263.8464302
51
270.0830805
0
ARC
8
DEFAULT_255_1_388
10
21.7564917
20
105.6906808
40
0.3679937
50
269.3649295
51
287.5149684
0
ARC
8
DEFAULT_255_1_388
10
21.7765358
20
105.6178714
40
0.2925408
50
288.0629019
51
323.8115617
0
ARC
8
DEFAULT_255_1_388
10
21.6785334
20
105.6909754
40
0.4148018
50
323.6546541
51
342.6591359
0
ARC
8
DEFAULT_255_1_388
10
21.4499992
20
105.765328
40
0.6551163
50
342.4092446
51
353.6451501
0
ARC
8
DEFAULT_255_1_388
10
21.1314785
20
105.8049565
40
0.9760748
50
353.4027553
51
359.4846611
0
LINE
8
DEFAULT_255_1_388
10
23.0463172
20
106.5154148
11
23.0463172
21
105.1935
0
LINE
8
DEFAULT_255_1_388
10
23.0463172
20
105.1935
11
22.8782542
21
105.1935
0
LINE
8
DEFAULT_255_1_388
10
22.8782542
20
105.1935
11
22.8782542
21
106.307595
0
LINE
8
DEFAULT_255_1_388
10
22.8782542
20
106.307595
11
22.5412247
21
106.1838066
0
LINE
8
DEFAULT_255_1_388
10
22.5412247
20
106.1838066
11
22.5412247
21
106.3356055
0
LINE
8
DEFAULT_255_1_388
10
22.5412247
20
106.3356055
11
23.0201139
21
106.5154148
0
LINE
8
DEFAULT_255_1_388
10
23.0201139
20
106.5154148
11
23.0463172
21
106.5154148
0
LINE
8
DEFAULT_255_1_388
10
24.3980497
20
105.3299382
11
24.3980497
21
105.1935
0
LINE
8
DEFAULT_255_1_388
10
24.3980497
20
105.1935
11
23.5360492
21
105.1935
0
LINE
8
DEFAULT_255_1_388
10
23.5360492
20
105.1935
11
23.5360492
21
105.3136741
0
LINE
8
DEFAULT_255_1_388
10
23.5360492
20
105.3136741
11
23.9914457
21
105.8196702
0
LINE
8
DEFAULT_255_1_388
10
23.6779088
20
106.1214607
11
23.5107494
21
106.1214607
0
LINE
8
DEFAULT_255_1_388
10
24.0899342
20
105.712146
11
23.737544
21
105.3299382
0
LINE
8
DEFAULT_255_1_388
10
23.737544
20
105.3299382
11
24.3980497
21
105.3299382
0
ARC
8
DEFAULT_255_1_388
10
22.4738516
20
107.1616983
40
2.0258655
50
318.5132526
51
320.7829045
0
ARC
8
DEFAULT_255_1_388
10
23.0686473
20
106.6775929
40
1.2589638
50
320.7372878
51
323.9739031
0
ARC
8
DEFAULT_255_1_388
10
23.5095405
20
106.3581554
40
0.7145141
50
323.8962701
51
328.64194
0
ARC
8
DEFAULT_255_1_388
10
23.7397662
20
106.2161545
40
0.4440242
50
328.8294576
51
331.7891185
0
ARC
8
DEFAULT_255_1_388
10
23.8519982
20
106.1582374
40
0.3177517
50
331.4254512
51
352.9365785
0
ARC
8
DEFAULT_255_1_388
10
23.8672982
20
106.154805
40
0.3021496
50
353.2257659
51
0.0166158
0
ARC
8
DEFAULT_255_1_388
10
23.8909743
20
106.1573894
40
0.2784847
50
359.486299
51
15.9343185
0
ARC
8
DEFAULT_255_1_388
10
23.948001
20
106.1727269
40
0.2194403
50
16.1712913
51
43.5286088
0
ARC
8
DEFAULT_255_1_388
10
23.9566954
20
106.1814191
40
0.2071504
50
43.4417391
51
83.1661095
0
ARC
8
DEFAULT_255_1_388
10
23.9416115
20
106.0985316
40
0.2912888
50
82.160179
51
90.1505708
0
ARC
8
DEFAULT_255_1_388
10
23.9380597
20
106.0381279
40
0.3517025
50
89.5460741
51
102.5418361
0
ARC
8
DEFAULT_255_1_388
10
23.9107317
20
106.1540933
40
0.2325748
50
102.1738499
51
129.206123
0
ARC
8
DEFAULT_255_1_388
10
23.901877
20
106.1680664
40
0.2161591
50
129.72865
51
135.753947
0
ARC
8
DEFAULT_255_1_388
10
23.9155253
20
106.1571728
40
0.2335433
50
136.1757367
51
166.3673339
0
ARC
8
DEFAULT_255_1_388
10
24.0287941
20
106.1268148
40
0.3507873
50
165.9090694
51
178.8684636
0
ARC
8
DEFAULT_255_1_388
10
24.1263712
20
106.1215263
40
0.4484624
50
178.4391136
51
180.0083808
0
ARC
8
DEFAULT_255_1_388
10
23.9684414
20
106.1259197
40
0.4577138
50
163.2878482
51
180.5581842
0
ARC
8
DEFAULT_255_1_388
10
23.8782455
20
106.1507393
40
0.3641968
50
133.4540601
51
162.947111
0
ARC
8
DEFAULT_255_1_388
10
23.8983337
20
106.1293789
40
0.3935189
50
100.7869829
51
133.4382499
0
ARC
8
DEFAULT_255_1_388
10
23.9374582
20
105.9551399
40
0.5720313
50
89.660664
51
101.3702276
0
ARC
8
DEFAULT_255_1_388
10
23.9449191
20
105.9620263
40
0.5651495
50
78.2172678
51
90.412935
0
ARC
8
DEFAULT_255_1_388
10
23.9848657
20
106.1447511
40
0.378122
50
55.9269121
51
78.4888449
0
ARC
8
DEFAULT_255_1_388
10
24.0069372
20
106.1828187
40
0.3342379
50
47.929771
51
55.4049217
0
ARC
8
DEFAULT_255_1_388
10
24.0183902
20
106.1944618
40
0.3179217
50
4.334829
51
48.0560205
0
ARC
8
DEFAULT_255_1_388
10
23.8951704
20
106.1753487
40
0.442341
50
359.9251713
51
5.5971671
0
ARC
8
DEFAULT_255_1_388
10
23.9433858
20
106.1816728
40
0.3941854
50
337.8914027
51
358.9967534
0
ARC
8
DEFAULT_255_1_388
10
23.6381429
20
106.2994295
40
0.7213271
50
326.9132501
51
338.3508308
0
ARC
8
DEFAULT_255_1_388
10
23.189754
20
106.5868105
40
1.2538973
50
319.6471833
51
327.0959558
0
ARC
8
DEFAULT_255_1_388
10
22.7584199
20
106.942605
40
1.8129975
50
317.2588228
51
319.9045804
0
LINE
8
DEFAULT_255_1_388
10
22.2874946
20
111.1836553
11
22.2874946
21
111.1005274
0
LINE
8
DEFAULT_255_1_388
10
21.2294206
20
111.0887811
11
21.2294206
21
111.1836553
0
LINE
8
DEFAULT_255_1_388
10
22.1149138
20
111.0878775
11
22.1149138
21
111.1854625
0
LINE
8
DEFAULT_255_1_388
10
21.4020014
20
111.1972088
11
21.4020014
21
111.1005274
0
ARC
8
DEFAULT_255_1_388
10
21.3152684
20
111.0960726
40
0.9722364
50
350.4878118
51
0.2625322
0
ARC
8
DEFAULT_255_1_388
10
21.5732644
20
111.0516994
40
0.7104556
50
336.0277991
51
350.5787241
0
ARC
8
DEFAULT_255_1_388
10
21.7245751
20
110.9833243
40
0.544417
50
319.887443
51
336.1331163
0
ARC
8
DEFAULT_255_1_388
10
21.7923563
20
110.9290733
40
0.4576311
50
302.4806296
51
319.6144102
0
ARC
8
DEFAULT_255_1_388
10
21.7794184
20
110.9540067
40
0.4856183
50
275.8196423
51
302.1885521
0
ARC
8
DEFAULT_255_1_388
10
21.7607046
20
111.0825466
40
0.6154183
50
269.9169897
51
276.339506
0
ARC
8
DEFAULT_255_1_388
10
21.7556646
20
111.005368
40
0.5382553
50
252.5221437
51
270.441579
0
ARC
8
DEFAULT_255_1_388
10
21.7394897
20
110.9447046
40
0.4755426
50
237.5349961
51
252.1858334
0
ARC
8
DEFAULT_255_1_388
10
21.7495273
20
110.957512
40
0.4917393
50
209.0632754
51
237.3492577
0
ARC
8
DEFAULT_255_1_388
10
21.8474599
20
111.0190104
40
0.6072464
50
205.118533
51
209.6465345
0
ARC
8
DEFAULT_255_1_388
10
21.9370601
20
111.0570174
40
0.7045164
50
188.7216633
51
204.8239753
0
ARC
8
DEFAULT_255_1_388
10
22.1617376
20
111.0948387
40
0.9323368
50
180.3722704
51
188.9253909
0
ARC
8
DEFAULT_255_1_388
10
22.1586938
20
111.1881416
40
0.929284
50
169.5253055
51
180.2766048
0
ARC
8
DEFAULT_255_1_388
10
21.9446737
20
111.2275024
40
0.7116745
50
155.8314601
51
169.5088611
0
ARC
8
DEFAULT_255_1_388
10
21.80062
20
111.2943312
40
0.5528904
50
139.6259579
51
156.0379072
0
ARC
8
DEFAULT_255_1_388
10
21.7342733
20
111.3477143
40
0.4677708
50
122.6414784
51
139.3431662
0
ARC
8
DEFAULT_255_1_388
10
21.7455988
20
111.3270787
40
0.4912586
50
93.0224537
51
122.4556091
0
ARC
8
DEFAULT_255_1_388
10
21.7577509
20
111.2184776
40
0.6003837
50
89.9756766
51
93.6340839
0
ARC
8
DEFAULT_255_1_388
10
21.7621107
20
111.2633879
40
0.5554884
50
73.7463329
51
90.4234008
0
ARC
8
DEFAULT_255_1_388
10
21.781858
20
111.3398772
40
0.4765353
50
57.663051
51
73.4516911
0
ARC
8
DEFAULT_255_1_388
10
21.7809618
20
111.3423108
40
0.4749629
50
29.1441355
51
57.4146687
0
ARC
8
DEFAULT_255_1_388
10
21.6757429
20
111.2766046
40
0.5988917
50
24.0985653
51
29.732054
0
ARC
8
DEFAULT_255_1_388
10
21.5595061
20
111.2284154
40
0.7246823
50
8.6654943
51
23.8241215
0
ARC
8
DEFAULT_255_1_388
10
21.3081479
20
111.1874037
40
0.9793537
50
359.7807044
51
8.8218476
0
ARC
8
DEFAULT_255_1_388
10
21.1791184
20
111.1902731
40
0.9358078
50
359.7054632
51
8.0359751
0
ARC
8
DEFAULT_255_1_388
10
21.5166235
20
111.2394252
40
0.5947474
50
7.8926278
51
20.2962188
0
ARC
8
DEFAULT_255_1_388
10
21.6997085
20
111.3069367
40
0.3996117
50
20.3231056
51
36.4990255
0
ARC
8
DEFAULT_255_1_388
10
21.7768383
20
111.3663399
40
0.3022818
50
36.1436715
51
85.6627846
0
ARC
8
DEFAULT_255_1_388
10
21.7585638
20
111.2493881
40
0.4203853
50
84.3845912
51
90.076054
0
ARC
8
DEFAULT_255_1_388
10
21.7537993
20
111.3236416
40
0.346157
50
89.3037228
51
109.9046209
0
ARC
8
DEFAULT_255_1_388
10
21.7433826
20
111.3666379
40
0.3022217
50
110.8229774
51
143.917961
0
ARC
8
DEFAULT_255_1_388
10
21.8484185
20
111.2864455
40
0.434348
50
143.5289166
51
163.2980252
0
ARC
8
DEFAULT_255_1_388
10
22.0630472
20
111.2189685
40
0.659321
50
163.0418884
51
174.3139873
0
ARC
8
DEFAULT_255_1_388
10
22.3335437
20
111.1877378
40
0.9315905
50
174.050934
51
179.4174954
0
ARC
8
DEFAULT_255_1_388
10
22.2767381
20
111.0958382
40
0.8747493
50
179.6928582
51
188.7908948
0
ARC
8
DEFAULT_255_1_388
10
21.9771181
20
111.0479086
40
0.5713262
50
188.6328449
51
202.5630732
0
ARC
8
DEFAULT_255_1_388
10
21.8360018
20
110.9912142
40
0.4192612
50
202.8078931
51
216.1195888
0
ARC
8
DEFAULT_255_1_388
10
21.7449535
20
110.9179479
40
0.3025752
50
215.0755613
51
264.6379773
0
ARC
8
DEFAULT_255_1_388
10
21.7592372
20
111.0114376
40
0.3970284
50
263.8464302
51
270.0830805
0
ARC
8
DEFAULT_255_1_388
10
21.7638917
20
110.9823808
40
0.3679937
50
269.3649295
51
287.5149684
0
ARC
8
DEFAULT_255_1_388
10
21.7839358
20
110.9095714
40
0.2925408
50
288.0629019
51
323.8115617
0
ARC
8
DEFAULT_255_1_388
10
21.6859334
20
110.9826754
40
0.4148018
50
323.6546541
51
342.6591359
0
ARC
8
DEFAULT_255_1_388
10
21.4573992
20
111.057028
40
0.6551163
50
342.4092446
51
353.6451501
0
ARC
8
DEFAULT_255_1_388
10
21.1388785
20
111.0966565
40
0.9760748
50
353.4027553
51
359.4846611
0
LINE
8
DEFAULT_255_1_388
10
23.0537172
20
111.8071148
11
23.0537172
21
110.4852
0
LINE
8
DEFAULT_255_1_388
10
23.0537172
20
110.4852
11
22.8856542
21
110.4852
0
LINE
8
DEFAULT_255_1_388
10
22.8856542
20
110.4852
11
22.8856542
21
111.599295
0
LINE
8
DEFAULT_255_1_388
10
22.8856542
20
111.599295
11
22.5486247
21
111.4755066
0
LINE
8
DEFAULT_255_1_388
10
22.5486247
20
111.4755066
11
22.5486247
21
111.6273055
0
LINE
8
DEFAULT_255_1_388
10
22.5486247
20
111.6273055
11
23.0275139
21
111.8071148
0
LINE
8
DEFAULT_255_1_388
10
23.0275139
20
111.8071148
11
23.0537172
21
111.8071148
0
LINE
8
DEFAULT_255_1_388
10
24.0928164
20
111.8071148
11
24.0928164
21
110.4852
0
LINE
8
DEFAULT_255_1_388
10
24.0928164
20
110.4852
11
23.9247534
21
110.4852
0
LINE
8
DEFAULT_255_1_388
10
23.9247534
20
110.4852
11
23.9247534
21
111.599295
0
LINE
8
DEFAULT_255_1_388
10
23.9247534
20
111.599295
11
23.5877238
21
111.4755066
0
LINE
8
DEFAULT_255_1_388
10
23.5877238
20
111.4755066
11
23.5877238
21
111.6273055
0
LINE
8
DEFAULT_255_1_388
10
23.5877238
20
111.6273055
11
24.066613
21
111.8071148
0
LINE
8
DEFAULT_255_1_388
10
24.066613
20
111.8071148
11
24.0928164
21
111.8071148
0
LINE
8
DEFAULT_255_1_388
10
22.2800946
20
116.4753553
11
22.2800946
21
116.3922274
0
LINE
8
DEFAULT_255_1_388
10
21.2220206
20
116.3804811
11
21.2220206
21
116.4753553
0
LINE
8
DEFAULT_255_1_388
10
22.1075138
20
116.3795775
11
22.1075138
21
116.4771625
0
LINE
8
DEFAULT_255_1_388
10
21.3946014
20
116.4889088
11
21.3946014
21
116.3922274
0
ARC
8
DEFAULT_255_1_388
10
21.3078684
20
116.3877726
40
0.9722364
50
350.4878118
51
0.2625322
0
ARC
8
DEFAULT_255_1_388
10
21.5658644
20
116.3433994
40
0.7104556
50
336.0277991
51
350.5787241
0
ARC
8
DEFAULT_255_1_388
10
21.7171751
20
116.2750243
40
0.544417
50
319.887443
51
336.1331163
0
ARC
8
DEFAULT_255_1_388
10
21.7849563
20
116.2207733
40
0.4576311
50
302.4806296
51
319.6144102
0
ARC
8
DEFAULT_255_1_388
10
21.7720184
20
116.2457067
40
0.4856183
50
275.8196423
51
302.1885521
0
ARC
8
DEFAULT_255_1_388
10
21.7533046
20
116.3742466
40
0.6154183
50
269.9169897
51
276.339506
0
ARC
8
DEFAULT_255_1_388
10
21.7482646
20
116.297068
40
0.5382553
50
252.5221437
51
270.441579
0
ARC
8
DEFAULT_255_1_388
10
21.7320897
20
116.2364046
40
0.4755426
50
237.5349961
51
252.1858334
0
ARC
8
DEFAULT_255_1_388
10
21.7421273
20
116.249212
40
0.4917393
50
209.0632754
51
237.3492577
0
ARC
8
DEFAULT_255_1_388
10
21.8400599
20
116.3107104
40
0.6072464
50
205.118533
51
209.6465345
0
ARC
8
DEFAULT_255_1_388
10
21.9296601
20
116.3487174
40
0.7045164
50
188.7216633
51
204.8239753
0
ARC
8
DEFAULT_255_1_388
10
22.1543376
20
116.3865387
40
0.9323368
50
180.3722704
51
188.9253909
0
ARC
8
DEFAULT_255_1_388
10
22.1512938
20
116.4798416
40
0.929284
50
169.5253055
51
180.2766048
0
ARC
8
DEFAULT_255_1_388
10
21.9372737
20
116.5192024
40
0.7116745
50
155.8314601
51
169.5088611
0
ARC
8
DEFAULT_255_1_388
10
21.79322
20
116.5860312
40
0.5528904
50
139.6259579
51
156.0379072
0
ARC
8
DEFAULT_255_1_388
10
21.7268733
20
116.6394143
40
0.4677708
50
122.6414784
51
139.3431662
0
ARC
8
DEFAULT_255_1_388
10
21.7381988
20
116.6187787
40
0.4912586
50
93.0224537
51
122.4556091
0
ARC
8
DEFAULT_255_1_388
10
21.7503509
20
116.5101776
40
0.6003837
50
89.9756766
51
93.6340839
0
ARC
8
DEFAULT_255_1_388
10
21.7547107
20
116.5550879
40
0.5554884
50
73.7463329
51
90.4234008
0
ARC
8
DEFAULT_255_1_388
10
21.774458
20
116.6315772
40
0.4765353
50
57.663051
51
73.4516911
0
ARC
8
DEFAULT_255_1_388
10
21.7735618
20
116.6340108
40
0.4749629
50
29.1441355
51
57.4146687
0
ARC
8
DEFAULT_255_1_388
10
21.6683429
20
116.5683046
40
0.5988917
50
24.0985653
51
29.732054
0
ARC
8
DEFAULT_255_1_388
10
21.5521061
20
116.5201154
40
0.7246823
50
8.6654943
51
23.8241215
0
ARC
8
DEFAULT_255_1_388
10
21.3007479
20
116.4791037
40
0.9793537
50
359.7807044
51
8.8218476
0
ARC
8
DEFAULT_255_1_388
10
21.1717184
20
116.4819731
40
0.9358078
50
359.7054632
51
8.0359751
0
ARC
8
DEFAULT_255_1_388
10
21.5092235
20
116.5311252
40
0.5947474
50
7.8926278
51
20.2962188
0
ARC
8
DEFAULT_255_1_388
10
21.6923085
20
116.5986367
40
0.3996117
50
20.3231056
51
36.4990255
0
ARC
8
DEFAULT_255_1_388
10
21.7694383
20
116.6580399
40
0.3022818
50
36.1436715
51
85.6627846
0
ARC
8
DEFAULT_255_1_388
10
21.7511638
20
116.5410881
40
0.4203853
50
84.3845912
51
90.076054
0
ARC
8
DEFAULT_255_1_388
10
21.7463993
20
116.6153416
40
0.346157
50
89.3037228
51
109.9046209
0
ARC
8
DEFAULT_255_1_388
10
21.7359826
20
116.6583379
40
0.3022217
50
110.8229774
51
143.917961
0
ARC
8
DEFAULT_255_1_388
10
21.8410185
20
116.5781455
40
0.434348
50
143.5289166
51
163.2980252
0
ARC
8
DEFAULT_255_1_388
10
22.0556472
20
116.5106685
40
0.659321
50
163.0418884
51
174.3139873
0
ARC
8
DEFAULT_255_1_388
10
22.3261437
20
116.4794378
40
0.9315905
50
174.050934
51
179.4174954
0
ARC
8
DEFAULT_255_1_388
10
22.2693381
20
116.3875382
40
0.8747493
50
179.6928582
51
188.7908948
0
ARC
8
DEFAULT_255_1_388
10
21.9697181
20
116.3396086
40
0.5713262
50
188.6328449
51
202.5630732
0
ARC
8
DEFAULT_255_1_388
10
21.8286018
20
116.2829142
40
0.4192612
50
202.8078931
51
216.1195888
0
ARC
8
DEFAULT_255_1_388
10
21.7375535
20
116.2096479
40
0.3025752
50
215.0755613
51
264.6379773
0
ARC
8
DEFAULT_255_1_388
10
21.7518372
20
116.3031376
40
0.3970284
50
263.8464302
51
270.0830805
0
ARC
8
DEFAULT_255_1_388
10
21.7564917
20
116.2740808
40
0.3679937
50
269.3649295
51
287.5149684
0
ARC
8
DEFAULT_255_1_388
10
21.7765358
20
116.2012714
40
0.2925408
50
288.0629019
51
323.8115617
0
ARC
8
DEFAULT_255_1_388
10
21.6785334
20
116.2743754
40
0.4148018
50
323.6546541
51
342.6591359
0
ARC
8
DEFAULT_255_1_388
10
21.4499992
20
116.348728
40
0.6551163
50
342.4092446
51
353.6451501
0
ARC
8
DEFAULT_255_1_388
10
21.1314785
20
116.3883565
40
0.9760748
50
353.4027553
51
359.4846611
0
LINE
8
DEFAULT_255_1_388
10
23.0463172
20
117.0988148
11
23.0463172
21
115.7769
0
LINE
8
DEFAULT_255_1_388
10
23.0463172
20
115.7769
11
22.8782542
21
115.7769
0
LINE
8
DEFAULT_255_1_388
10
22.8782542
20
115.7769
11
22.8782542
21
116.890995
0
LINE
8
DEFAULT_255_1_388
10
22.8782542
20
116.890995
11
22.5412247
21
116.7672066
0
LINE
8
DEFAULT_255_1_388
10
22.5412247
20
116.7672066
11
22.5412247
21
116.9190055
0
LINE
8
DEFAULT_255_1_388
10
22.5412247
20
116.9190055
11
23.0201139
21
117.0988148
0
LINE
8
DEFAULT_255_1_388
10
23.0201139
20
117.0988148
11
23.0463172
21
117.0988148
0
LINE
8
DEFAULT_255_1_388
10
24.3610035
20
116.554869
11
24.3610035
21
116.3380135
0
LINE
8
DEFAULT_255_1_388
10
23.5306278
20
116.3154244
11
23.5306278
21
116.5386048
0
LINE
8
DEFAULT_255_1_388
10
24.1938441
20
116.2928353
11
24.1938441
21
116.5666153
0
LINE
8
DEFAULT_255_1_388
10
23.6977872
20
116.5792652
11
23.6977872
21
116.3118102
0
ARC
8
DEFAULT_255_1_388
10
22.9832369
20
116.3325118
40
1.3777776
50
353.8440855
51
0.2287917
0
ARC
8
DEFAULT_255_1_388
10
23.5051387
20
116.2742414
40
0.852639
50
344.4934746
51
353.9763743
0
ARC
8
DEFAULT_255_1_388
10
23.8418194
20
116.1785191
40
0.5026273
50
329.2803599
51
344.7473406
0
ARC
8
DEFAULT_255_1_388
10
23.9533689
20
116.1173038
40
0.3754848
50
324.9361395
51
328.6153007
0
ARC
8
DEFAULT_255_1_388
10
23.9959339
20
116.0875586
40
0.3235566
50
280.5801797
51
324.9173226
0
ARC
8
DEFAULT_255_1_388
10
23.9507968
20
116.2755236
40
0.5167077
50
269.5979457
51
281.6732777
0
ARC
8
DEFAULT_255_1_388
10
23.9426871
20
116.2620113
40
0.5032026
50
256.6228565
51
270.5105488
0
ARC
8
DEFAULT_255_1_388
10
23.8974614
20
116.0878345
40
0.3233092
50
215.8618351
51
257.2787793
0
ARC
8
DEFAULT_255_1_388
10
24.0123321
20
116.1649106
40
0.4615831
50
197.9695203
51
215.2622745
0
ARC
8
DEFAULT_255_1_388
10
24.2918997
20
116.2592641
40
0.7566307
50
187.8816486
51
198.2346584
0
ARC
8
DEFAULT_255_1_388
10
24.7372235
20
116.3235453
40
1.2065653
50
180.8977266
51
188.0054894
0
ARC
8
DEFAULT_255_1_388
10
25.0422449
20
116.33504
40
1.5117443
50
180.7434591
51
181.152202
0
ARC
8
DEFAULT_255_1_388
10
24.8747445
20
116.5440371
40
1.3441277
50
173.7674302
51
180.2315596
0
ARC
8
DEFAULT_255_1_388
10
24.3665314
20
116.6014779
40
0.8326847
50
164.3058537
51
173.9000553
0
ARC
8
DEFAULT_255_1_388
10
24.0389314
20
116.6958652
40
0.4917711
50
148.7922028
51
164.5682288
0
ARC
8
DEFAULT_255_1_388
10
23.9320051
20
116.7555457
40
0.3694204
50
144.5883979
51
148.1161588
0
ARC
8
DEFAULT_255_1_388
10
23.8932796
20
116.7825667
40
0.322202
50
101.6440149
51
144.5142619
0
ARC
8
DEFAULT_255_1_388
10
23.9410989
20
116.5925337
40
0.5180451
50
89.528284
51
102.5820197
0
ARC
8
DEFAULT_255_1_388
10
23.949998
20
116.5881376
40
0.5224441
50
77.0437914
51
90.508231
0
ARC
8
DEFAULT_255_1_388
10
23.9952234
20
116.7729272
40
0.3322297
50
48.2777708
51
77.4996087
0
ARC
8
DEFAULT_255_1_388
10
24.0033974
20
116.7874557
40
0.315966
50
36.3141586
51
47.6307332
0
ARC
8
DEFAULT_255_1_388
10
23.9056696
20
116.7216159
40
0.4337313
50
18.2931065
51
35.6770203
0
ARC
8
DEFAULT_255_1_388
10
23.6195537
20
116.6234107
40
0.7362203
50
8.0246996
51
18.5605636
0
ARC
8
DEFAULT_255_1_388
10
23.1511893
20
116.5542432
40
1.2096583
50
1.127539
51
8.1718423
0
ARC
8
DEFAULT_255_1_388
10
22.7863026
20
116.5399374
40
1.5747719
50
0.5432713
51
1.38669
0
ARC
8
DEFAULT_255_1_388
10
22.9920405
20
116.5706163
40
1.2018103
50
359.8092569
51
4.9408001
0
ARC
8
DEFAULT_255_1_388
10
23.4656986
20
116.61289
40
0.7262727
50
4.8364937
51
12.2906017
0
ARC
8
DEFAULT_255_1_388
10
23.7756451
20
116.6819485
40
0.4087324
50
12.0806994
51
23.8171225
0
ARC
8
DEFAULT_255_1_388
10
23.9076847
20
116.7378508
40
0.2653719
50
24.2874621
51
31.3934353
0
ARC
8
DEFAULT_255_1_388
10
23.9667283
20
116.7764822
40
0.1948607
50
30.7407708
51
82.4658033
0
ARC
8
DEFAULT_255_1_388
10
23.9464944
20
116.6771017
40
0.2961198
50
81.1057101
51
90.2187368
0
ARC
8
DEFAULT_255_1_388
10
23.9424755
20
116.7061421
40
0.2670929
50
89.380395
51
105.6763916
0
ARC
8
DEFAULT_255_1_388
10
23.9218477
20
116.781132
40
0.1893189
50
105.7980655
51
149.7387869
0
ARC
8
DEFAULT_255_1_388
10
24.0415617
20
116.7091719
40
0.3289892
50
149.4208441
51
163.628295
0
ARC
8
DEFAULT_255_1_388
10
24.2767847
20
116.6374345
40
0.5749004
50
163.3764549
51
172.141138
0
ARC
8
DEFAULT_255_1_388
10
24.6480569
20
116.5842582
40
0.9499585
50
172.0258462
51
178.0705453
0
ARC
8
DEFAULT_255_1_388
10
24.9902121
20
116.5680682
40
1.2924734
50
177.8639301
51
179.5036263
0
ARC
8
DEFAULT_255_1_388
10
24.868314
20
116.3077151
40
1.170534
50
179.7995545
51
185.246089
0
ARC
8
DEFAULT_255_1_388
10
24.4134733
20
116.2646404
40
0.7136613
50
185.1411911
51
193.0082205
0
ARC
8
DEFAULT_255_1_388
10
24.1160994
20
116.1943441
40
0.4080987
50
192.7897338
51
205.2507384
0
ARC
8
DEFAULT_255_1_388
10
23.9983204
20
116.1417538
40
0.2791522
50
205.8001921
51
211.2545876
0
ARC
8
DEFAULT_255_1_388
10
23.9394743
20
116.1023132
40
0.2084074
50
210.3789935
51
238.4007996
0
ARC
8
DEFAULT_255_1_388
10
23.9372829
20
116.1075786
40
0.2117943
50
239.6521916
51
265.9793852
0
ARC
8
DEFAULT_255_1_388
10
23.9468678
20
116.1832358
40
0.2879689
50
265.1324455
51
270.0603288
0
ARC
8
DEFAULT_255_1_388
10
23.9501055
20
116.1467418
40
0.2514919
50
269.3314378
51
287.2180039
0
ARC
8
DEFAULT_255_1_388
10
23.9656137
20
116.0901291
40
0.1928357
50
287.7957942
51
329.0808983
0
ARC
8
DEFAULT_255_1_388
10
23.8578894
20
116.1573651
40
0.319808
50
328.6635261
51
343.3325043
0
ARC
8
DEFAULT_255_1_388
10
23.6134353
20
116.2335195
40
0.5758408
50
343.0498092
51
351.9392499
0
ARC
8
DEFAULT_255_1_388
10
23.2233674
20
116.2910205
40
0.9701202
50
351.8071632
51
357.7957897
0
ARC
8
DEFAULT_255_1_388
10
22.8599151
20
116.3098724
40
1.3340376
50
357.5870923
51
359.2682493
0
LINE
8
DEFAULT_255_1_388
10
23.3209946
20
121.7669553
11
23.3209946
21
121.6838274
0
LINE
8
DEFAULT_255_1_388
10
22.2629206
20
121.6720811
11
22.2629206
21
121.7669553
0
LINE
8
DEFAULT_255_1_388
10
23.1484138
20
121.6711775
11
23.1484138
21
121.7687625
0
LINE
8
DEFAULT_255_1_388
10
22.4355014
20
121.7805088
11
22.4355014
21
121.6838274
0
ARC
8
DEFAULT_255_1_388
10
22.3487684
20
121.6793726
40
0.9722364
50
350.4878118
51
0.2625322
0
ARC
8
DEFAULT_255_1_388
10
22.6067644
20
121.6349994
40
0.7104556
50
336.0277991
51
350.5787241
0
ARC
8
DEFAULT_255_1_388
10
22.7580751
20
121.5666243
40
0.544417
50
319.887443
51
336.1331163
0
ARC
8
DEFAULT_255_1_388
10
22.8258563
20
121.5123733
40
0.4576311
50
302.4806296
51
319.6144102
0
ARC
8
DEFAULT_255_1_388
10
22.8129184
20
121.5373067
40
0.4856183
50
275.8196423
51
302.1885521
0
ARC
8
DEFAULT_255_1_388
10
22.7942046
20
121.6658466
40
0.6154183
50
269.9169897
51
276.339506
0
ARC
8
DEFAULT_255_1_388
10
22.7891646
20
121.588668
40
0.5382553
50
252.5221437
51
270.441579
0
ARC
8
DEFAULT_255_1_388
10
22.7729897
20
121.5280046
40
0.4755426
50
237.5349961
51
252.1858334
0
ARC
8
DEFAULT_255_1_388
10
22.7830273
20
121.540812
40
0.4917393
50
209.0632754
51
237.3492577
0
ARC
8
DEFAULT_255_1_388
10
22.8809599
20
121.6023104
40
0.6072464
50
205.118533
51
209.6465345
0
ARC
8
DEFAULT_255_1_388
10
22.9705601
20
121.6403174
40
0.7045164
50
188.7216633
51
204.8239753
0
ARC
8
DEFAULT_255_1_388
10
23.1952376
20
121.6781387
40
0.9323368
50
180.3722704
51
188.9253909
0
ARC
8
DEFAULT_255_1_388
10
23.1921938
20
121.7714416
40
0.929284
50
169.5253055
51
180.2766048
0
ARC
8
DEFAULT_255_1_388
10
22.9781737
20
121.8108024
40
0.7116745
50
155.8314601
51
169.5088611
0
ARC
8
DEFAULT_255_1_388
10
22.83412
20
121.8776312
40
0.5528904
50
139.6259579
51
156.0379072
0
ARC
8
DEFAULT_255_1_388
10
22.7677733
20
121.9310143
40
0.4677708
50
122.6414784
51
139.3431662
0
ARC
8
DEFAULT_255_1_388
10
22.7790988
20
121.9103787
40
0.4912586
50
93.0224537
51
122.4556091
0
ARC
8
DEFAULT_255_1_388
10
22.7912509
20
121.8017776
40
0.6003837
50
89.9756766
51
93.6340839
0
ARC
8
DEFAULT_255_1_388
10
22.7956107
20
121.8466879
40
0.5554884
50
73.7463329
51
90.4234008
0
ARC
8
DEFAULT_255_1_388
10
22.815358
20
121.9231772
40
0.4765353
50
57.663051
51
73.4516911
0
ARC
8
DEFAULT_255_1_388
10
22.8144618
20
121.9256108
40
0.4749629
50
29.1441355
51
57.4146687
0
ARC
8
DEFAULT_255_1_388
10
22.7092429
20
121.8599046
40
0.5988917
50
24.0985653
51
29.732054
0
ARC
8
DEFAULT_255_1_388
10
22.5930061
20
121.8117154
40
0.7246823
50
8.6654943
51
23.8241215
0
ARC
8
DEFAULT_255_1_388
10
22.3416479
20
121.7707037
40
0.9793537
50
359.7807044
51
8.8218476
0
ARC
8
DEFAULT_255_1_388
10
22.2126184
20
121.7735731
40
0.9358078
50
359.7054632
51
8.0359751
0
ARC
8
DEFAULT_255_1_388
10
22.5501235
20
121.8227252
40
0.5947474
50
7.8926278
51
20.2962188
0
ARC
8
DEFAULT_255_1_388
10
22.7332085
20
121.8902367
40
0.3996117
50
20.3231056
51
36.4990255
0
ARC
8
DEFAULT_255_1_388
10
22.8103383
20
121.9496399
40
0.3022818
50
36.1436715
51
85.6627846
0
ARC
8
DEFAULT_255_1_388
10
22.7920638
20
121.8326881
40
0.4203853
50
84.3845912
51
90.076054
0
ARC
8
DEFAULT_255_1_388
10
22.7872993
20
121.9069416
40
0.346157
50
89.3037228
51
109.9046209
0
ARC
8
DEFAULT_255_1_388
10
22.7768826
20
121.9499379
40
0.3022217
50
110.8229774
51
143.917961
0
ARC
8
DEFAULT_255_1_388
10
22.8819185
20
121.8697455
40
0.434348
50
143.5289166
51
163.2980252
0
ARC
8
DEFAULT_255_1_388
10
23.0965472
20
121.8022685
40
0.659321
50
163.0418884
51
174.3139873
0
ARC
8
DEFAULT_255_1_388
10
23.3670437
20
121.7710378
40
0.9315905
50
174.050934
51
179.4174954
0
ARC
8
DEFAULT_255_1_388
10
23.3102381
20
121.6791382
40
0.8747493
50
179.6928582
51
188.7908948
0
ARC
8
DEFAULT_255_1_388
10
23.0106181
20
121.6312086
40
0.5713262
50
188.6328449
51
202.5630732
0
ARC
8
DEFAULT_255_1_388
10
22.8695018
20
121.5745142
40
0.4192612
50
202.8078931
51
216.1195888
0
ARC
8
DEFAULT_255_1_388
10
22.7784535
20
121.5012479
40
0.3025752
50
215.0755613
51
264.6379773
0
ARC
8
DEFAULT_255_1_388
10
22.7927372
20
121.5947376
40
0.3970284
50
263.8464302
51
270.0830805
0
ARC
8
DEFAULT_255_1_388
10
22.7973917
20
121.5656808
40
0.3679937
50
269.3649295
51
287.5149684
0
ARC
8
DEFAULT_255_1_388
10
22.8174358
20
121.4928714
40
0.2925408
50
288.0629019
51
323.8115617
0
ARC
8
DEFAULT_255_1_388
10
22.7194334
20
121.5659754
40
0.4148018
50
323.6546541
51
342.6591359
0
ARC
8
DEFAULT_255_1_388
10
22.4908992
20
121.640328
40
0.6551163
50
342.4092446
51
353.6451501
0
ARC
8
DEFAULT_255_1_388
10
22.1723785
20
121.6799565
40
0.9760748
50
353.4027553
51
359.4846611
0
LINE
8
DEFAULT_255_1_388
10
24.3465402
20
121.8582153
11
24.3465402
21
121.8094229
0
LINE
8
DEFAULT_255_1_388
10
23.7366342
20
121.0675964
11
23.7041059
21
121.0675964
0
LINE
8
DEFAULT_255_1_388
10
23.7041059
20
121.0675964
11
23.7041059
21
121.2085525
0
LINE
8
DEFAULT_255_1_388
10
23.7041059
20
121.2085525
11
23.7393449
21
121.2085525
0
LINE
8
DEFAULT_255_1_388
10
24.1793808
20
121.825687
11
24.1793808
21
121.8925508
0
ARC
8
DEFAULT_255_1_388
10
23.86509
20
121.9095877
40
0.4089973
50
297.4036461
51
320.0168133
0
ARC
8
DEFAULT_255_1_388
10
23.897708
20
121.8469072
40
0.3383378
50
270.2631886
51
297.3852322
0
ARC
8
DEFAULT_255_1_388
10
23.8938756
20
121.9006343
40
0.3920983
50
269.9969069
51
270.7871389
0
ARC
8
DEFAULT_255_1_388
10
23.891008
20
121.8988737
40
0.3903482
50
254.5997295
51
270.4178147
0
ARC
8
DEFAULT_255_1_388
10
23.8749611
20
121.8353693
40
0.3248657
50
236.4717231
51
254.3539376
0
ARC
8
DEFAULT_255_1_388
10
23.8925343
20
121.8589999
40
0.3542746
50
208.4727261
51
236.2134628
0
ARC
8
DEFAULT_255_1_388
10
23.9644106
20
121.9029676
40
0.4384402
50
204.3450776
51
209.0455365
0
ARC
8
DEFAULT_255_1_388
10
24.0408482
20
121.93538
40
0.5214459
50
183.9375459
51
204.1275509
0
ARC
8
DEFAULT_255_1_388
10
24.1430788
20
121.9463863
40
0.6242037
50
179.9652726
51
184.3010611
0
ARC
8
DEFAULT_255_1_388
10
24.1160334
20
121.9501004
40
0.5971675
50
166.7585952
51
180.3200491
0
ARC
8
DEFAULT_255_1_388
10
24.0208142
20
121.9707979
40
0.4997418
50
154.6954866
51
166.5679151
0
ARC
8
DEFAULT_255_1_388
10
23.9248382
20
122.0191411
40
0.3923208
50
136.3325251
51
155.0871367
0
ARC
8
DEFAULT_255_1_388
10
23.8932301
20
122.0462271
40
0.3507618
50
121.2365985
51
135.9680081
0
ARC
8
DEFAULT_255_1_388
10
23.9090366
20
122.0169541
40
0.3839917
50
96.8454764
51
120.9881329
0
ARC
8
DEFAULT_255_1_388
10
23.9254172
20
121.9116942
40
0.4904679
50
89.887204
51
97.2797758
0
ARC
8
DEFAULT_255_1_388
10
23.9313145
20
121.9834652
40
0.418725
50
70.6505767
51
90.6748382
0
ARC
8
DEFAULT_255_1_388
10
23.9460842
20
122.0412091
40
0.3593866
50
36.7493297
51
69.8220487
0
ARC
8
DEFAULT_255_1_388
10
23.8337189
20
121.9536446
40
0.5018201
50
15.3958155
51
37.0841102
0
ARC
8
DEFAULT_255_1_388
10
23.5941473
20
121.8838111
40
0.7513436
50
3.9487796
51
15.6798517
0
ARC
8
DEFAULT_255_1_388
10
23.3240115
20
121.859481
40
1.0225293
50
359.9290791
51
4.266464
0
ARC
8
DEFAULT_255_1_388
10
22.8059033
20
121.8019372
40
1.5406551
50
352.8365702
51
0.2783851
0
ARC
8
DEFAULT_255_1_388
10
23.4007263
20
121.7246664
40
0.9408425
50
341.8359339
51
352.9884057
0
ARC
8
DEFAULT_255_1_388
10
23.7628251
20
121.6026144
40
0.5587481
50
322.8579243
51
342.1527461
0
ARC
8
DEFAULT_255_1_388
10
23.8599943
20
121.536335
40
0.4413099
50
319.3348471
51
322.100194
0
ARC
8
DEFAULT_255_1_388
10
23.8251874
20
121.5712814
40
0.4904992
50
285.954114
51
318.8878716
0
ARC
8
DEFAULT_255_1_388
10
23.7434311
20
121.8311865
40
0.7628991
50
272.9280841
51
286.4924389
0
ARC
8
DEFAULT_255_1_388
10
23.7220616
20
122.084624
40
1.017132
50
270.8209173
51
273.4010121
0
ARC
8
DEFAULT_255_1_388
10
23.7320639
20
121.8798073
40
0.6712943
50
270.6214576
51
281.4062333
0
ARC
8
DEFAULT_255_1_388
10
23.7804363
20
121.648525
40
0.4350167
50
281.1852583
51
299.0622058
0
ARC
8
DEFAULT_255_1_388
10
23.8224608
20
121.5674138
40
0.3437146
50
299.5068171
51
313.1200142
0
ARC
8
DEFAULT_255_1_388
10
23.8249346
20
121.5584959
40
0.3355418
50
313.8525725
51
338.5989631
0
ARC
8
DEFAULT_255_1_388
10
23.6422474
20
121.6335576
40
0.5330317
50
338.2523315
51
351.2431701
0
ARC
8
DEFAULT_255_1_388
10
23.3710225
20
121.6796494
40
0.8081235
50
350.940933
51
357.6690137
0
ARC
8
DEFAULT_255_1_388
10
23.9212105
20
121.9049048
40
0.2581236
50
269.9447107
51
306.8249644
0
ARC
8
DEFAULT_255_1_388
10
23.8945406
20
121.952506
40
0.3122948
50
305.5071046
51
327.0773808
0
ARC
8
DEFAULT_255_1_388
10
23.9078458
20
121.9418445
40
0.2953369
50
327.4106457
51
336.8396801
0
ARC
8
DEFAULT_255_1_388
10
23.5598172
20
121.8961932
40
0.6195743
50
359.663158
51
10.1176387
0
ARC
8
DEFAULT_255_1_388
10
23.7570935
20
121.9326922
40
0.4189561
50
9.9431549
51
26.7699242
0
ARC
8
DEFAULT_255_1_388
10
23.8242921
20
121.9636796
40
0.3450125
50
27.2018067
51
34.6833639
0
ARC
8
DEFAULT_255_1_388
10
23.8793534
20
122.005056
40
0.2762035
50
34.124913
51
50.30709
0
ARC
8
DEFAULT_255_1_388
10
23.9296016
20
122.0651741
40
0.1978518
50
50.3850304
51
90.6705051
0
ARC
8
DEFAULT_255_1_388
10
23.924341
20
122.0309074
40
0.2321235
50
89.2729817
51
111.9140267
0
ARC
8
DEFAULT_255_1_388
10
23.9221498
20
122.0467308
40
0.2166604
50
112.9381864
51
142.5320936
0
ARC
8
DEFAULT_255_1_388
10
23.9835987
20
121.9968392
40
0.2957902
50
142.1024021
51
166.3835244
0
ARC
8
DEFAULT_255_1_388
10
24.1164956
20
121.9625213
40
0.4330361
50
166.1100968
51
178.6653563
0
ARC
8
DEFAULT_255_1_388
10
24.2346882
20
121.9559061
40
0.5513642
50
178.2641888
51
180.010994
0
ARC
8
DEFAULT_255_1_388
10
24.1441384
20
121.9527136
40
0.4608248
50
179.6162225
51
191.8786013
0
ARC
8
DEFAULT_255_1_388
10
24.0068693
20
121.922359
40
0.3202502
50
191.6192934
51
215.2970746
0
ARC
8
DEFAULT_255_1_388
10
23.9829349
20
121.9080963
40
0.2924827
50
215.7258926
51
216.5355437
0
ARC
8
DEFAULT_255_1_388
10
23.9240969
20
121.8607919
40
0.2170661
50
215.7486606
51
239.9728403
0
ARC
8
DEFAULT_255_1_388
10
23.9162135
20
121.8550838
40
0.208217
50
241.065081
51
269.280972
0
ARC
8
DEFAULT_255_1_388
10
23.9209293
20
121.9106327
40
0.2638514
50
268.4083352
51
270.0069622
0
LINE
8
DEFAULT_255_1_388
10
23.3209946
20
127.0586553
11
23.3209946
21
126.9755274
0
LINE
8
DEFAULT_255_1_388
10
22.2629206
20
126.9637811
11
22.2629206
21
127.0586553
0
LINE
8
DEFAULT_255_1_388
10
23.1484138
20
126.9628775
11
23.1484138
21
127.0604625
0
LINE
8
DEFAULT_255_1_388
10
22.4355014
20
127.0722088
11
22.4355014
21
126.9755274
0
ARC
8
DEFAULT_255_1_388
10
22.3487684
20
126.9710726
40
0.9722364
50
350.4878118
51
0.2625322
0
ARC
8
DEFAULT_255_1_388
10
22.6067644
20
126.9266994
40
0.7104556
50
336.0277991
51
350.5787241
0
ARC
8
DEFAULT_255_1_388
10
22.7580751
20
126.8583243
40
0.544417
50
319.887443
51
336.1331163
0
ARC
8
DEFAULT_255_1_388
10
22.8258563
20
126.8040733
40
0.4576311
50
302.4806296
51
319.6144102
0
ARC
8
DEFAULT_255_1_388
10
22.8129184
20
126.8290067
40
0.4856183
50
275.8196423
51
302.1885521
0
ARC
8
DEFAULT_255_1_388
10
22.7942046
20
126.9575466
40
0.6154183
50
269.9169897
51
276.339506
0
ARC
8
DEFAULT_255_1_388
10
22.7891646
20
126.880368
40
0.5382553
50
252.5221437
51
270.441579
0
ARC
8
DEFAULT_255_1_388
10
22.7729897
20
126.8197046
40
0.4755426
50
237.5349961
51
252.1858334
0
ARC
8
DEFAULT_255_1_388
10
22.7830273
20
126.832512
40
0.4917393
50
209.0632754
51
237.3492577
0
ARC
8
DEFAULT_255_1_388
10
22.8809599
20
126.8940104
40
0.6072464
50
205.118533
51
209.6465345
0
ARC
8
DEFAULT_255_1_388
10
22.9705601
20
126.9320174
40
0.7045164
50
188.7216633
51
204.8239753
0
ARC
8
DEFAULT_255_1_388
10
23.1952376
20
126.9698387
40
0.9323368
50
180.3722704
51
188.9253909
0
ARC
8
DEFAULT_255_1_388
10
23.1921938
20
127.0631416
40
0.929284
50
169.5253055
51
180.2766048
0
ARC
8
DEFAULT_255_1_388
10
22.9781737
20
127.1025024
40
0.7116745
50
155.8314601
51
169.5088611
0
ARC
8
DEFAULT_255_1_388
10
22.83412
20
127.1693312
40
0.5528904
50
139.6259579
51
156.0379072
0
ARC
8
DEFAULT_255_1_388
10
22.7677733
20
127.2227143
40
0.4677708
50
122.6414784
51
139.3431662
0
ARC
8
DEFAULT_255_1_388
10
22.7790988
20
127.2020787
40
0.4912586
50
93.0224537
51
122.4556091
0
ARC
8
DEFAULT_255_1_388
10
22.7912509
20
127.0934776
40
0.6003837
50
89.9756766
51
93.6340839
0
ARC
8
DEFAULT_255_1_388
10
22.7956107
20
127.1383879
40
0.5554884
50
73.7463329
51
90.4234008
0
ARC
8
DEFAULT_255_1_388
10
22.815358
20
127.2148772
40
0.4765353
50
57.663051
51
73.4516911
0
ARC
8
DEFAULT_255_1_388
10
22.8144618
20
127.2173108
40
0.4749629
50
29.1441355
51
57.4146687
0
ARC
8
DEFAULT_255_1_388
10
22.7092429
20
127.1516046
40
0.5988917
50
24.0985653
51
29.732054
0
ARC
8
DEFAULT_255_1_388
10
22.5930061
20
127.1034154
40
0.7246823
50
8.6654943
51
23.8241215
0
ARC
8
DEFAULT_255_1_388
10
22.3416479
20
127.0624037
40
0.9793537
50
359.7807044
51
8.8218476
0
ARC
8
DEFAULT_255_1_388
10
22.2126184
20
127.0652731
40
0.9358078
50
359.7054632
51
8.0359751
0
ARC
8
DEFAULT_255_1_388
10
22.5501235
20
127.1144252
40
0.5947474
50
7.8926278
51
20.2962188
0
ARC
8
DEFAULT_255_1_388
10
22.7332085
20
127.1819367
40
0.3996117
50
20.3231056
51
36.4990255
0
ARC
8
DEFAULT_255_1_388
10
22.8103383
20
127.2413399
40
0.3022818
50
36.1436715
51
85.6627846
0
ARC
8
DEFAULT_255_1_388
10
22.7920638
20
127.1243881
40
0.4203853
50
84.3845912
51
90.076054
0
ARC
8
DEFAULT_255_1_388
10
22.7872993
20
127.1986416
40
0.346157
50
89.3037228
51
109.9046209
0
ARC
8
DEFAULT_255_1_388
10
22.7768826
20
127.2416379
40
0.3022217
50
110.8229774
51
143.917961
0
ARC
8
DEFAULT_255_1_388
10
22.8819185
20
127.1614455
40
0.434348
50
143.5289166
51
163.2980252
0
ARC
8
DEFAULT_255_1_388
10
23.0965472
20
127.0939685
40
0.659321
50
163.0418884
51
174.3139873
0
ARC
8
DEFAULT_255_1_388
10
23.3670437
20
127.0627378
40
0.9315905
50
174.050934
51
179.4174954
0
ARC
8
DEFAULT_255_1_388
10
23.3102381
20
126.9708382
40
0.8747493
50
179.6928582
51
188.7908948
0
ARC
8
DEFAULT_255_1_388
10
23.0106181
20
126.9229086
40
0.5713262
50
188.6328449
51
202.5630732
0
ARC
8
DEFAULT_255_1_388
10
22.8695018
20
126.8662142
40
0.4192612
50
202.8078931
51
216.1195888
0
ARC
8
DEFAULT_255_1_388
10
22.7784535
20
126.7929479
40
0.3025752
50
215.0755613
51
264.6379773
0
ARC
8
DEFAULT_255_1_388
10
22.7927372
20
126.8864376
40
0.3970284
50
263.8464302
51
270.0830805
0
ARC
8
DEFAULT_255_1_388
10
22.7973917
20
126.8573808
40
0.3679937
50
269.3649295
51
287.5149684
0
ARC
8
DEFAULT_255_1_388
10
22.8174358
20
126.7845714
40
0.2925408
50
288.0629019
51
323.8115617
0
ARC
8
DEFAULT_255_1_388
10
22.7194334
20
126.8576754
40
0.4148018
50
323.6546541
51
342.6591359
0
ARC
8
DEFAULT_255_1_388
10
22.4908992
20
126.932028
40
0.6551163
50
342.4092446
51
353.6451501
0
ARC
8
DEFAULT_255_1_388
10
22.1723785
20
126.9716565
40
0.9760748
50
353.4027553
51
359.4846611
0
ARC
8
DEFAULT_255_1_388
10
24.0182006
20
127.329572
40
0.3175098
50
338.8762533
51
0.5167111
0
ARC
8
DEFAULT_255_1_388
10
24.03716
20
127.32446
40
0.2979894
50
325.8415285
51
338.4793574
0
ARC
8
DEFAULT_255_1_388
10
23.9932233
20
127.3549242
40
0.351452
50
296.7587686
51
325.7536481
0
ARC
8
DEFAULT_255_1_388
10
23.9603861
20
127.4103363
40
0.4157374
50
296.0927901
51
297.3613472
0
ARC
8
DEFAULT_255_1_388
10
23.9898056
20
126.6720593
40
0.395855
50
47.9007294
51
67.1948823
0
ARC
8
DEFAULT_255_1_388
10
24.0118698
20
126.6997599
40
0.360516
50
35.2363914
51
47.551141
0
ARC
8
DEFAULT_255_1_388
10
24.0413102
20
126.7194093
40
0.3251343
50
359.2759765
51
35.4014143
0
ARC
8
DEFAULT_255_1_388
10
23.9575029
20
126.7111787
40
0.4089365
50
343.1293083
51
0.5775513
0
ARC
8
DEFAULT_255_1_388
10
24.0390142
20
126.6887336
40
0.3244269
50
310.8496669
51
342.7449331
0
ARC
8
DEFAULT_255_1_388
10
23.9920017
20
126.7423913
40
0.3957651
50
281.5472888
51
310.9170406
0
ARC
8
DEFAULT_255_1_388
10
23.9518891
20
126.9170814
40
0.5749654
50
269.619248
51
281.9789564
0
ARC
8
DEFAULT_255_1_388
10
23.9437669
20
126.9171776
40
0.5750649
50
257.4585678
51
270.4285689
0
ARC
8
DEFAULT_255_1_388
10
23.9009189
20
126.7367741
40
0.389671
50
228.7554326
51
257.8484789
0
ARC
8
DEFAULT_255_1_388
10
23.8660675
20
126.6948228
40
0.335154
50
184.0104975
51
228.5071184
0
ARC
8
DEFAULT_255_1_388
10
23.9969067
20
126.714743
40
0.4671891
50
179.9315832
51
185.3253753
0
ARC
8
DEFAULT_255_1_388
10
23.864558
20
126.7189592
40
0.33486
50
145.6796023
51
180.6259786
0
ARC
8
DEFAULT_255_1_388
10
23.8829346
20
126.7061271
40
0.3572723
50
115.5537685
51
145.6415986
0
ARC
8
DEFAULT_255_1_388
10
23.921239
20
126.6375087
40
0.4357296
50
113.243307
51
116.2057839
0
ARC
8
DEFAULT_255_1_388
10
23.9041041
20
127.3572379
40
0.3549126
50
222.9549744
51
244.1370481
0
ARC
8
DEFAULT_255_1_388
10
23.8903685
20
127.3418378
40
0.3343711
50
213.3436887
51
222.6274467
0
ARC
8
DEFAULT_255_1_388
10
23.8687754
20
127.3271653
40
0.3082678
50
180.431584
51
213.271499
0
ARC
8
DEFAULT_255_1_388
10
23.9322753
20
127.3324296
40
0.3718363
50
179.9991191
51
181.1690594
0
ARC
8
DEFAULT_255_1_388
10
23.9795209
20
127.3363072
40
0.4190996
50
164.6186169
51
180.529336
0
ARC
8
DEFAULT_255_1_388
10
23.8784858
20
127.363478
40
0.3144772
50
132.2455553
51
164.5090724
0
ARC
8
DEFAULT_255_1_388
10
23.9107836
20
127.326907
40
0.3632644
50
100.7053914
51
132.1386381
0
ARC
8
DEFAULT_255_1_388
10
23.9450897
20
127.1719118
40
0.5219578
50
89.6730358
51
101.2451698
0
ARC
8
DEFAULT_255_1_388
10
23.9520888
20
127.1915648
40
0.5023124
50
76.287748
51
90.4586006
0
ARC
8
DEFAULT_255_1_388
10
23.986539
20
127.3290671
40
0.3605639
50
47.8240511
51
76.4266241
0
ARC
8
DEFAULT_255_1_388
10
24.0115775
20
127.3583599
40
0.3220463
50
6.9168387
51
47.6262497
0
ARC
8
DEFAULT_255_1_388
10
23.8781228
20
127.3337004
40
0.4575765
50
359.8415968
51
7.9697453
0
ARC
8
DEFAULT_255_1_388
10
23.9165497
20
126.7216519
40
0.2827228
50
359.445363
51
16.9256873
0
ARC
8
DEFAULT_255_1_388
10
23.9692931
20
126.7361781
40
0.2280396
50
17.2920767
51
45.4630727
0
ARC
8
DEFAULT_255_1_388
10
23.9632067
20
126.7309324
40
0.2360485
50
45.30305
51
83.1920945
0
ARC
8
DEFAULT_255_1_388
10
23.9470811
20
126.6407473
40
0.3275527
50
82.2612665
51
90.1434275
0
ARC
8
DEFAULT_255_1_388
10
23.9436088
20
126.6669869
40
0.3013237
50
89.4956434
51
104.8580688
0
ARC
8
DEFAULT_255_1_388
10
23.9237277
20
126.7423455
40
0.2233867
50
104.8856641
51
135.244616
0
ARC
8
DEFAULT_255_1_388
10
23.9293266
20
126.7373352
40
0.2308906
50
135.3399546
51
172.1044062
0
ARC
8
DEFAULT_255_1_388
10
24.0200791
20
126.7199667
40
0.3232034
50
171.2645637
51
180.186429
0
ARC
8
DEFAULT_255_1_388
10
24.0010795
20
126.7163426
40
0.304213
50
179.5154935
51
193.6464289
0
ARC
8
DEFAULT_255_1_388
10
23.9092471
20
126.6929473
40
0.209456
50
193.3540274
51
225.8258581
0
ARC
8
DEFAULT_255_1_388
10
23.9138343
20
126.7009076
40
0.2183738
50
226.4180634
51
255.8552336
0
ARC
8
DEFAULT_255_1_388
10
23.942681
20
126.8062521
40
0.3275812
50
255.4654104
51
268.7987425
0
ARC
8
DEFAULT_255_1_388
10
23.9479987
20
126.9004545
40
0.4218877
50
268.3449238
51
270.0094605
0
ARC
8
DEFAULT_255_1_388
10
23.950622
20
126.8236094
40
0.3450519
50
269.5759586
51
282.0820163
0
ARC
8
DEFAULT_255_1_388
10
23.9759256
20
126.7117363
40
0.2303642
50
281.752014
51
306.6056188
0
ARC
8
DEFAULT_255_1_388
10
23.9870064
20
126.6935802
40
0.2091906
50
307.1346085
51
314.027845
0
ARC
8
DEFAULT_255_1_388
10
23.9829576
20
126.6965459
40
0.2141385
50
314.2552483
51
350.1694025
0
ARC
8
DEFAULT_255_1_388
10
23.8871813
20
126.7173175
40
0.312082
50
349.4140529
51
0.2933014
0
ARC
8
DEFAULT_255_1_388
10
23.945709
20
127.2976924
40
0.2588377
50
89.477747
51
105.729729
0
ARC
8
DEFAULT_255_1_388
10
23.930401
20
127.3545367
40
0.1999733
50
105.9233417
51
135.1660906
0
ARC
8
DEFAULT_255_1_388
10
23.9327041
20
127.3529412
40
0.2027322
50
135.3052302
51
168.9883645
0
ARC
8
DEFAULT_255_1_388
10
24.0258057
20
127.3315996
40
0.2982129
50
168.3801673
51
180.3602268
0
ARC
8
DEFAULT_255_1_388
10
24.0001174
20
127.3273622
40
0.2725291
50
179.5033122
51
194.9125571
0
ARC
8
DEFAULT_255_1_388
10
23.9342581
20
127.3100427
40
0.204431
50
194.9720816
51
224.194444
0
ARC
8
DEFAULT_255_1_388
10
23.9310946
20
127.3074635
40
0.2003651
50
224.2962453
51
262.015664
0
ARC
8
DEFAULT_255_1_388
10
23.947095
20
127.3897315
40
0.2840925
50
261.1245923
51
270.1962896
0
ARC
8
DEFAULT_255_1_388
10
23.9504432
20
127.3686859
40
0.2630559
50
269.4827276
51
285.0987215
0
ARC
8
DEFAULT_255_1_388
10
23.9677868
20
127.3036175
40
0.1957162
50
285.1585357
51
315.9484501
0
ARC
8
DEFAULT_255_1_388
10
23.9577741
20
127.3128315
40
0.2093195
50
316.0413965
51
351.916092
0
ARC
8
DEFAULT_255_1_388
10
23.8753116
20
127.3287323
40
0.2932279
50
351.105835
51
0.1939062
0
ARC
8
DEFAULT_255_1_388
10
23.904875
20
127.3321224
40
0.2636739
50
359.4789618
51
16.0678224
0
ARC
8
DEFAULT_255_1_388
10
23.9584222
20
127.3465721
40
0.2082215
50
16.3252067
51
44.7913869
0
ARC
8
DEFAULT_255_1_388
10
23.9564284
20
127.346632
40
0.2095992
50
44.3957814
51
88.2499162
0
ARC
8
DEFAULT_255_1_388
10
23.9481618
20
127.2778006
40
0.2787189
50
86.9833854
51
90.0192215
0
LINE
8
DEFAULT_255_1_388
10
23.3209946
20
132.3503553
11
23.3209946
21
132.2672274
0
LINE
8
DEFAULT_255_1_388
10
22.2629206
20
132.2554811
11
22.2629206
21
132.3503553
0
LINE
8
DEFAULT_255_1_388
10
23.1484138
20
132.2545775
11
23.1484138
21
132.3521625
0
LINE
8
DEFAULT_255_1_388
10
22.4355014
20
132.3639088
11
22.4355014
21
132.2672274
0
ARC
8
DEFAULT_255_1_388
10
22.3487684
20
132.2627726
40
0.9722364
50
350.4878118
51
0.2625322
0
ARC
8
DEFAULT_255_1_388
10
22.6067644
20
132.2183994
40
0.7104556
50
336.0277991
51
350.5787241
0
ARC
8
DEFAULT_255_1_388
10
22.7580751
20
132.1500243
40
0.544417
50
319.887443
51
336.1331163
0
ARC
8
DEFAULT_255_1_388
10
22.8258563
20
132.0957733
40
0.4576311
50
302.4806296
51
319.6144102
0
ARC
8
DEFAULT_255_1_388
10
22.8129184
20
132.1207067
40
0.4856183
50
275.8196423
51
302.1885521
0
ARC
8
DEFAULT_255_1_388
10
22.7942046
20
132.2492466
40
0.6154183
50
269.9169897
51
276.339506
0
ARC
8
DEFAULT_255_1_388
10
22.7891646
20
132.172068
40
0.5382553
50
252.5221437
51
270.441579
0
ARC
8
DEFAULT_255_1_388
10
22.7729897
20
132.1114046
40
0.4755426
50
237.5349961
51
252.1858334
0
ARC
8
DEFAULT_255_1_388
10
22.7830273
20
132.124212
40
0.4917393
50
209.0632754
51
237.3492577
0
ARC
8
DEFAULT_255_1_388
10
22.8809599
20
132.1857104
40
0.6072464
50
205.118533
51
209.6465345
0
ARC
8
DEFAULT_255_1_388
10
22.9705601
20
132.2237174
40
0.7045164
50
188.7216633
51
204.8239753
0
ARC
8
DEFAULT_255_1_388
10
23.1952376
20
132.2615387
40
0.9323368
50
180.3722704
51
188.9253909
0
ARC
8
DEFAULT_255_1_388
10
23.1921938
20
132.3548416
40
0.929284
50
169.5253055
51
180.2766048
0
ARC
8
DEFAULT_255_1_388
10
22.9781737
20
132.3942024
40
0.7116745
50
155.8314601
51
169.5088611
0
ARC
8
DEFAULT_255_1_388
10
22.83412
20
132.4610312
40
0.5528904
50
139.6259579
51
156.0379072
0
ARC
8
DEFAULT_255_1_388
10
22.7677733
20
132.5144143
40
0.4677708
50
122.6414784
51
139.3431662
0
ARC
8
DEFAULT_255_1_388
10
22.7790988
20
132.4937787
40
0.4912586
50
93.0224537
51
122.4556091
0
ARC
8
DEFAULT_255_1_388
10
22.7912509
20
132.3851776
40
0.6003837
50
89.9756766
51
93.6340839
0
ARC
8
DEFAULT_255_1_388
10
22.7956107
20
132.4300879
40
0.5554884
50
73.7463329
51
90.4234008
0
ARC
8
DEFAULT_255_1_388
10
22.815358
20
132.5065772
40
0.4765353
50
57.663051
51
73.4516911
0
ARC
8
DEFAULT_255_1_388
10
22.8144618
20
132.5090108
40
0.4749629
50
29.1441355
51
57.4146687
0
ARC
8
DEFAULT_255_1_388
10
22.7092429
20
132.4433046
40
0.5988917
50
24.0985653
51
29.732054
0
ARC
8
DEFAULT_255_1_388
10
22.5930061
20
132.3951154
40
0.7246823
50
8.6654943
51
23.8241215
0
ARC
8
DEFAULT_255_1_388
10
22.3416479
20
132.3541037
40
0.9793537
50
359.7807044
51
8.8218476
0
ARC
8
DEFAULT_255_1_388
10
22.2126184
20
132.3569731
40
0.9358078
50
359.7054632
51
8.0359751
0
ARC
8
DEFAULT_255_1_388
10
22.5501235
20
132.4061252
40
0.5947474
50
7.8926278
51
20.2962188
0
ARC
8
DEFAULT_255_1_388
10
22.7332085
20
132.4736367
40
0.3996117
50
20.3231056
51
36.4990255
0
ARC
8
DEFAULT_255_1_388
10
22.8103383
20
132.5330399
40
0.3022818
50
36.1436715
51
85.6627846
0
ARC
8
DEFAULT_255_1_388
10
22.7920638
20
132.4160881
40
0.4203853
50
84.3845912
51
90.076054
0
ARC
8
DEFAULT_255_1_388
10
22.7872993
20
132.4903416
40
0.346157
50
89.3037228
51
109.9046209
0
ARC
8
DEFAULT_255_1_388
10
22.7768826
20
132.5333379
40
0.3022217
50
110.8229774
51
143.917961
0
ARC
8
DEFAULT_255_1_388
10
22.8819185
20
132.4531455
40
0.434348
50
143.5289166
51
163.2980252
0
ARC
8
DEFAULT_255_1_388
10
23.0965472
20
132.3856685
40
0.659321
50
163.0418884
51
174.3139873
0
ARC
8
DEFAULT_255_1_388
10
23.3670437
20
132.3544378
40
0.9315905
50
174.050934
51
179.4174954
0
ARC
8
DEFAULT_255_1_388
10
23.3102381
20
132.2625382
40
0.8747493
50
179.6928582
51
188.7908948
0
ARC
8
DEFAULT_255_1_388
10
23.0106181
20
132.2146086
40
0.5713262
50
188.6328449
51
202.5630732
0
ARC
8
DEFAULT_255_1_388
10
22.8695018
20
132.1579142
40
0.4192612
50
202.8078931
51
216.1195888
0
ARC
8
DEFAULT_255_1_388
10
22.7784535
20
132.0846479
40
0.3025752
50
215.0755613
51
264.6379773
0
ARC
8
DEFAULT_255_1_388
10
22.7927372
20
132.1781376
40
0.3970284
50
263.8464302
51
270.0830805
0
ARC
8
DEFAULT_255_1_388
10
22.7973917
20
132.1490808
40
0.3679937
50
269.3649295
51
287.5149684
0
ARC
8
DEFAULT_255_1_388
10
22.8174358
20
132.0762714
40
0.2925408
50
288.0629019
51
323.8115617
0
ARC
8
DEFAULT_255_1_388
10
22.7194334
20
132.1493754
40
0.4148018
50
323.6546541
51
342.6591359
0
ARC
8
DEFAULT_255_1_388
10
22.4908992
20
132.223728
40
0.6551163
50
342.4092446
51
353.6451501
0
ARC
8
DEFAULT_255_1_388
10
22.1723785
20
132.2633565
40
0.9760748
50
353.4027553
51
359.4846611
0
LINE
8
DEFAULT_255_1_388
10
24.3872006
20
132.9674898
11
24.3872006
21
132.8735191
0
LINE
8
DEFAULT_255_1_388
10
24.3872006
20
132.8735191
11
23.8423513
21
131.6519
0
LINE
8
DEFAULT_255_1_388
10
23.8423513
20
131.6519
11
23.6670598
21
131.6519
0
LINE
8
DEFAULT_255_1_388
10
23.6670598
20
131.6519
11
24.210102
21
132.830148
0
LINE
8
DEFAULT_255_1_388
10
24.210102
20
132.830148
11
23.4980932
21
132.830148
0
LINE
8
DEFAULT_255_1_388
10
23.4980932
20
132.830148
11
23.4980932
21
132.9674898
0
LINE
8
DEFAULT_255_1_388
10
23.4980932
20
132.9674898
11
24.3872006
21
132.9674898
0
LINE
8
DEFAULT_255_1_388
10
23.3209946
20
137.6419553
11
23.3209946
21
137.5588274
0
LINE
8
DEFAULT_255_1_388
10
22.2629206
20
137.5470811
11
22.2629206
21
137.6419553
0
LINE
8
DEFAULT_255_1_388
10
23.1484138
20
137.5461775
11
23.1484138
21
137.6437625
0
LINE
8
DEFAULT_255_1_388
10
22.4355014
20
137.6555088
11
22.4355014
21
137.5588274
0
ARC
8
DEFAULT_255_1_388
10
22.3487684
20
137.5543726
40
0.9722364
50
350.4878118
51
0.2625322
0
ARC
8
DEFAULT_255_1_388
10
22.6067644
20
137.5099994
40
0.7104556
50
336.0277991
51
350.5787241
0
ARC
8
DEFAULT_255_1_388
10
22.7580751
20
137.4416243
40
0.544417
50
319.887443
51
336.1331163
0
ARC
8
DEFAULT_255_1_388
10
22.8258563
20
137.3873733
40
0.4576311
50
302.4806296
51
319.6144102
0
ARC
8
DEFAULT_255_1_388
10
22.8129184
20
137.4123067
40
0.4856183
50
275.8196423
51
302.1885521
0
ARC
8
DEFAULT_255_1_388
10
22.7942046
20
137.5408466
40
0.6154183
50
269.9169897
51
276.339506
0
ARC
8
DEFAULT_255_1_388
10
22.7891646
20
137.463668
40
0.5382553
50
252.5221437
51
270.441579
0
ARC
8
DEFAULT_255_1_388
10
22.7729897
20
137.4030046
40
0.4755426
50
237.5349961
51
252.1858334
0
ARC
8
DEFAULT_255_1_388
10
22.7830273
20
137.415812
40
0.4917393
50
209.0632754
51
237.3492577
0
ARC
8
DEFAULT_255_1_388
10
22.8809599
20
137.4773104
40
0.6072464
50
205.118533
51
209.6465345
0
ARC
8
DEFAULT_255_1_388
10
22.9705601
20
137.5153174
40
0.7045164
50
188.7216633
51
204.8239753
0
ARC
8
DEFAULT_255_1_388
10
23.1952376
20
137.5531387
40
0.9323368
50
180.3722704
51
188.9253909
0
ARC
8
DEFAULT_255_1_388
10
23.1921938
20
137.6464416
40
0.929284
50
169.5253055
51
180.2766048
0
ARC
8
DEFAULT_255_1_388
10
22.9781737
20
137.6858024
40
0.7116745
50
155.8314601
51
169.5088611
0
ARC
8
DEFAULT_255_1_388
10
22.83412
20
137.7526312
40
0.5528904
50
139.6259579
51
156.0379072
0
ARC
8
DEFAULT_255_1_388
10
22.7677733
20
137.8060143
40
0.4677708
50
122.6414784
51
139.3431662
0
ARC
8
DEFAULT_255_1_388
10
22.7790988
20
137.7853787
40
0.4912586
50
93.0224537
51
122.4556091
0
ARC
8
DEFAULT_255_1_388
10
22.7912509
20
137.6767776
40
0.6003837
50
89.9756766
51
93.6340839
0
ARC
8
DEFAULT_255_1_388
10
22.7956107
20
137.7216879
40
0.5554884
50
73.7463329
51
90.4234008
0
ARC
8
DEFAULT_255_1_388
10
22.815358
20
137.7981772
40
0.4765353
50
57.663051
51
73.4516911
0
ARC
8
DEFAULT_255_1_388
10
22.8144618
20
137.8006108
40
0.4749629
50
29.1441355
51
57.4146687
0
ARC
8
DEFAULT_255_1_388
10
22.7092429
20
137.7349046
40
0.5988917
50
24.0985653
51
29.732054
0
ARC
8
DEFAULT_255_1_388
10
22.5930061
20
137.6867154
40
0.7246823
50
8.6654943
51
23.8241215
0
ARC
8
DEFAULT_255_1_388
10
22.3416479
20
137.6457037
40
0.9793537
50
359.7807044
51
8.8218476
0
ARC
8
DEFAULT_255_1_388
10
22.2126184
20
137.6485731
40
0.9358078
50
359.7054632
51
8.0359751
0
ARC
8
DEFAULT_255_1_388
10
22.5501235
20
137.6977252
40
0.5947474
50
7.8926278
51
20.2962188
0
ARC
8
DEFAULT_255_1_388
10
22.7332085
20
137.7652367
40
0.3996117
50
20.3231056
51
36.4990255
0
ARC
8
DEFAULT_255_1_388
10
22.8103383
20
137.8246399
40
0.3022818
50
36.1436715
51
85.6627846
0
ARC
8
DEFAULT_255_1_388
10
22.7920638
20
137.7076881
40
0.4203853
50
84.3845912
51
90.076054
0
ARC
8
DEFAULT_255_1_388
10
22.7872993
20
137.7819416
40
0.346157
50
89.3037228
51
109.9046209
0
ARC
8
DEFAULT_255_1_388
10
22.7768826
20
137.8249379
40
0.3022217
50
110.8229774
51
143.917961
0
ARC
8
DEFAULT_255_1_388
10
22.8819185
20
137.7447455
40
0.434348
50
143.5289166
51
163.2980252
0
ARC
8
DEFAULT_255_1_388
10
23.0965472
20
137.6772685
40
0.659321
50
163.0418884
51
174.3139873
0
ARC
8
DEFAULT_255_1_388
10
23.3670437
20
137.6460378
40
0.9315905
50
174.050934
51
179.4174954
0
ARC
8
DEFAULT_255_1_388
10
23.3102381
20
137.5541382
40
0.8747493
50
179.6928582
51
188.7908948
0
ARC
8
DEFAULT_255_1_388
10
23.0106181
20
137.5062086
40
0.5713262
50
188.6328449
51
202.5630732
0
ARC
8
DEFAULT_255_1_388
10
22.8695018
20
137.4495142
40
0.4192612
50
202.8078931
51
216.1195888
0
ARC
8
DEFAULT_255_1_388
10
22.7784535
20
137.3762479
40
0.3025752
50
215.0755613
51
264.6379773
0
ARC
8
DEFAULT_255_1_388
10
22.7927372
20
137.4697376
40
0.3970284
50
263.8464302
51
270.0830805
0
ARC
8
DEFAULT_255_1_388
10
22.7973917
20
137.4406808
40
0.3679937
50
269.3649295
51
287.5149684
0
ARC
8
DEFAULT_255_1_388
10
22.8174358
20
137.3678714
40
0.2925408
50
288.0629019
51
323.8115617
0
ARC
8
DEFAULT_255_1_388
10
22.7194334
20
137.4409754
40
0.4148018
50
323.6546541
51
342.6591359
0
ARC
8
DEFAULT_255_1_388
10
22.4908992
20
137.515328
40
0.6551163
50
342.4092446
51
353.6451501
0
ARC
8
DEFAULT_255_1_388
10
22.1723785
20
137.5549565
40
0.9760748
50
353.4027553
51
359.4846611
0
LINE
8
DEFAULT_255_1_388
10
24.1640202
20
138.2599934
11
24.1938378
21
138.2599934
0
LINE
8
DEFAULT_255_1_388
10
24.1938378
20
138.2599934
11
24.1938378
21
138.1181338
0
LINE
8
DEFAULT_255_1_388
10
24.1938378
20
138.1181338
11
24.1631167
21
138.1181338
0
LINE
8
DEFAULT_255_1_388
10
23.5477893
20
137.4440747
11
23.5477893
21
137.5082278
0
LINE
8
DEFAULT_255_1_388
10
23.7158522
20
137.4865422
11
23.7158522
21
137.4250999
0
ARC
8
DEFAULT_255_1_388
10
24.1690058
20
137.5558826
40
0.562282
50
90.6001079
51
104.5146616
0
ARC
8
DEFAULT_255_1_388
10
24.1253018
20
137.71841
40
0.3939917
50
104.2855758
51
133.8630124
0
ARC
8
DEFAULT_255_1_388
10
24.143727
20
137.7062243
40
0.4155734
50
134.5304124
51
161.6210222
0
ARC
8
DEFAULT_255_1_388
10
24.3297202
20
137.6406421
40
0.6127682
50
161.2850533
51
174.2074364
0
ARC
8
DEFAULT_255_1_388
10
24.4886769
20
137.6187437
40
0.7731446
50
173.7817938
51
174.9251711
0
ARC
8
DEFAULT_255_1_388
10
23.9760963
20
137.463227
40
0.3412588
50
95.8332067
51
138.995412
0
ARC
8
DEFAULT_255_1_388
10
24.0012243
20
137.3193695
40
0.4870358
50
89.8755506
51
97.0540979
0
ARC
8
DEFAULT_255_1_388
10
24.0065632
20
137.4133841
40
0.3930432
50
71.6407016
51
90.6240821
0
ARC
8
DEFAULT_255_1_388
10
24.0235026
20
137.4757433
40
0.3285421
50
39.6368051
51
71.0190743
0
ARC
8
DEFAULT_255_1_388
10
23.9518933
20
137.4138586
40
0.4231706
50
10.6588054
51
39.9044509
0
ARC
8
DEFAULT_255_1_388
10
23.7777479
20
137.3760223
40
0.60133
50
359.6827842
51
11.1326896
0
ARC
8
DEFAULT_255_1_388
10
23.7732815
20
137.3680715
40
0.6058047
50
347.2485908
51
0.4371098
0
ARC
8
DEFAULT_255_1_388
10
23.96086
20
137.3229379
40
0.4128987
50
318.1408565
51
347.6118497
0
ARC
8
DEFAULT_255_1_388
10
23.9974197
20
137.2928903
40
0.3656244
50
275.6342406
51
317.824739
0
ARC
8
DEFAULT_255_1_388
10
23.9725718
20
137.4390827
40
0.513655
50
269.8872513
51
276.7916069
0
ARC
8
DEFAULT_255_1_388
10
23.966391
20
137.3237181
40
0.398323
50
246.9139443
51
270.7436787
0
ARC
8
DEFAULT_255_1_388
10
23.9671106
20
137.3077044
40
0.3839368
50
218.1665534
51
245.8780431
0
ARC
8
DEFAULT_255_1_388
10
24.0660478
20
137.3904903
40
0.5128958
50
191.4115343
51
218.6077624
0
ARC
8
DEFAULT_255_1_388
10
24.2840795
20
137.4393777
40
0.7363054
50
179.6344971
51
191.7836758
0
ARC
8
DEFAULT_255_1_388
10
24.9120669
20
137.5157495
40
1.3642984
50
171.4523743
51
180.3158856
0
ARC
8
DEFAULT_255_1_388
10
24.4176396
20
137.5926895
40
0.8639311
50
157.9802296
51
171.6246761
0
ARC
8
DEFAULT_255_1_388
10
24.1685747
20
137.6920038
40
0.5958004
50
141.4299236
51
157.8541251
0
ARC
8
DEFAULT_255_1_388
10
24.096383
20
137.7430746
40
0.5075416
50
102.871586
51
140.8564533
0
ARC
8
DEFAULT_255_1_388
10
24.1692383
20
137.4685943
40
0.7914163
50
90.377773
51
103.5868422
0
ARC
8
DEFAULT_255_1_388
10
23.9736904
20
137.4005543
40
0.2667015
50
89.8751238
51
126.2072139
0
ARC
8
DEFAULT_255_1_388
10
23.9788375
20
137.3831847
40
0.2838229
50
124.9742447
51
144.8960197
0
ARC
8
DEFAULT_255_1_388
10
23.959062
20
137.3992981
40
0.2583845
50
145.2974778
51
160.2660922
0
ARC
8
DEFAULT_255_1_388
10
24.3047108
20
137.4215151
40
0.5888695
50
179.6512124
51
190.285571
0
ARC
8
DEFAULT_255_1_388
10
24.1141588
20
137.3855968
40
0.3949683
50
190.0944895
51
207.5099647
0
ARC
8
DEFAULT_255_1_388
10
24.050517
20
137.3553177
40
0.3245464
50
207.9585471
51
216.325377
0
ARC
8
DEFAULT_255_1_388
10
24.0122807
20
137.3238712
40
0.2751259
50
215.7661336
51
232.5457193
0
ARC
8
DEFAULT_255_1_388
10
23.9691923
20
137.2691273
40
0.2054668
50
232.8005815
51
270.6605497
0
ARC
8
DEFAULT_255_1_388
10
23.9743347
20
137.3100853
40
0.2464268
50
269.3550767
51
288.474612
0
ARC
8
DEFAULT_255_1_388
10
23.9847854
20
137.2707721
40
0.2058436
50
289.1831976
51
322.9685307
0
ARC
8
DEFAULT_255_1_388
10
23.9159956
20
137.3250279
40
0.2934408
50
322.6007085
51
346.5183319
0
ARC
8
DEFAULT_255_1_388
10
23.7857712
20
137.3582434
40
0.4278249
50
346.2584622
51
358.7739592
0
ARC
8
DEFAULT_255_1_388
10
23.6706287
20
137.3644829
40
0.5430876
50
358.3757628
51
0.0082477
0
ARC
8
DEFAULT_255_1_388
10
23.7563106
20
137.3675856
40
0.4574157
50
359.6211417
51
11.28403
0
ARC
8
DEFAULT_255_1_388
10
23.8999712
20
137.3975535
40
0.3106708
50
11.0483152
51
31.8145585
0
ARC
8
DEFAULT_255_1_388
10
23.9347417
20
137.4164045
40
0.2711963
50
32.3028554
51
38.0820598
0
ARC
8
DEFAULT_255_1_388
10
23.982065
20
137.4592717
40
0.2075566
50
36.8249851
51
85.741667
0
ARC
8
DEFAULT_255_1_388
10
23.9745063
20
137.4029065
40
0.2643487
50
85.0150021
51
90.050843
0
LINE
8
DEFAULT_255_1_388
10
23.3209946
20
142.9336553
11
23.3209946
21
142.8505274
0
LINE
8
DEFAULT_255_1_388
10
22.2629206
20
142.8387811
11
22.2629206
21
142.9336553
0
LINE
8
DEFAULT_255_1_388
10
23.1484138
20
142.8378775
11
23.1484138
21
142.9354625
0
LINE
8
DEFAULT_255_1_388
10
22.4355014
20
142.9472088
11
22.4355014
21
142.8505274
0
ARC
8
DEFAULT_255_1_388
10
22.3487684
20
142.8460726
40
0.9722364
50
350.4878118
51
0.2625322
0
ARC
8
DEFAULT_255_1_388
10
22.6067644
20
142.8016994
40
0.7104556
50
336.0277991
51
350.5787241
0
ARC
8
DEFAULT_255_1_388
10
22.7580751
20
142.7333243
40
0.544417
50
319.887443
51
336.1331163
0
ARC
8
DEFAULT_255_1_388
10
22.8258563
20
142.6790733
40
0.4576311
50
302.4806296
51
319.6144102
0
ARC
8
DEFAULT_255_1_388
10
22.8129184
20
142.7040067
40
0.4856183
50
275.8196423
51
302.1885521
0
ARC
8
DEFAULT_255_1_388
10
22.7942046
20
142.8325466
40
0.6154183
50
269.9169897
51
276.339506
0
ARC
8
DEFAULT_255_1_388
10
22.7891646
20
142.755368
40
0.5382553
50
252.5221437
51
270.441579
0
ARC
8
DEFAULT_255_1_388
10
22.7729897
20
142.6947046
40
0.4755426
50
237.5349961
51
252.1858334
0
ARC
8
DEFAULT_255_1_388
10
22.7830273
20
142.707512
40
0.4917393
50
209.0632754
51
237.3492577
0
ARC
8
DEFAULT_255_1_388
10
22.8809599
20
142.7690104
40
0.6072464
50
205.118533
51
209.6465345
0
ARC
8
DEFAULT_255_1_388
10
22.9705601
20
142.8070174
40
0.7045164
50
188.7216633
51
204.8239753
0
ARC
8
DEFAULT_255_1_388
10
23.1952376
20
142.8448387
40
0.9323368
50
180.3722704
51
188.9253909
0
ARC
8
DEFAULT_255_1_388
10
23.1921938
20
142.9381416
40
0.929284
50
169.5253055
51
180.2766048
0
ARC
8
DEFAULT_255_1_388
10
22.9781737
20
142.9775024
40
0.7116745
50
155.8314601
51
169.5088611
0
ARC
8
DEFAULT_255_1_388
10
22.83412
20
143.0443312
40
0.5528904
50
139.6259579
51
156.0379072
0
ARC
8
DEFAULT_255_1_388
10
22.7677733
20
143.0977143
40
0.4677708
50
122.6414784
51
139.3431662
0
ARC
8
DEFAULT_255_1_388
10
22.7790988
20
143.0770787
40
0.4912586
50
93.0224537
51
122.4556091
0
ARC
8
DEFAULT_255_1_388
10
22.7912509
20
142.9684776
40
0.6003837
50
89.9756766
51
93.6340839
0
ARC
8
DEFAULT_255_1_388
10
22.7956107
20
143.0133879
40
0.5554884
50
73.7463329
51
90.4234008
0
ARC
8
DEFAULT_255_1_388
10
22.815358
20
143.0898772
40
0.4765353
50
57.663051
51
73.4516911
0
ARC
8
DEFAULT_255_1_388
10
22.8144618
20
143.0923108
40
0.4749629
50
29.1441355
51
57.4146687
0
ARC
8
DEFAULT_255_1_388
10
22.7092429
20
143.0266046
40
0.5988917
50
24.0985653
51
29.732054
0
ARC
8
DEFAULT_255_1_388
10
22.5930061
20
142.9784154
40
0.7246823
50
8.6654943
51
23.8241215
0
ARC
8
DEFAULT_255_1_388
10
22.3416479
20
142.9374037
40
0.9793537
50
359.7807044
51
8.8218476
0
ARC
8
DEFAULT_255_1_388
10
22.2126184
20
142.9402731
40
0.9358078
50
359.7054632
51
8.0359751
0
ARC
8
DEFAULT_255_1_388
10
22.5501235
20
142.9894252
40
0.5947474
50
7.8926278
51
20.2962188
0
ARC
8
DEFAULT_255_1_388
10
22.7332085
20
143.0569367
40
0.3996117
50
20.3231056
51
36.4990255
0
ARC
8
DEFAULT_255_1_388
10
22.8103383
20
143.1163399
40
0.3022818
50
36.1436715
51
85.6627846
0
ARC
8
DEFAULT_255_1_388
10
22.7920638
20
142.9993881
40
0.4203853
50
84.3845912
51
90.076054
0
ARC
8
DEFAULT_255_1_388
10
22.7872993
20
143.0736416
40
0.346157
50
89.3037228
51
109.9046209
0
ARC
8
DEFAULT_255_1_388
10
22.7768826
20
143.1166379
40
0.3022217
50
110.8229774
51
143.917961
0
ARC
8
DEFAULT_255_1_388
10
22.8819185
20
143.0364455
40
0.434348
50
143.5289166
51
163.2980252
0
ARC
8
DEFAULT_255_1_388
10
23.0965472
20
142.9689685
40
0.659321
50
163.0418884
51
174.3139873
0
ARC
8
DEFAULT_255_1_388
10
23.3670437
20
142.9377378
40
0.9315905
50
174.050934
51
179.4174954
0
ARC
8
DEFAULT_255_1_388
10
23.3102381
20
142.8458382
40
0.8747493
50
179.6928582
51
188.7908948
0
ARC
8
DEFAULT_255_1_388
10
23.0106181
20
142.7979086
40
0.5713262
50
188.6328449
51
202.5630732
0
ARC
8
DEFAULT_255_1_388
10
22.8695018
20
142.7412142
40
0.4192612
50
202.8078931
51
216.1195888
0
ARC
8
DEFAULT_255_1_388
10
22.7784535
20
142.6679479
40
0.3025752
50
215.0755613
51
264.6379773
0
ARC
8
DEFAULT_255_1_388
10
22.7927372
20
142.7614376
40
0.3970284
50
263.8464302
51
270.0830805
0
ARC
8
DEFAULT_255_1_388
10
22.7973917
20
142.7323808
40
0.3679937
50
269.3649295
51
287.5149684
0
ARC
8
DEFAULT_255_1_388
10
22.8174358
20
142.6595714
40
0.2925408
50
288.0629019
51
323.8115617
0
ARC
8
DEFAULT_255_1_388
10
22.7194334
20
142.7326754
40
0.4148018
50
323.6546541
51
342.6591359
0
ARC
8
DEFAULT_255_1_388
10
22.4908992
20
142.807028
40
0.6551163
50
342.4092446
51
353.6451501
0
ARC
8
DEFAULT_255_1_388
10
22.1723785
20
142.8466565
40
0.9760748
50
353.4027553
51
359.4846611
0
LINE
8
DEFAULT_255_1_388
10
23.7483806
20
142.8604666
11
23.614653
21
142.8948021
0
LINE
8
DEFAULT_255_1_388
10
23.614653
20
142.8948021
11
23.6815168
21
143.5507898
0
LINE
8
DEFAULT_255_1_388
10
23.6815168
20
143.5507898
11
24.3555759
21
143.5507898
0
LINE
8
DEFAULT_255_1_388
10
24.3555759
20
143.5507898
11
24.3555759
21
143.3962803
0
LINE
8
DEFAULT_255_1_388
10
24.3555759
20
143.3962803
11
23.8233764
21
143.3962803
0
LINE
8
DEFAULT_255_1_388
10
23.8233764
20
143.3962803
11
23.7836196
21
143.0375652
0
LINE
8
DEFAULT_255_1_388
10
23.5676677
20
142.5812652
11
23.7257915
21
142.5812652
0
LINE
8
DEFAULT_255_1_388
10
23.7926552
20
142.8966092
11
23.7483806
21
142.8604666
0
ARC
8
DEFAULT_255_1_388
10
23.9922809
20
142.6798241
40
0.4141476
50
93.7181681
51
120.253934
0
ARC
8
DEFAULT_255_1_388
10
24.0028862
20
142.5889284
40
0.5055616
50
89.9660471
51
94.2495185
0
ARC
8
DEFAULT_255_1_388
10
24.0074683
20
142.6552154
40
0.4392953
50
73.8045384
51
90.5585736
0
ARC
8
DEFAULT_255_1_388
10
24.0338941
20
142.751752
40
0.3392225
50
41.3071072
51
73.543002
0
ARC
8
DEFAULT_255_1_388
10
23.9870761
20
142.7114461
40
0.4009977
50
13.5075837
51
41.2174839
0
ARC
8
DEFAULT_255_1_388
10
23.8023858
20
142.6630907
40
0.5918864
50
1.1330171
51
13.8830737
0
ARC
8
DEFAULT_255_1_388
10
23.6427504
20
142.6545522
40
0.7516787
50
359.9925091
51
1.5431298
0
ARC
8
DEFAULT_255_1_388
10
23.7872119
20
142.6499027
40
0.6072343
50
347.8572712
51
0.4294349
0
ARC
8
DEFAULT_255_1_388
10
23.9841254
20
142.6052898
40
0.4053482
50
323.6727442
51
348.1674594
0
ARC
8
DEFAULT_255_1_388
10
24.0172219
20
142.5851175
40
0.3667495
50
316.8171818
51
323.1486802
0
ARC
8
DEFAULT_255_1_388
10
24.0241342
20
142.5809612
40
0.358869
50
281.839603
51
316.5458142
0
ARC
8
DEFAULT_255_1_388
10
23.981863
20
142.7559363
40
0.5388223
50
269.5770964
51
282.4214641
0
ARC
8
DEFAULT_255_1_388
10
23.9738551
20
142.731893
40
0.5147801
50
256.2425863
51
270.4486481
0
ARC
8
DEFAULT_255_1_388
10
23.9402078
20
142.5969124
40
0.3756708
50
228.9024379
51
256.33135
0
ARC
8
DEFAULT_255_1_388
10
23.9319058
20
142.5838054
40
0.360344
50
193.7536029
51
228.5272638
0
ARC
8
DEFAULT_255_1_388
10
24.0711623
20
142.6246463
40
0.5053599
50
184.9244437
51
194.4976052
0
ARC
8
DEFAULT_255_1_388
10
24.0928265
20
142.6286722
40
0.3700839
50
187.3596909
51
198.6733728
0
ARC
8
DEFAULT_255_1_388
10
23.9747508
20
142.5877373
40
0.2451195
50
198.4453795
51
217.7945479
0
ARC
8
DEFAULT_255_1_388
10
23.9414681
20
142.5641563
40
0.2043754
50
218.2887146
51
228.5613203
0
ARC
8
DEFAULT_255_1_388
10
23.9524688
20
142.5789902
40
0.2227819
50
228.9652423
51
258.1237049
0
ARC
8
DEFAULT_255_1_388
10
23.9756125
20
142.6780964
40
0.3245374
50
257.7260585
51
270.4013717
0
ARC
8
DEFAULT_255_1_388
10
23.9806623
20
142.6280255
40
0.2744726
50
269.4204315
51
286.420998
0
ARC
8
DEFAULT_255_1_388
10
23.9973679
20
142.5673705
40
0.2115721
50
286.7250065
51
320.6004665
0
ARC
8
DEFAULT_255_1_388
10
23.9542594
20
142.6023527
40
0.2670878
50
320.6712228
51
344.5440474
0
ARC
8
DEFAULT_255_1_388
10
23.8241308
20
142.6405394
40
0.4026927
50
344.241448
51
356.735803
0
ARC
8
DEFAULT_255_1_388
10
23.6837615
20
142.6521656
40
0.5435085
50
356.3547471
51
0.0507222
0
ARC
8
DEFAULT_255_1_388
10
23.833988
20
142.6556812
40
0.3932934
50
359.5579289
51
12.9534322
0
ARC
8
DEFAULT_255_1_388
10
23.952672
20
142.6844586
40
0.2711827
50
12.6489751
51
41.608121
0
ARC
8
DEFAULT_255_1_388
10
23.978588
20
142.7064946
40
0.2371737
50
41.7851122
51
85.9892156
0
ARC
8
DEFAULT_255_1_388
10
23.964719
20
142.6149738
40
0.3295244
50
84.6965848
51
90.0672125
0
ARC
8
DEFAULT_255_1_388
10
23.9620758
20
142.5398118
40
0.4046926
50
89.6804991
51
99.161352
0
ARC
8
DEFAULT_255_1_388
10
23.9389767
20
142.6778848
40
0.2647044
50
98.9836248
51
113.8905702
0
ARC
8
DEFAULT_255_1_388
10
23.9131442
20
142.7388118
40
0.1985386
50
114.195234
51
127.3641866
0
LINE
8
DEFAULT_255_1_388
10
23.1886946
20
148.2253553
11
23.1886946
21
148.1422274
0
LINE
8
DEFAULT_255_1_388
10
22.1306206
20
148.1304811
11
22.1306206
21
148.2253553
0
LINE
8
DEFAULT_255_1_388
10
23.0161138
20
148.1295775
11
23.0161138
21
148.2271625
0
LINE
8
DEFAULT_255_1_388
10
22.3032014
20
148.2389088
11
22.3032014
21
148.1422274
0
ARC
8
DEFAULT_255_1_388
10
22.2164684
20
148.1377726
40
0.9722364
50
350.4878118
51
0.2625322
0
ARC
8
DEFAULT_255_1_388
10
22.4744644
20
148.0933994
40
0.7104556
50
336.0277991
51
350.5787241
0
ARC
8
DEFAULT_255_1_388
10
22.6257751
20
148.0250243
40
0.544417
50
319.887443
51
336.1331163
0
ARC
8
DEFAULT_255_1_388
10
22.6935563
20
147.9707733
40
0.4576311
50
302.4806296
51
319.6144102
0
ARC
8
DEFAULT_255_1_388
10
22.6806184
20
147.9957067
40
0.4856183
50
275.8196423
51
302.1885521
0
ARC
8
DEFAULT_255_1_388
10
22.6619046
20
148.1242466
40
0.6154183
50
269.9169897
51
276.339506
0
ARC
8
DEFAULT_255_1_388
10
22.6568646
20
148.047068
40
0.5382553
50
252.5221437
51
270.441579
0
ARC
8
DEFAULT_255_1_388
10
22.6406897
20
147.9864046
40
0.4755426
50
237.5349961
51
252.1858334
0
ARC
8
DEFAULT_255_1_388
10
22.6507273
20
147.999212
40
0.4917393
50
209.0632754
51
237.3492577
0
ARC
8
DEFAULT_255_1_388
10
22.7486599
20
148.0607104
40
0.6072464
50
205.118533
51
209.6465345
0
ARC
8
DEFAULT_255_1_388
10
22.8382601
20
148.0987174
40
0.7045164
50
188.7216633
51
204.8239753
0
ARC
8
DEFAULT_255_1_388
10
23.0629376
20
148.1365387
40
0.9323368
50
180.3722704
51
188.9253909
0
ARC
8
DEFAULT_255_1_388
10
23.0598938
20
148.2298416
40
0.929284
50
169.5253055
51
180.2766048
0
ARC
8
DEFAULT_255_1_388
10
22.8458737
20
148.2692024
40
0.7116745
50
155.8314601
51
169.5088611
0
ARC
8
DEFAULT_255_1_388
10
22.70182
20
148.3360312
40
0.5528904
50
139.6259579
51
156.0379072
0
ARC
8
DEFAULT_255_1_388
10
22.6354733
20
148.3894143
40
0.4677708
50
122.6414784
51
139.3431662
0
ARC
8
DEFAULT_255_1_388
10
22.6467988
20
148.3687787
40
0.4912586
50
93.0224537
51
122.4556091
0
ARC
8
DEFAULT_255_1_388
10
22.6589509
20
148.2601776
40
0.6003837
50
89.9756766
51
93.6340839
0
ARC
8
DEFAULT_255_1_388
10
22.6633107
20
148.3050879
40
0.5554884
50
73.7463329
51
90.4234008
0
ARC
8
DEFAULT_255_1_388
10
22.683058
20
148.3815772
40
0.4765353
50
57.663051
51
73.4516911
0
ARC
8
DEFAULT_255_1_388
10
22.6821618
20
148.3840108
40
0.4749629
50
29.1441355
51
57.4146687
0
ARC
8
DEFAULT_255_1_388
10
22.5769429
20
148.3183046
40
0.5988917
50
24.0985653
51
29.732054
0
ARC
8
DEFAULT_255_1_388
10
22.4607061
20
148.2701154
40
0.7246823
50
8.6654943
51
23.8241215
0
ARC
8
DEFAULT_255_1_388
10
22.2093479
20
148.2291037
40
0.9793537
50
359.7807044
51
8.8218476
0
ARC
8
DEFAULT_255_1_388
10
22.0803184
20
148.2319731
40
0.9358078
50
359.7054632
51
8.0359751
0
ARC
8
DEFAULT_255_1_388
10
22.4178235
20
148.2811252
40
0.5947474
50
7.8926278
51
20.2962188
0
ARC
8
DEFAULT_255_1_388
10
22.6009085
20
148.3486367
40
0.3996117
50
20.3231056
51
36.4990255
0
ARC
8
DEFAULT_255_1_388
10
22.6780383
20
148.4080399
40
0.3022818
50
36.1436715
51
85.6627846
0
ARC
8
DEFAULT_255_1_388
10
22.6597638
20
148.2910881
40
0.4203853
50
84.3845912
51
90.076054
0
ARC
8
DEFAULT_255_1_388
10
22.6549993
20
148.3653416
40
0.346157
50
89.3037228
51
109.9046209
0
ARC
8
DEFAULT_255_1_388
10
22.6445826
20
148.4083379
40
0.3022217
50
110.8229774
51
143.917961
0
ARC
8
DEFAULT_255_1_388
10
22.7496185
20
148.3281455
40
0.434348
50
143.5289166
51
163.2980252
0
ARC
8
DEFAULT_255_1_388
10
22.9642472
20
148.2606685
40
0.659321
50
163.0418884
51
174.3139873
0
ARC
8
DEFAULT_255_1_388
10
23.2347437
20
148.2294378
40
0.9315905
50
174.050934
51
179.4174954
0
ARC
8
DEFAULT_255_1_388
10
23.1779381
20
148.1375382
40
0.8747493
50
179.6928582
51
188.7908948
0
ARC
8
DEFAULT_255_1_388
10
22.8783181
20
148.0896086
40
0.5713262
50
188.6328449
51
202.5630732
0
ARC
8
DEFAULT_255_1_388
10
22.7372018
20
148.0329142
40
0.4192612
50
202.8078931
51
216.1195888
0
ARC
8
DEFAULT_255_1_388
10
22.6461535
20
147.9596479
40
0.3025752
50
215.0755613
51
264.6379773
0
ARC
8
DEFAULT_255_1_388
10
22.6604372
20
148.0531376
40
0.3970284
50
263.8464302
51
270.0830805
0
ARC
8
DEFAULT_255_1_388
10
22.6650917
20
148.0240808
40
0.3679937
50
269.3649295
51
287.5149684
0
ARC
8
DEFAULT_255_1_388
10
22.6851358
20
147.9512714
40
0.2925408
50
288.0629019
51
323.8115617
0
ARC
8
DEFAULT_255_1_388
10
22.5871334
20
148.0243754
40
0.4148018
50
323.6546541
51
342.6591359
0
ARC
8
DEFAULT_255_1_388
10
22.3585992
20
148.098728
40
0.6551163
50
342.4092446
51
353.6451501
0
ARC
8
DEFAULT_255_1_388
10
22.0400785
20
148.1383565
40
0.9760748
50
353.4027553
51
359.4846611
0
LINE
8
DEFAULT_255_1_388
10
24.1112339
20
148.8424898
11
24.1112339
21
147.968743
0
LINE
8
DEFAULT_255_1_388
10
24.1112339
20
147.968743
11
24.2937539
21
147.968743
0
LINE
8
DEFAULT_255_1_388
10
24.2937539
20
147.968743
11
24.2937539
21
147.8323048
0
LINE
8
DEFAULT_255_1_388
10
24.2937539
20
147.8323048
11
24.1112339
21
147.8323048
0
LINE
8
DEFAULT_255_1_388
10
24.1112339
20
147.8323048
11
24.1112339
21
147.5269
0
LINE
8
DEFAULT_255_1_388
10
24.1112339
20
147.5269
11
23.9431709
21
147.5269
0
LINE
8
DEFAULT_255_1_388
10
23.9431709
20
147.5269
11
23.9431709
21
147.8323048
0
LINE
8
DEFAULT_255_1_388
10
23.9431709
20
147.8323048
11
23.3441077
21
147.8323048
0
LINE
8
DEFAULT_255_1_388
10
23.3441077
20
147.8323048
11
23.3441077
21
147.9307933
0
LINE
8
DEFAULT_255_1_388
10
23.3441077
20
147.9307933
11
23.9332317
21
148.8424898
0
LINE
8
DEFAULT_255_1_388
10
23.9332317
20
148.8424898
11
24.1112339
21
148.8424898
0
LINE
8
DEFAULT_255_1_388
10
23.9232925
20
148.5777455
11
23.5338562
21
147.968743
0
LINE
8
DEFAULT_255_1_388
10
23.5338562
20
147.968743
11
23.9431709
21
147.968743
0
LINE
8
DEFAULT_255_1_388
10
23.9431709
20
147.968743
11
23.9431709
21
148.613888
0
LINE
8
DEFAULT_255_1_388
10
23.9431709
20
148.613888
11
23.9232925
21
148.5777455
0
LINE
8
DEFAULT_255_1_388
10
23.3209946
20
153.5169553
11
23.3209946
21
153.4338274
0
LINE
8
DEFAULT_255_1_388
10
22.2629206
20
153.4220811
11
22.2629206
21
153.5169553
0
LINE
8
DEFAULT_255_1_388
10
23.1484138
20
153.4211775
11
23.1484138
21
153.5187625
0
LINE
8
DEFAULT_255_1_388
10
22.4355014
20
153.5305088
11
22.4355014
21
153.4338274
0
ARC
8
DEFAULT_255_1_388
10
22.3487684
20
153.4293726
40
0.9722364
50
350.4878118
51
0.2625322
0
ARC
8
DEFAULT_255_1_388
10
22.6067644
20
153.3849994
40
0.7104556
50
336.0277991
51
350.5787241
0
ARC
8
DEFAULT_255_1_388
10
22.7580751
20
153.3166243
40
0.544417
50
319.887443
51
336.1331163
0
ARC
8
DEFAULT_255_1_388
10
22.8258563
20
153.2623733
40
0.4576311
50
302.4806296
51
319.6144102
0
ARC
8
DEFAULT_255_1_388
10
22.8129184
20
153.2873067
40
0.4856183
50
275.8196423
51
302.1885521
0
ARC
8
DEFAULT_255_1_388
10
22.7942046
20
153.4158466
40
0.6154183
50
269.9169897
51
276.339506
0
ARC
8
DEFAULT_255_1_388
10
22.7891646
20
153.338668
40
0.5382553
50
252.5221437
51
270.441579
0
ARC
8
DEFAULT_255_1_388
10
22.7729897
20
153.2780046
40
0.4755426
50
237.5349961
51
252.1858334
0
ARC
8
DEFAULT_255_1_388
10
22.7830273
20
153.290812
40
0.4917393
50
209.0632754
51
237.3492577
0
ARC
8
DEFAULT_255_1_388
10
22.8809599
20
153.3523104
40
0.6072464
50
205.118533
51
209.6465345
0
ARC
8
DEFAULT_255_1_388
10
22.9705601
20
153.3903174
40
0.7045164
50
188.7216633
51
204.8239753
0
ARC
8
DEFAULT_255_1_388
10
23.1952376
20
153.4281387
40
0.9323368
50
180.3722704
51
188.9253909
0
ARC
8
DEFAULT_255_1_388
10
23.1921938
20
153.5214416
40
0.929284
50
169.5253055
51
180.2766048
0
ARC
8
DEFAULT_255_1_388
10
22.9781737
20
153.5608024
40
0.7116745
50
155.8314601
51
169.5088611
0
ARC
8
DEFAULT_255_1_388
10
22.83412
20
153.6276312
40
0.5528904
50
139.6259579
51
156.0379072
0
ARC
8
DEFAULT_255_1_388
10
22.7677733
20
153.6810143
40
0.4677708
50
122.6414784
51
139.3431662
0
ARC
8
DEFAULT_255_1_388
10
22.7790988
20
153.6603787
40
0.4912586
50
93.0224537
51
122.4556091
0
ARC
8
DEFAULT_255_1_388
10
22.7912509
20
153.5517776
40
0.6003837
50
89.9756766
51
93.6340839
0
ARC
8
DEFAULT_255_1_388
10
22.7956107
20
153.5966879
40
0.5554884
50
73.7463329
51
90.4234008
0
ARC
8
DEFAULT_255_1_388
10
22.815358
20
153.6731772
40
0.4765353
50
57.663051
51
73.4516911
0
ARC
8
DEFAULT_255_1_388
10
22.8144618
20
153.6756108
40
0.4749629
50
29.1441355
51
57.4146687
0
ARC
8
DEFAULT_255_1_388
10
22.7092429
20
153.6099046
40
0.5988917
50
24.0985653
51
29.732054
0
ARC
8
DEFAULT_255_1_388
10
22.5930061
20
153.5617154
40
0.7246823
50
8.6654943
51
23.8241215
0
ARC
8
DEFAULT_255_1_388
10
22.3416479
20
153.5207037
40
0.9793537
50
359.7807044
51
8.8218476
0
ARC
8
DEFAULT_255_1_388
10
22.2126184
20
153.5235731
40
0.9358078
50
359.7054632
51
8.0359751
0
ARC
8
DEFAULT_255_1_388
10
22.5501235
20
153.5727252
40
0.5947474
50
7.8926278
51
20.2962188
0
ARC
8
DEFAULT_255_1_388
10
22.7332085
20
153.6402367
40
0.3996117
50
20.3231056
51
36.4990255
0
ARC
8
DEFAULT_255_1_388
10
22.8103383
20
153.6996399
40
0.3022818
50
36.1436715
51
85.6627846
0
ARC
8
DEFAULT_255_1_388
10
22.7920638
20
153.5826881
40
0.4203853
50
84.3845912
51
90.076054
0
ARC
8
DEFAULT_255_1_388
10
22.7872993
20
153.6569416
40
0.346157
50
89.3037228
51
109.9046209
0
ARC
8
DEFAULT_255_1_388
10
22.7768826
20
153.6999379
40
0.3022217
50
110.8229774
51
143.917961
0
ARC
8
DEFAULT_255_1_388
10
22.8819185
20
153.6197455
40
0.434348
50
143.5289166
51
163.2980252
0
ARC
8
DEFAULT_255_1_388
10
23.0965472
20
153.5522685
40
0.659321
50
163.0418884
51
174.3139873
0
ARC
8
DEFAULT_255_1_388
10
23.3670437
20
153.5210378
40
0.9315905
50
174.050934
51
179.4174954
0
ARC
8
DEFAULT_255_1_388
10
23.3102381
20
153.4291382
40
0.8747493
50
179.6928582
51
188.7908948
0
ARC
8
DEFAULT_255_1_388
10
23.0106181
20
153.3812086
40
0.5713262
50
188.6328449
51
202.5630732
0
ARC
8
DEFAULT_255_1_388
10
22.8695018
20
153.3245142
40
0.4192612
50
202.8078931
51
216.1195888
0
ARC
8
DEFAULT_255_1_388
10
22.7784535
20
153.2512479
40
0.3025752
50
215.0755613
51
264.6379773
0
ARC
8
DEFAULT_255_1_388
10
22.7927372
20
153.3447376
40
0.3970284
50
263.8464302
51
270.0830805
0
ARC
8
DEFAULT_255_1_388
10
22.7973917
20
153.3156808
40
0.3679937
50
269.3649295
51
287.5149684
0
ARC
8
DEFAULT_255_1_388
10
22.8174358
20
153.2428714
40
0.2925408
50
288.0629019
51
323.8115617
0
ARC
8
DEFAULT_255_1_388
10
22.7194334
20
153.3159754
40
0.4148018
50
323.6546541
51
342.6591359
0
ARC
8
DEFAULT_255_1_388
10
22.4908992
20
153.390328
40
0.6551163
50
342.4092446
51
353.6451501
0
ARC
8
DEFAULT_255_1_388
10
22.1723785
20
153.4299565
40
0.9760748
50
353.4027553
51
359.4846611
0
LINE
8
DEFAULT_255_1_388
10
23.7809089
20
153.4211775
11
23.7809089
21
153.5576157
0
LINE
8
DEFAULT_255_1_388
10
23.7809089
20
153.5576157
11
23.9065043
21
153.5576157
0
LINE
8
DEFAULT_255_1_388
10
23.6923596
20
153.7889282
11
23.5252001
21
153.7889282
0
LINE
8
DEFAULT_255_1_388
10
23.5134538
20
153.1654688
11
23.6815168
21
153.1654688
0
LINE
8
DEFAULT_255_1_388
10
23.9065043
20
153.4211775
11
23.7809089
21
153.4211775
0
ARC
8
DEFAULT_255_1_388
10
23.903227
20
153.9392922
40
0.3816905
50
270.491971
51
281.8953028
0
ARC
8
DEFAULT_255_1_388
10
23.9303697
20
153.8153199
40
0.2547877
50
281.6690378
51
301.2943765
0
ARC
8
DEFAULT_255_1_388
10
23.9495148
20
153.7802926
40
0.2149197
50
301.7834992
51
311.754567
0
ARC
8
DEFAULT_255_1_388
10
23.959819
20
153.768865
40
0.1995326
50
311.7325027
51
354.2803031
0
ARC
8
DEFAULT_255_1_388
10
23.8780606
20
153.782928
40
0.2823461
50
353.0941646
51
0.1174696
0
ARC
8
DEFAULT_255_1_388
10
23.8262163
20
153.7882874
40
0.3342238
50
359.1804452
51
15.0452323
0
ARC
8
DEFAULT_255_1_388
10
23.9776222
20
153.8324546
40
0.1765747
50
13.957816
51
77.6713812
0
ARC
8
DEFAULT_255_1_388
10
23.9341458
20
153.6766464
40
0.3381982
50
76.111571
51
90.7028736
0
ARC
8
DEFAULT_255_1_388
10
23.927487
20
153.707425
40
0.3074046
50
89.5321574
51
103.5319393
0
ARC
8
DEFAULT_255_1_388
10
23.9049253
20
153.7973443
40
0.2147041
50
103.2930114
51
133.5619756
0
ARC
8
DEFAULT_255_1_388
10
23.8999195
20
153.8040351
40
0.2064084
50
133.8349761
51
173.5343225
0
ARC
8
DEFAULT_255_1_388
10
23.9812852
20
153.7896144
40
0.2889266
50
172.5097183
51
180.1360699
0
ARC
8
DEFAULT_255_1_388
10
23.8742616
20
153.793488
40
0.3490913
50
155.3483706
51
180.7484035
0
ARC
8
DEFAULT_255_1_388
10
23.8687592
20
153.7902519
40
0.3454798
50
131.5745177
51
154.4799474
0
ARC
8
DEFAULT_255_1_388
10
23.9039874
20
153.7546422
40
0.3955058
50
96.9874487
51
131.9690874
0
ARC
8
DEFAULT_255_1_388
10
23.9286767
20
153.6145407
40
0.537622
50
89.8592909
51
97.7827481
0
ARC
8
DEFAULT_255_1_388
10
23.9340876
20
153.585036
40
0.5671399
50
78.3654493
51
90.4132586
0
ARC
8
DEFAULT_255_1_388
10
23.9743517
20
153.7716918
40
0.3762034
50
56.6229818
51
78.6387103
0
ARC
8
DEFAULT_255_1_388
10
23.9985347
20
153.8139846
40
0.3275964
50
47.0254604
51
56.085558
0
ARC
8
DEFAULT_255_1_388
10
24.0007598
20
153.8184189
40
0.3228382
50
10.9207523
51
46.777927
0
ARC
8
DEFAULT_255_1_388
10
23.8473191
20
153.7829401
40
0.4802559
50
359.6364235
51
11.6087615
0
ARC
8
DEFAULT_255_1_388
10
24.0537357
20
153.7812404
40
0.273833
50
332.3549969
51
359.7179765
0
ARC
8
DEFAULT_255_1_388
10
23.9805758
20
153.8159285
40
0.3547505
50
325.2332381
51
332.8746682
0
ARC
8
DEFAULT_255_1_388
10
23.9977341
20
153.8039763
40
0.3338396
50
292.9803892
51
325.2391113
0
ARC
8
DEFAULT_255_1_388
10
23.9666536
20
153.8644679
40
0.4016959
50
292.542178
51
293.6931461
0
ARC
8
DEFAULT_255_1_388
10
24.0110108
20
153.1379036
40
0.372079
50
57.643292
51
72.8626085
0
ARC
8
DEFAULT_255_1_388
10
24.0508943
20
153.2025273
40
0.2961455
50
36.7246661
51
57.4701329
0
ARC
8
DEFAULT_255_1_388
10
24.04961
20
153.203947
40
0.2963321
50
8.054535
51
36.3561529
0
ARC
8
DEFAULT_255_1_388
10
23.9525772
20
153.1865073
40
0.3948682
50
359.8316595
51
8.5873361
0
ARC
8
DEFAULT_255_1_388
10
23.9103246
20
153.181097
40
0.4371398
50
343.9831631
51
0.557075
0
ARC
8
DEFAULT_255_1_388
10
24.0100296
20
153.1537963
40
0.3337749
50
311.6358204
51
343.7652116
0
ARC
8
DEFAULT_255_1_388
10
23.967455
20
153.2017955
40
0.3979351
50
279.7829743
51
311.625622
0
ARC
8
DEFAULT_255_1_388
10
23.9335685
20
153.3634642
40
0.5630417
50
269.7285092
51
280.3857694
0
ARC
8
DEFAULT_255_1_388
10
23.9265998
20
153.3588241
40
0.5584119
50
256.6827433
51
270.4412869
0
ARC
8
DEFAULT_255_1_388
10
23.8884984
20
153.2030698
40
0.3980715
50
229.4223821
51
256.8554507
0
ARC
8
DEFAULT_255_1_388
10
23.8418538
20
153.1505683
40
0.3278564
50
181.8183354
51
229.6455015
0
ARC
8
DEFAULT_255_1_388
10
23.9588147
20
153.1652825
40
0.4453611
50
179.9760419
51
183.2330638
0
ARC
8
DEFAULT_255_1_388
10
23.93947
20
153.1629781
40
0.2579652
50
179.4467996
51
196.2871626
0
ARC
8
DEFAULT_255_1_388
10
23.8846153
20
153.1479709
40
0.2011057
50
196.5661293
51
227.7059371
0
ARC
8
DEFAULT_255_1_388
10
23.9030761
20
153.1686155
40
0.2287994
50
227.7653015
51
257.8763321
0
ARC
8
DEFAULT_255_1_388
10
23.9283844
20
153.2746961
40
0.3378385
50
257.4583525
51
270.4267406
0
ARC
8
DEFAULT_255_1_388
10
23.9335093
20
153.307323
40
0.3704652
50
269.5965319
51
280.8788143
0
ARC
8
DEFAULT_255_1_388
10
23.9593321
20
153.1783529
40
0.2389415
50
280.6347277
51
299.8594068
0
ARC
8
DEFAULT_255_1_388
10
23.9808091
20
153.1375736
40
0.19289
50
300.3575552
51
314.5515667
0
ARC
8
DEFAULT_255_1_388
10
23.9714767
20
153.1444025
40
0.204312
50
315.0730962
51
345.0429362
0
ARC
8
DEFAULT_255_1_388
10
23.8676274
20
153.1746539
40
0.31246
50
344.598526
51
357.9270698
0
ARC
8
DEFAULT_255_1_388
10
23.7666579
20
153.1815705
40
0.4136265
50
357.4755098
51
0.0224936
0
ARC
8
DEFAULT_255_1_388
10
23.8819457
20
153.1843099
40
0.2983498
50
359.5051035
51
13.4236939
0
ARC
8
DEFAULT_255_1_388
10
23.9794546
20
153.2092637
40
0.1977186
50
12.9497905
51
48.7550905
0
ARC
8
DEFAULT_255_1_388
10
23.9589468
20
153.1812373
40
0.2323321
50
49.509109
51
72.1832965
0
ARC
8
DEFAULT_255_1_388
10
23.9186937
20
153.0617632
40
0.358397
50
71.9008458
51
84.3555134
0
ARC
8
DEFAULT_255_1_388
10
23.9005331
20
152.9085712
40
0.512641
50
84.019632
51
89.3326067
0
LINE
8
DEFAULT_255_1_388
10
23.3209946
20
158.8086553
11
23.3209946
21
158.7255274
0
LINE
8
DEFAULT_255_1_388
10
22.2629206
20
158.7137811
11
22.2629206
21
158.8086553
0
LINE
8
DEFAULT_255_1_388
10
23.1484138
20
158.7128775
11
23.1484138
21
158.8104625
0
LINE
8
DEFAULT_255_1_388
10
22.4355014
20
158.8222088
11
22.4355014
21
158.7255274
0
ARC
8
DEFAULT_255_1_388
10
22.3487684
20
158.7210726
40
0.9722364
50
350.4878118
51
0.2625322
0
ARC
8
DEFAULT_255_1_388
10
22.6067644
20
158.6766994
40
0.7104556
50
336.0277991
51
350.5787241
0
ARC
8
DEFAULT_255_1_388
10
22.7580751
20
158.6083243
40
0.544417
50
319.887443
51
336.1331163
0
ARC
8
DEFAULT_255_1_388
10
22.8258563
20
158.5540733
40
0.4576311
50
302.4806296
51
319.6144102
0
ARC
8
DEFAULT_255_1_388
10
22.8129184
20
158.5790067
40
0.4856183
50
275.8196423
51
302.1885521
0
ARC
8
DEFAULT_255_1_388
10
22.7942046
20
158.7075466
40
0.6154183
50
269.9169897
51
276.339506
0
ARC
8
DEFAULT_255_1_388
10
22.7891646
20
158.630368
40
0.5382553
50
252.5221437
51
270.441579
0
ARC
8
DEFAULT_255_1_388
10
22.7729897
20
158.5697046
40
0.4755426
50
237.5349961
51
252.1858334
0
ARC
8
DEFAULT_255_1_388
10
22.7830273
20
158.582512
40
0.4917393
50
209.0632754
51
237.3492577
0
ARC
8
DEFAULT_255_1_388
10
22.8809599
20
158.6440104
40
0.6072464
50
205.118533
51
209.6465345
0
ARC
8
DEFAULT_255_1_388
10
22.9705601
20
158.6820174
40
0.7045164
50
188.7216633
51
204.8239753
0
ARC
8
DEFAULT_255_1_388
10
23.1952376
20
158.7198387
40
0.9323368
50
180.3722704
51
188.9253909
0
ARC
8
DEFAULT_255_1_388
10
23.1921938
20
158.8131416
40
0.929284
50
169.5253055
51
180.2766048
0
ARC
8
DEFAULT_255_1_388
10
22.9781737
20
158.8525024
40
0.7116745
50
155.8314601
51
169.5088611
0
ARC
8
DEFAULT_255_1_388
10
22.83412
20
158.9193312
40
0.5528904
50
139.6259579
51
156.0379072
0
ARC
8
DEFAULT_255_1_388
10
22.7677733
20
158.9727143
40
0.4677708
50
122.6414784
51
139.3431662
0
ARC
8
DEFAULT_255_1_388
10
22.7790988
20
158.9520787
40
0.4912586
50
93.0224537
51
122.4556091
0
ARC
8
DEFAULT_255_1_388
10
22.7912509
20
158.8434776
40
0.6003837
50
89.9756766
51
93.6340839
0
ARC
8
DEFAULT_255_1_388
10
22.7956107
20
158.8883879
40
0.5554884
50
73.7463329
51
90.4234008
0
ARC
8
DEFAULT_255_1_388
10
22.815358
20
158.9648772
40
0.4765353
50
57.663051
51
73.4516911
0
ARC
8
DEFAULT_255_1_388
10
22.8144618
20
158.9673108
40
0.4749629
50
29.1441355
51
57.4146687
0
ARC
8
DEFAULT_255_1_388
10
22.7092429
20
158.9016046
40
0.5988917
50
24.0985653
51
29.732054
0
ARC
8
DEFAULT_255_1_388
10
22.5930061
20
158.8534154
40
0.7246823
50
8.6654943
51
23.8241215
0
ARC
8
DEFAULT_255_1_388
10
22.3416479
20
158.8124037
40
0.9793537
50
359.7807044
51
8.8218476
0
ARC
8
DEFAULT_255_1_388
10
22.2126184
20
158.8152731
40
0.9358078
50
359.7054632
51
8.0359751
0
ARC
8
DEFAULT_255_1_388
10
22.5501235
20
158.8644252
40
0.5947474
50
7.8926278
51
20.2962188
0
ARC
8
DEFAULT_255_1_388
10
22.7332085
20
158.9319367
40
0.3996117
50
20.3231056
51
36.4990255
0
ARC
8
DEFAULT_255_1_388
10
22.8103383
20
158.9913399
40
0.3022818
50
36.1436715
51
85.6627846
0
ARC
8
DEFAULT_255_1_388
10
22.7920638
20
158.8743881
40
0.4203853
50
84.3845912
51
90.076054
0
ARC
8
DEFAULT_255_1_388
10
22.7872993
20
158.9486416
40
0.346157
50
89.3037228
51
109.9046209
0
ARC
8
DEFAULT_255_1_388
10
22.7768826
20
158.9916379
40
0.3022217
50
110.8229774
51
143.917961
0
ARC
8
DEFAULT_255_1_388
10
22.8819185
20
158.9114455
40
0.434348
50
143.5289166
51
163.2980252
0
ARC
8
DEFAULT_255_1_388
10
23.0965472
20
158.8439685
40
0.659321
50
163.0418884
51
174.3139873
0
ARC
8
DEFAULT_255_1_388
10
23.3670437
20
158.8127378
40
0.9315905
50
174.050934
51
179.4174954
0
ARC
8
DEFAULT_255_1_388
10
23.3102381
20
158.7208382
40
0.8747493
50
179.6928582
51
188.7908948
0
ARC
8
DEFAULT_255_1_388
10
23.0106181
20
158.6729086
40
0.5713262
50
188.6328449
51
202.5630732
0
ARC
8
DEFAULT_255_1_388
10
22.8695018
20
158.6162142
40
0.4192612
50
202.8078931
51
216.1195888
0
ARC
8
DEFAULT_255_1_388
10
22.7784535
20
158.5429479
40
0.3025752
50
215.0755613
51
264.6379773
0
ARC
8
DEFAULT_255_1_388
10
22.7927372
20
158.6364376
40
0.3970284
50
263.8464302
51
270.0830805
0
ARC
8
DEFAULT_255_1_388
10
22.7973917
20
158.6073808
40
0.3679937
50
269.3649295
51
287.5149684
0
ARC
8
DEFAULT_255_1_388
10
22.8174358
20
158.5345714
40
0.2925408
50
288.0629019
51
323.8115617
0
ARC
8
DEFAULT_255_1_388
10
22.7194334
20
158.6076754
40
0.4148018
50
323.6546541
51
342.6591359
0
ARC
8
DEFAULT_255_1_388
10
22.4908992
20
158.682028
40
0.6551163
50
342.4092446
51
353.6451501
0
ARC
8
DEFAULT_255_1_388
10
22.1723785
20
158.7216565
40
0.9760748
50
353.4027553
51
359.4846611
0
LINE
8
DEFAULT_255_1_388
10
24.3998505
20
158.2466382
11
24.3998505
21
158.1102
0
LINE
8
DEFAULT_255_1_388
10
24.3998505
20
158.1102
11
23.53785
21
158.1102
0
LINE
8
DEFAULT_255_1_388
10
23.53785
20
158.1102
11
23.53785
21
158.2303741
0
LINE
8
DEFAULT_255_1_388
10
23.53785
20
158.2303741
11
23.9932465
21
158.7363702
0
LINE
8
DEFAULT_255_1_388
10
23.6797097
20
159.0381607
11
23.5125502
21
159.0381607
0
LINE
8
DEFAULT_255_1_388
10
24.0917351
20
158.628846
11
23.7393449
21
158.2466382
0
LINE
8
DEFAULT_255_1_388
10
23.7393449
20
158.2466382
11
24.3998505
21
158.2466382
0
ARC
8
DEFAULT_255_1_388
10
22.4756525
20
160.0783983
40
2.0258655
50
318.5132526
51
320.7829045
0
ARC
8
DEFAULT_255_1_388
10
23.0704482
20
159.5942929
40
1.2589638
50
320.7372878
51
323.9739031
0
ARC
8
DEFAULT_255_1_388
10
23.5113413
20
159.2748554
40
0.7145141
50
323.8962701
51
328.64194
0
ARC
8
DEFAULT_255_1_388
10
23.7415671
20
159.1328545
40
0.4440242
50
328.8294576
51
331.7891185
0
ARC
8
DEFAULT_255_1_388
10
23.8537991
20
159.0749374
40
0.3177517
50
331.4254512
51
352.9365785
0
ARC
8
DEFAULT_255_1_388
10
23.8690991
20
159.071505
40
0.3021496
50
353.2257659
51
0.0166158
0
ARC
8
DEFAULT_255_1_388
10
23.8927752
20
159.0740894
40
0.2784847
50
359.486299
51
15.9343185
0
ARC
8
DEFAULT_255_1_388
10
23.9498018
20
159.0894269
40
0.2194403
50
16.1712913
51
43.5286088
0
ARC
8
DEFAULT_255_1_388
10
23.9584963
20
159.0981191
40
0.2071504
50
43.4417391
51
83.1661095
0
ARC
8
DEFAULT_255_1_388
10
23.9434124
20
159.0152316
40
0.2912888
50
82.160179
51
90.1505708
0
ARC
8
DEFAULT_255_1_388
10
23.9398606
20
158.9548279
40
0.3517025
50
89.5460741
51
102.5418361
0
ARC
8
DEFAULT_255_1_388
10
23.9125326
20
159.0707933
40
0.2325748
50
102.1738499
51
129.206123
0
ARC
8
DEFAULT_255_1_388
10
23.9036779
20
159.0847664
40
0.2161591
50
129.72865
51
135.753947
0
ARC
8
DEFAULT_255_1_388
10
23.9173261
20
159.0738728
40
0.2335433
50
136.1757367
51
166.3673339
0
ARC
8
DEFAULT_255_1_388
10
24.030595
20
159.0435148
40
0.3507873
50
165.9090694
51
178.8684636
0
ARC
8
DEFAULT_255_1_388
10
24.1281721
20
159.0382263
40
0.4484624
50
178.4391136
51
180.0083808
0
ARC
8
DEFAULT_255_1_388
10
23.9702423
20
159.0426197
40
0.4577138
50
163.2878482
51
180.5581842
0
ARC
8
DEFAULT_255_1_388
10
23.8800464
20
159.0674393
40
0.3641968
50
133.4540601
51
162.947111
0
ARC
8
DEFAULT_255_1_388
10
23.9001346
20
159.0460789
40
0.3935189
50
100.7869829
51
133.4382499
0
ARC
8
DEFAULT_255_1_388
10
23.9392591
20
158.8718399
40
0.5720313
50
89.660664
51
101.3702276
0
ARC
8
DEFAULT_255_1_388
10
23.94672
20
158.8787263
40
0.5651495
50
78.2172678
51
90.412935
0
ARC
8
DEFAULT_255_1_388
10
23.9866665
20
159.0614511
40
0.378122
50
55.9269121
51
78.4888449
0
ARC
8
DEFAULT_255_1_388
10
24.008738
20
159.0995187
40
0.3342379
50
47.929771
51
55.4049217
0
ARC
8
DEFAULT_255_1_388
10
24.0201911
20
159.1111618
40
0.3179217
50
4.334829
51
48.0560205
0
ARC
8
DEFAULT_255_1_388
10
23.8969713
20
159.0920487
40
0.442341
50
359.9251713
51
5.5971671
0
ARC
8
DEFAULT_255_1_388
10
23.9451867
20
159.0983728
40
0.3941854
50
337.8914027
51
358.9967534
0
ARC
8
DEFAULT_255_1_388
10
23.6399437
20
159.2161295
40
0.7213271
50
326.9132501
51
338.3508308
0
ARC
8
DEFAULT_255_1_388
10
23.1915549
20
159.5035105
40
1.2538973
50
319.6471833
51
327.0959558
0
ARC
8
DEFAULT_255_1_388
10
22.7602207
20
159.859305
40
1.8129975
50
317.2588228
51
319.9045804
0
LINE
8
DEFAULT_255_1_388
10
23.3292946
20
164.1003553
11
23.3292946
21
164.0172274
0
LINE
8
DEFAULT_255_1_388
10
22.2712206
20
164.0054811
11
22.2712206
21
164.1003553
0
LINE
8
DEFAULT_255_1_388
10
23.1567138
20
164.0045775
11
23.1567138
21
164.1021625
0
LINE
8
DEFAULT_255_1_388
10
22.4438014
20
164.1139088
11
22.4438014
21
164.0172274
0
ARC
8
DEFAULT_255_1_388
10
22.3570684
20
164.0127726
40
0.9722364
50
350.4878118
51
0.2625322
0
ARC
8
DEFAULT_255_1_388
10
22.6150644
20
163.9683994
40
0.7104556
50
336.0277991
51
350.5787241
0
ARC
8
DEFAULT_255_1_388
10
22.7663751
20
163.9000243
40
0.544417
50
319.887443
51
336.1331163
0
ARC
8
DEFAULT_255_1_388
10
22.8341563
20
163.8457733
40
0.4576311
50
302.4806296
51
319.6144102
0
ARC
8
DEFAULT_255_1_388
10
22.8212184
20
163.8707067
40
0.4856183
50
275.8196423
51
302.1885521
0
ARC
8
DEFAULT_255_1_388
10
22.8025046
20
163.9992466
40
0.6154183
50
269.9169897
51
276.339506
0
ARC
8
DEFAULT_255_1_388
10
22.7974646
20
163.922068
40
0.5382553
50
252.5221437
51
270.441579
0
ARC
8
DEFAULT_255_1_388
10
22.7812897
20
163.8614046
40
0.4755426
50
237.5349961
51
252.1858334
0
ARC
8
DEFAULT_255_1_388
10
22.7913273
20
163.874212
40
0.4917393
50
209.0632754
51
237.3492577
0
ARC
8
DEFAULT_255_1_388
10
22.8892599
20
163.9357104
40
0.6072464
50
205.118533
51
209.6465345
0
ARC
8
DEFAULT_255_1_388
10
22.9788601
20
163.9737174
40
0.7045164
50
188.7216633
51
204.8239753
0
ARC
8
DEFAULT_255_1_388
10
23.2035376
20
164.0115387
40
0.9323368
50
180.3722704
51
188.9253909
0
ARC
8
DEFAULT_255_1_388
10
23.2004938
20
164.1048416
40
0.929284
50
169.5253055
51
180.2766048
0
ARC
8
DEFAULT_255_1_388
10
22.9864737
20
164.1442024
40
0.7116745
50
155.8314601
51
169.5088611
0
ARC
8
DEFAULT_255_1_388
10
22.84242
20
164.2110312
40
0.5528904
50
139.6259579
51
156.0379072
0
ARC
8
DEFAULT_255_1_388
10
22.7760733
20
164.2644143
40
0.4677708
50
122.6414784
51
139.3431662
0
ARC
8
DEFAULT_255_1_388
10
22.7873988
20
164.2437787
40
0.4912586
50
93.0224537
51
122.4556091
0
ARC
8
DEFAULT_255_1_388
10
22.7995509
20
164.1351776
40
0.6003837
50
89.9756766
51
93.6340839
0
ARC
8
DEFAULT_255_1_388
10
22.8039107
20
164.1800879
40
0.5554884
50
73.7463329
51
90.4234008
0
ARC
8
DEFAULT_255_1_388
10
22.823658
20
164.2565772
40
0.4765353
50
57.663051
51
73.4516911
0
ARC
8
DEFAULT_255_1_388
10
22.8227618
20
164.2590108
40
0.4749629
50
29.1441355
51
57.4146687
0
ARC
8
DEFAULT_255_1_388
10
22.7175429
20
164.1933046
40
0.5988917
50
24.0985653
51
29.732054
0
ARC
8
DEFAULT_255_1_388
10
22.6013061
20
164.1451154
40
0.7246823
50
8.6654943
51
23.8241215
0
ARC
8
DEFAULT_255_1_388
10
22.3499479
20
164.1041037
40
0.9793537
50
359.7807044
51
8.8218476
0
ARC
8
DEFAULT_255_1_388
10
22.2209184
20
164.1069731
40
0.9358078
50
359.7054632
51
8.0359751
0
ARC
8
DEFAULT_255_1_388
10
22.5584235
20
164.1561252
40
0.5947474
50
7.8926278
51
20.2962188
0
ARC
8
DEFAULT_255_1_388
10
22.7415085
20
164.2236367
40
0.3996117
50
20.3231056
51
36.4990255
0
ARC
8
DEFAULT_255_1_388
10
22.8186383
20
164.2830399
40
0.3022818
50
36.1436715
51
85.6627846
0
ARC
8
DEFAULT_255_1_388
10
22.8003638
20
164.1660881
40
0.4203853
50
84.3845912
51
90.076054
0
ARC
8
DEFAULT_255_1_388
10
22.7955993
20
164.2403416
40
0.346157
50
89.3037228
51
109.9046209
0
ARC
8
DEFAULT_255_1_388
10
22.7851826
20
164.2833379
40
0.3022217
50
110.8229774
51
143.917961
0
ARC
8
DEFAULT_255_1_388
10
22.8902185
20
164.2031455
40
0.434348
50
143.5289166
51
163.2980252
0
ARC
8
DEFAULT_255_1_388
10
23.1048472
20
164.1356685
40
0.659321
50
163.0418884
51
174.3139873
0
ARC
8
DEFAULT_255_1_388
10
23.3753437
20
164.1044378
40
0.9315905
50
174.050934
51
179.4174954
0
ARC
8
DEFAULT_255_1_388
10
23.3185381
20
164.0125382
40
0.8747493
50
179.6928582
51
188.7908948
0
ARC
8
DEFAULT_255_1_388
10
23.0189181
20
163.9646086
40
0.5713262
50
188.6328449
51
202.5630732
0
ARC
8
DEFAULT_255_1_388
10
22.8778018
20
163.9079142
40
0.4192612
50
202.8078931
51
216.1195888
0
ARC
8
DEFAULT_255_1_388
10
22.7867535
20
163.8346479
40
0.3025752
50
215.0755613
51
264.6379773
0
ARC
8
DEFAULT_255_1_388
10
22.8010372
20
163.9281376
40
0.3970284
50
263.8464302
51
270.0830805
0
ARC
8
DEFAULT_255_1_388
10
22.8056917
20
163.8990808
40
0.3679937
50
269.3649295
51
287.5149684
0
ARC
8
DEFAULT_255_1_388
10
22.8257358
20
163.8262714
40
0.2925408
50
288.0629019
51
323.8115617
0
ARC
8
DEFAULT_255_1_388
10
22.7277334
20
163.8993754
40
0.4148018
50
323.6546541
51
342.6591359
0
ARC
8
DEFAULT_255_1_388
10
22.4991992
20
163.973728
40
0.6551163
50
342.4092446
51
353.6451501
0
ARC
8
DEFAULT_255_1_388
10
22.1806785
20
164.0133565
40
0.9760748
50
353.4027553
51
359.4846611
0
LINE
8
DEFAULT_255_1_388
10
24.0955172
20
164.7238148
11
24.0955172
21
163.4019
0
LINE
8
DEFAULT_255_1_388
10
24.0955172
20
163.4019
11
23.9274542
21
163.4019
0
LINE
8
DEFAULT_255_1_388
10
23.9274542
20
163.4019
11
23.9274542
21
164.515995
0
LINE
8
DEFAULT_255_1_388
10
23.9274542
20
164.515995
11
23.5904247
21
164.3922066
0
LINE
8
DEFAULT_255_1_388
10
23.5904247
20
164.3922066
11
23.5904247
21
164.5440055
0
LINE
8
DEFAULT_255_1_388
10
23.5904247
20
164.5440055
11
24.0693139
21
164.7238148
0
LINE
8
DEFAULT_255_1_388
10
24.0693139
20
164.7238148
11
24.0955172
21
164.7238148
0
LINE
8
DEFAULT_255_1_388
10
23.3209946
20
169.3919553
11
23.3209946
21
169.3088274
0
LINE
8
DEFAULT_255_1_388
10
22.2629206
20
169.2970811
11
22.2629206
21
169.3919553
0
LINE
8
DEFAULT_255_1_388
10
23.1484138
20
169.2961775
11
23.1484138
21
169.3937625
0
LINE
8
DEFAULT_255_1_388
10
22.4355014
20
169.4055088
11
22.4355014
21
169.3088274
0
ARC
8
DEFAULT_255_1_388
10
22.3487684
20
169.3043726
40
0.9722364
50
350.4878118
51
0.2625322
0
ARC
8
DEFAULT_255_1_388
10
22.6067644
20
169.2599994
40
0.7104556
50
336.0277991
51
350.5787241
0
ARC
8
DEFAULT_255_1_388
10
22.7580751
20
169.1916243
40
0.544417
50
319.887443
51
336.1331163
0
ARC
8
DEFAULT_255_1_388
10
22.8258563
20
169.1373733
40
0.4576311
50
302.4806296
51
319.6144102
0
ARC
8
DEFAULT_255_1_388
10
22.8129184
20
169.1623067
40
0.4856183
50
275.8196423
51
302.1885521
0
ARC
8
DEFAULT_255_1_388
10
22.7942046
20
169.2908466
40
0.6154183
50
269.9169897
51
276.339506
0
ARC
8
DEFAULT_255_1_388
10
22.7891646
20
169.213668
40
0.5382553
50
252.5221437
51
270.441579
0
ARC
8
DEFAULT_255_1_388
10
22.7729897
20
169.1530046
40
0.4755426
50
237.5349961
51
252.1858334
0
ARC
8
DEFAULT_255_1_388
10
22.7830273
20
169.165812
40
0.4917393
50
209.0632754
51
237.3492577
0
ARC
8
DEFAULT_255_1_388
10
22.8809599
20
169.2273104
40
0.6072464
50
205.118533
51
209.6465345
0
ARC
8
DEFAULT_255_1_388
10
22.9705601
20
169.2653174
40
0.7045164
50
188.7216633
51
204.8239753
0
ARC
8
DEFAULT_255_1_388
10
23.1952376
20
169.3031387
40
0.9323368
50
180.3722704
51
188.9253909
0
ARC
8
DEFAULT_255_1_388
10
23.1921938
20
169.3964416
40
0.929284
50
169.5253055
51
180.2766048
0
ARC
8
DEFAULT_255_1_388
10
22.9781737
20
169.4358024
40
0.7116745
50
155.8314601
51
169.5088611
0
ARC
8
DEFAULT_255_1_388
10
22.83412
20
169.5026312
40
0.5528904
50
139.6259579
51
156.0379072
0
ARC
8
DEFAULT_255_1_388
10
22.7677733
20
169.5560143
40
0.4677708
50
122.6414784
51
139.3431662
0
ARC
8
DEFAULT_255_1_388
10
22.7790988
20
169.5353787
40
0.4912586
50
93.0224537
51
122.4556091
0
ARC
8
DEFAULT_255_1_388
10
22.7912509
20
169.4267776
40
0.6003837
50
89.9756766
51
93.6340839
0
ARC
8
DEFAULT_255_1_388
10
22.7956107
20
169.4716879
40
0.5554884
50
73.7463329
51
90.4234008
0
ARC
8
DEFAULT_255_1_388
10
22.815358
20
169.5481772
40
0.4765353
50
57.663051
51
73.4516911
0
ARC
8
DEFAULT_255_1_388
10
22.8144618
20
169.5506108
40
0.4749629
50
29.1441355
51
57.4146687
0
ARC
8
DEFAULT_255_1_388
10
22.7092429
20
169.4849046
40
0.5988917
50
24.0985653
51
29.732054
0
ARC
8
DEFAULT_255_1_388
10
22.5930061
20
169.4367154
40
0.7246823
50
8.6654943
51
23.8241215
0
ARC
8
DEFAULT_255_1_388
10
22.3416479
20
169.3957037
40
0.9793537
50
359.7807044
51
8.8218476
0
ARC
8
DEFAULT_255_1_388
10
22.2126184
20
169.3985731
40
0.9358078
50
359.7054632
51
8.0359751
0
ARC
8
DEFAULT_255_1_388
10
22.5501235
20
169.4477252
40
0.5947474
50
7.8926278
51
20.2962188
0
ARC
8
DEFAULT_255_1_388
10
22.7332085
20
169.5152367
40
0.3996117
50
20.3231056
51
36.4990255
0
ARC
8
DEFAULT_255_1_388
10
22.8103383
20
169.5746399
40
0.3022818
50
36.1436715
51
85.6627846
0
ARC
8
DEFAULT_255_1_388
10
22.7920638
20
169.4576881
40
0.4203853
50
84.3845912
51
90.076054
0
ARC
8
DEFAULT_255_1_388
10
22.7872993
20
169.5319416
40
0.346157
50
89.3037228
51
109.9046209
0
ARC
8
DEFAULT_255_1_388
10
22.7768826
20
169.5749379
40
0.3022217
50
110.8229774
51
143.917961
0
ARC
8
DEFAULT_255_1_388
10
22.8819185
20
169.4947455
40
0.434348
50
143.5289166
51
163.2980252
0
ARC
8
DEFAULT_255_1_388
10
23.0965472
20
169.4272685
40
0.659321
50
163.0418884
51
174.3139873
0
ARC
8
DEFAULT_255_1_388
10
23.3670437
20
169.3960378
40
0.9315905
50
174.050934
51
179.4174954
0
ARC
8
DEFAULT_255_1_388
10
23.3102381
20
169.3041382
40
0.8747493
50
179.6928582
51
188.7908948
0
ARC
8
DEFAULT_255_1_388
10
23.0106181
20
169.2562086
40
0.5713262
50
188.6328449
51
202.5630732
0
ARC
8
DEFAULT_255_1_388
10
22.8695018
20
169.1995142
40
0.4192612
50
202.8078931
51
216.1195888
0
ARC
8
DEFAULT_255_1_388
10
22.7784535
20
169.1262479
40
0.3025752
50
215.0755613
51
264.6379773
0
ARC
8
DEFAULT_255_1_388
10
22.7927372
20
169.2197376
40
0.3970284
50
263.8464302
51
270.0830805
0
ARC
8
DEFAULT_255_1_388
10
22.7973917
20
169.1906808
40
0.3679937
50
269.3649295
51
287.5149684
0
ARC
8
DEFAULT_255_1_388
10
22.8174358
20
169.1178714
40
0.2925408
50
288.0629019
51
323.8115617
0
ARC
8
DEFAULT_255_1_388
10
22.7194334
20
169.1909754
40
0.4148018
50
323.6546541
51
342.6591359
0
ARC
8
DEFAULT_255_1_388
10
22.4908992
20
169.265328
40
0.6551163
50
342.4092446
51
353.6451501
0
ARC
8
DEFAULT_255_1_388
10
22.1723785
20
169.3049565
40
0.9760748
50
353.4027553
51
359.4846611
0
LINE
8
DEFAULT_255_1_388
10
24.3628044
20
169.471469
11
24.3628044
21
169.2546135
0
LINE
8
DEFAULT_255_1_388
10
23.5324287
20
169.2320244
11
23.5324287
21
169.4552048
0
LINE
8
DEFAULT_255_1_388
10
24.195645
20
169.2094353
11
24.195645
21
169.4832153
0
LINE
8
DEFAULT_255_1_388
10
23.6995881
20
169.4958652
11
23.6995881
21
169.2284102
0
ARC
8
DEFAULT_255_1_388
10
22.9850378
20
169.2491118
40
1.3777776
50
353.8440855
51
0.2287917
0
ARC
8
DEFAULT_255_1_388
10
23.5069395
20
169.1908414
40
0.852639
50
344.4934746
51
353.9763743
0
ARC
8
DEFAULT_255_1_388
10
23.8436202
20
169.0951191
40
0.5026273
50
329.2803599
51
344.7473406
0
ARC
8
DEFAULT_255_1_388
10
23.9551698
20
169.0339038
40
0.3754848
50
324.9361395
51
328.6153007
0
ARC
8
DEFAULT_255_1_388
10
23.9977348
20
169.0041586
40
0.3235566
50
280.5801797
51
324.9173226
0
ARC
8
DEFAULT_255_1_388
10
23.9525977
20
169.1921236
40
0.5167077
50
269.5979457
51
281.6732777
0
ARC
8
DEFAULT_255_1_388
10
23.944488
20
169.1786113
40
0.5032026
50
256.6228565
51
270.5105488
0
ARC
8
DEFAULT_255_1_388
10
23.8992623
20
169.0044345
40
0.3233092
50
215.8618351
51
257.2787793
0
ARC
8
DEFAULT_255_1_388
10
24.014133
20
169.0815106
40
0.4615831
50
197.9695203
51
215.2622745
0
ARC
8
DEFAULT_255_1_388
10
24.2937006
20
169.1758641
40
0.7566307
50
187.8816486
51
198.2346584
0
ARC
8
DEFAULT_255_1_388
10
24.7390244
20
169.2401453
40
1.2065653
50
180.8977266
51
188.0054894
0
ARC
8
DEFAULT_255_1_388
10
25.0440458
20
169.25164
40
1.5117443
50
180.7434591
51
181.152202
0
ARC
8
DEFAULT_255_1_388
10
24.8765453
20
169.4606371
40
1.3441277
50
173.7674302
51
180.2315596
0
ARC
8
DEFAULT_255_1_388
10
24.3683322
20
169.5180779
40
0.8326847
50
164.3058537
51
173.9000553
0
ARC
8
DEFAULT_255_1_388
10
24.0407322
20
169.6124652
40
0.4917711
50
148.7922028
51
164.5682288
0
ARC
8
DEFAULT_255_1_388
10
23.933806
20
169.6721457
40
0.3694204
50
144.5883979
51
148.1161588
0
ARC
8
DEFAULT_255_1_388
10
23.8950805
20
169.6991667
40
0.322202
50
101.6440149
51
144.5142619
0
ARC
8
DEFAULT_255_1_388
10
23.9428997
20
169.5091337
40
0.5180451
50
89.528284
51
102.5820197
0
ARC
8
DEFAULT_255_1_388
10
23.9517989
20
169.5047376
40
0.5224441
50
77.0437914
51
90.508231
0
ARC
8
DEFAULT_255_1_388
10
23.9970243
20
169.6895272
40
0.3322297
50
48.2777708
51
77.4996087
0
ARC
8
DEFAULT_255_1_388
10
24.0051983
20
169.7040557
40
0.315966
50
36.3141586
51
47.6307332
0
ARC
8
DEFAULT_255_1_388
10
23.9074705
20
169.6382159
40
0.4337313
50
18.2931065
51
35.6770203
0
ARC
8
DEFAULT_255_1_388
10
23.6213546
20
169.5400107
40
0.7362203
50
8.0246996
51
18.5605636
0
ARC
8
DEFAULT_255_1_388
10
23.1529901
20
169.4708432
40
1.2096583
50
1.127539
51
8.1718423
0
ARC
8
DEFAULT_255_1_388
10
22.7881035
20
169.4565374
40
1.5747719
50
0.5432713
51
1.38669
0
ARC
8
DEFAULT_255_1_388
10
22.9938414
20
169.4872163
40
1.2018103
50
359.8092569
51
4.9408001
0
ARC
8
DEFAULT_255_1_388
10
23.4674995
20
169.52949
40
0.7262727
50
4.8364937
51
12.2906017
0
ARC
8
DEFAULT_255_1_388
10
23.777446
20
169.5985485
40
0.4087324
50
12.0806994
51
23.8171225
0
ARC
8
DEFAULT_255_1_388
10
23.9094856
20
169.6544508
40
0.2653719
50
24.2874621
51
31.3934353
0
ARC
8
DEFAULT_255_1_388
10
23.9685291
20
169.6930822
40
0.1948607
50
30.7407708
51
82.4658033
0
ARC
8
DEFAULT_255_1_388
10
23.9482952
20
169.5937017
40
0.2961198
50
81.1057101
51
90.2187368
0
ARC
8
DEFAULT_255_1_388
10
23.9442764
20
169.6227421
40
0.2670929
50
89.380395
51
105.6763916
0
ARC
8
DEFAULT_255_1_388
10
23.9236486
20
169.697732
40
0.1893189
50
105.7980655
51
149.7387869
0
ARC
8
DEFAULT_255_1_388
10
24.0433626
20
169.6257719
40
0.3289892
50
149.4208441
51
163.628295
0
ARC
8
DEFAULT_255_1_388
10
24.2785856
20
169.5540345
40
0.5749004
50
163.3764549
51
172.141138
0
ARC
8
DEFAULT_255_1_388
10
24.6498577
20
169.5008582
40
0.9499585
50
172.0258462
51
178.0705453
0
ARC
8
DEFAULT_255_1_388
10
24.992013
20
169.4846682
40
1.2924734
50
177.8639301
51
179.5036263
0
ARC
8
DEFAULT_255_1_388
10
24.8701149
20
169.2243151
40
1.170534
50
179.7995545
51
185.246089
0
ARC
8
DEFAULT_255_1_388
10
24.4152742
20
169.1812404
40
0.7136613
50
185.1411911
51
193.0082205
0
ARC
8
DEFAULT_255_1_388
10
24.1179003
20
169.1109441
40
0.4080987
50
192.7897338
51
205.2507384
0
ARC
8
DEFAULT_255_1_388
10
24.0001213
20
169.0583538
40
0.2791522
50
205.8001921
51
211.2545876
0
ARC
8
DEFAULT_255_1_388
10
23.9412752
20
169.0189132
40
0.2084074
50
210.3789935
51
238.4007996
0
ARC
8
DEFAULT_255_1_388
10
23.9390838
20
169.0241786
40
0.2117943
50
239.6521916
51
265.9793852
0
ARC
8
DEFAULT_255_1_388
10
23.9486687
20
169.0998358
40
0.2879689
50
265.1324455
51
270.0603288
0
ARC
8
DEFAULT_255_1_388
10
23.9519064
20
169.0633418
40
0.2514919
50
269.3314378
51
287.2180039
0
ARC
8
DEFAULT_255_1_388
10
23.9674146
20
169.0067291
40
0.1928357
50
287.7957942
51
329.0808983
0
ARC
8
DEFAULT_255_1_388
10
23.8596903
20
169.0739651
40
0.319808
50
328.6635261
51
343.3325043
0
ARC
8
DEFAULT_255_1_388
10
23.6152362
20
169.1501195
40
0.5758408
50
343.0498092
51
351.9392499
0
ARC
8
DEFAULT_255_1_388
10
23.2251683
20
169.2076205
40
0.9701202
50
351.8071632
51
357.7957897
0
ARC
8
DEFAULT_255_1_388
10
22.861716
20
169.2264724
40
1.3340376
50
357.5870923
51
359.2682493
0
ENDSEC
0
EOF