0
SECTION
2
HEADER
9
$MEASUREMENT
70
1
0
ENDSEC
0
SECTION
2
TABLES
0
TABLE
2
LTYPE
0
LTYPE
72
65
70
64
2
CONTINUOUS
3
______
73
0
40
0
0
ENDTAB
0
TABLE
2
LAYER
0
LAYER
2
DEFAULT_255_2_778
70
0
62
255
6
CONTINUOUS
0
LAYER
2
DEFAULT_255_1_234
70
0
62
255
6
CONTINUOUS
0
ENDTAB
0
ENDSEC
0
SECTION
2
ENTITIES
0
ARC
8
DEFAULT_255_2_778
10
3.5700693
20
181.6384682
40
0.7914215
50
129.1312896
51
180.1450914
0
ARC
8
DEFAULT_255_2_778
10
3.5703345
20
181.6389553
40
0.7912112
50
89.854026
51
129.1684493
0
ARC
8
DEFAULT_255_2_778
10
25.7993937
20
181.6386419
40
0.7915249
50
39.4792447
51
90.147911
0
ARC
8
DEFAULT_255_2_778
10
25.7999935
20
181.6384885
40
0.7911595
50
359.8533901
51
39.5154338
0
ARC
8
DEFAULT_255_2_778
10
25.7997714
20
-1.9864442
40
0.7913815
50
309.1282118
51
0.1454017
0
ARC
8
DEFAULT_255_2_778
10
25.7993889
20
-1.9867615
40
0.7913769
50
269.8524075
51
309.1641908
0
ARC
8
DEFAULT_255_2_778
10
3.5703462
20
-1.9867169
40
0.7914215
50
219.1312896
51
270.1450914
0
ARC
8
DEFAULT_255_2_778
10
3.5698591
20
-1.9864517
40
0.7912112
50
179.854026
51
219.1684493
0
LINE
8
DEFAULT_255_2_778
10
3.5723503
20
182.4301641
11
25.7973503
21
182.4301641
0
LINE
8
DEFAULT_255_2_778
10
26.5911503
20
181.6364641
11
26.5911503
21
-1.9844359
0
LINE
8
DEFAULT_255_2_778
10
25.7973503
20
-2.7781359
11
3.5723503
21
-2.7781359
0
LINE
8
DEFAULT_255_2_778
10
2.7786503
20
-1.9844359
11
2.7786503
21
181.6364641
0
LINE
8
DEFAULT_255_1_234
10
10.469023
20
-0.2802337
11
10.6240355
21
-0.2802337
0
LINE
8
DEFAULT_255_1_234
10
9.7236777
20
-0.1212053
11
9.7236777
21
-0.0087609
0
LINE
8
DEFAULT_255_1_234
10
10.6240355
20
0.1422357
11
10.469023
21
0.1422357
0
LINE
8
DEFAULT_255_1_234
10
9.8786902
20
-0.0127768
11
9.8786902
21
-0.1260243
0
ARC
8
DEFAULT_255_1_234
10
10.0759742
20
-0.2205154
40
0.5513052
50
340.1774281
51
353.7814284
0
ARC
8
DEFAULT_255_1_234
10
10.2331095
20
-0.2790418
40
0.3836379
50
311.4558989
51
340.4421614
0
ARC
8
DEFAULT_255_1_234
10
10.2297763
20
-0.2679472
40
0.3941894
50
282.4333181
51
310.7513653
0
ARC
8
DEFAULT_255_1_234
10
10.1858502
20
-0.0864321
40
0.5809175
50
269.9358511
51
282.809604
0
ARC
8
DEFAULT_255_1_234
10
10.1806568
20
0.0593212
40
0.7266847
50
270.0021091
51
270.3581957
0
ARC
8
DEFAULT_255_1_234
10
10.1753985
20
-0.2007415
40
0.4666519
50
250.7884749
51
270.6489167
0
ARC
8
DEFAULT_255_1_234
10
10.158582
20
-0.2644681
40
0.4009729
50
219.3627325
51
250.0611886
0
ARC
8
DEFAULT_255_1_234
10
10.2415031
20
-0.1939958
40
0.5097822
50
193.5479632
51
219.5756669
0
ARC
8
DEFAULT_255_1_234
10
10.4786652
20
-0.1324081
40
0.7547848
50
181.1218675
51
193.87563
0
ARC
8
DEFAULT_255_1_234
10
10.6856833
20
-0.121342
40
0.9620055
50
179.9918545
51
181.5394234
0
ARC
8
DEFAULT_255_1_234
10
10.5005935
20
-0.0050212
40
0.7769248
50
169.5837241
51
180.2757934
0
ARC
8
DEFAULT_255_1_234
10
10.3168873
20
0.0289229
40
0.590109
50
155.0365899
51
169.6003176
0
ARC
8
DEFAULT_255_1_234
10
10.2033337
20
0.0836677
40
0.4640625
50
136.783148
51
155.2472683
0
ARC
8
DEFAULT_255_1_234
10
10.1643814
20
0.1167562
40
0.4130255
50
121.7633186
51
136.428115
0
ARC
8
DEFAULT_255_1_234
10
10.1778776
20
0.0918227
40
0.4413323
50
95.6459699
51
121.5490577
0
ARC
8
DEFAULT_255_1_234
10
10.1936058
20
-0.0190051
40
0.55319
50
89.924208
51
96.1377933
0
ARC
8
DEFAULT_255_1_234
10
10.1986491
20
-0.0071458
40
0.5413475
50
76.6779277
51
90.4563316
0
ARC
8
DEFAULT_255_1_234
10
10.2380114
20
0.1519114
40
0.3775041
50
47.485847
51
76.9287264
0
ARC
8
DEFAULT_255_1_234
10
10.2233087
20
0.1419159
40
0.3948286
50
16.5424086
51
46.8933463
0
ARC
8
DEFAULT_255_1_234
10
10.0625244
20
0.0890861
40
0.564021
50
5.4072051
51
17.0365086
0
ARC
8
DEFAULT_255_1_234
10
9.9186261
20
0.0659679
40
0.5556559
50
7.8891745
51
15.9239216
0
ARC
8
DEFAULT_255_1_234
10
10.1173274
20
0.1236631
40
0.3487515
50
15.7653144
51
27.9410532
0
ARC
8
DEFAULT_255_1_234
10
10.2277492
20
0.182779
40
0.2235026
50
27.8166557
51
46.4008329
0
ARC
8
DEFAULT_255_1_234
10
10.2327135
20
0.1822082
40
0.2205286
50
47.4371857
51
75.0698205
0
ARC
8
DEFAULT_255_1_234
10
10.2018529
20
0.0747765
40
0.3322915
50
74.7008593
51
87.8124495
0
ARC
8
DEFAULT_255_1_234
10
10.1945217
20
-0.0308156
40
0.4380987
50
87.3814673
51
90.0240855
0
ARC
8
DEFAULT_255_1_234
10
10.190676
20
0.0869291
40
0.3203749
50
89.3451631
51
108.5745436
0
ARC
8
DEFAULT_255_1_234
10
10.1769865
20
0.1382908
40
0.2673494
50
109.2998449
51
143.3037509
0
ARC
8
DEFAULT_255_1_234
10
10.2531938
20
0.0796881
40
0.3634757
50
143.0753173
51
163.1916937
0
ARC
8
DEFAULT_255_1_234
10
10.4483666
20
0.0180967
40
0.5681262
50
162.9373603
51
174.6208611
0
ARC
8
DEFAULT_255_1_234
10
10.7109708
20
-0.010699
40
0.8322832
50
174.3419979
51
180.1430411
0
ARC
8
DEFAULT_255_1_234
10
10.6178864
20
-0.1301302
40
0.7392076
50
179.6817502
51
189.150529
0
ARC
8
DEFAULT_255_1_234
10
10.3678112
20
-0.171781
40
0.4856932
50
188.9910863
51
203.5773039
0
ARC
8
DEFAULT_255_1_234
10
10.2598445
20
-0.2165789
40
0.3688271
50
203.9077269
51
215.1312379
0
ARC
8
DEFAULT_255_1_234
10
10.1675539
20
-0.2881059
40
0.2522457
50
213.9071664
51
263.8849284
0
ARC
8
DEFAULT_255_1_234
10
10.1800868
20
-0.2096482
40
0.3316174
50
263.1758525
51
270.1031083
0
ARC
8
DEFAULT_255_1_234
10
10.183296
20
-0.0849635
40
0.4563091
50
269.6719807
51
279.0609165
0
ARC
8
DEFAULT_255_1_234
10
10.2099728
20
-0.2462093
40
0.2928759
50
278.8750225
51
293.6346586
0
ARC
8
DEFAULT_255_1_234
10
10.2419936
20
-0.32141
40
0.2111472
50
293.8553404
51
310.0518804
0
ARC
8
DEFAULT_255_1_234
10
10.242479
20
-0.3276484
40
0.2060917
50
311.0646779
51
332.0108348
0
ARC
8
DEFAULT_255_1_234
10
10.1232517
20
-0.2619022
40
0.3422352
50
331.6588543
51
343.2878891
0
ARC
8
DEFAULT_255_1_234
10
9.9170032
20
-0.1985202
40
0.5580003
50
343.1446044
51
351.010618
0
ARC
8
DEFAULT_255_1_234
10
9.7628678
20
-0.1704129
40
0.7146438
50
350.7157277
51
351.1602153
0
LINE
8
DEFAULT_255_1_234
10
11.3244031
20
-0.3123606
11
11.3244031
21
0.5181211
0
LINE
8
DEFAULT_255_1_234
10
11.3244031
20
0.5181211
11
11.4794157
21
0.5181211
0
LINE
8
DEFAULT_255_1_234
10
11.4794157
20
0.5181211
11
11.4794157
21
-0.3099511
0
LINE
8
DEFAULT_255_1_234
10
10.7412989
20
-0.3284241
11
10.8955083
21
-0.3284241
0
ARC
8
DEFAULT_255_1_234
10
11.0303342
20
-0.3137911
40
0.4490979
50
346.3129415
51
0.4899112
0
ARC
8
DEFAULT_255_1_234
10
11.1671691
20
-0.3488271
40
0.3078632
50
313.3793358
51
346.6225026
0
ARC
8
DEFAULT_255_1_234
10
11.1470878
20
-0.3235478
40
0.3400404
50
281.1587967
51
312.9131091
0
ARC
8
DEFAULT_255_1_234
10
11.1130342
20
-0.1740815
40
0.4932916
50
269.6424364
51
281.6795951
0
ARC
8
DEFAULT_255_1_234
10
11.1061706
20
-0.1191618
40
0.5482147
50
258.9990078
51
270.3955952
0
ARC
8
DEFAULT_255_1_234
10
11.068701
20
-0.3040254
40
0.359601
50
239.6256123
51
259.238693
0
ARC
8
DEFAULT_255_1_234
10
11.0398093
20
-0.3585331
40
0.2979777
50
227.4959765
51
239.1188186
0
ARC
8
DEFAULT_255_1_234
10
11.0360659
20
-0.3646311
40
0.2909561
50
191.339631
51
227.2280909
0
ARC
8
DEFAULT_255_1_234
10
11.17653
20
-0.3313969
40
0.4352412
50
179.6086538
51
191.9934722
0
ARC
8
DEFAULT_255_1_234
10
11.1899322
20
-0.3306573
40
0.2944324
50
179.5654258
51
192.070398
0
ARC
8
DEFAULT_255_1_234
10
11.0927812
20
-0.3524921
40
0.194866
50
191.7656467
51
215.6461951
0
ARC
8
DEFAULT_255_1_234
10
11.0749313
20
-0.3632454
40
0.1741017
50
216.1938368
51
224.3931108
0
ARC
8
DEFAULT_255_1_234
10
11.0756199
20
-0.3605527
40
0.1764834
50
224.8613677
51
254.362656
0
ARC
8
DEFAULT_255_1_234
10
11.1026913
20
-0.271099
40
0.2699302
50
253.9471729
51
267.3949949
0
ARC
8
DEFAULT_255_1_234
10
11.109742
20
-0.1786933
40
0.362572
50
266.9456419
51
270.0337791
0
ARC
8
DEFAULT_255_1_234
10
11.11228
20
-0.294877
40
0.2463991
50
269.4595111
51
286.1822844
0
ARC
8
DEFAULT_255_1_234
10
11.126409
20
-0.3466953
40
0.1926982
50
286.4416479
51
315.8044008
0
ARC
8
DEFAULT_255_1_234
10
11.1209897
20
-0.3424793
40
0.1995241
50
316.0212565
51
345.4794351
0
ARC
8
DEFAULT_255_1_234
10
11.0239404
20
-0.3151425
40
0.3003349
50
345.0729543
51
358.325089
0
ARC
8
DEFAULT_255_1_234
10
10.9363375
20
-0.3095432
40
0.3880759
50
357.8767804
51
359.5840246
0
LINE
8
DEFAULT_255_1_234
10
12.1918309
20
0.5237433
11
12.1918309
21
-0.6513
0
LINE
8
DEFAULT_255_1_234
10
12.1918309
20
-0.6513
11
12.0424405
21
-0.6513
0
LINE
8
DEFAULT_255_1_234
10
12.0424405
20
-0.6513
11
12.0424405
21
0.3390133
0
LINE
8
DEFAULT_255_1_234
10
12.0424405
20
0.3390133
11
11.7428567
21
0.2289785
0
LINE
8
DEFAULT_255_1_234
10
11.7428567
20
0.2289785
11
11.7428567
21
0.3639117
0
LINE
8
DEFAULT_255_1_234
10
11.7428567
20
0.3639117
11
12.1685388
21
0.5237433
0
LINE
8
DEFAULT_255_1_234
10
12.1685388
20
0.5237433
11
12.1918309
21
0.5237433
0
LINE
8
DEFAULT_255_1_234
10
12.73317
20
0.5181211
11
12.9179
21
-0.2826432
0
LINE
8
DEFAULT_255_1_234
10
12.9179
20
-0.2826432
11
12.9403889
21
-0.4368526
0
LINE
8
DEFAULT_255_1_234
10
12.9403889
20
-0.4368526
11
12.973319
21
-0.2979035
0
LINE
8
DEFAULT_255_1_234
10
12.973319
20
-0.2979035
11
13.2046331
21
0.5181211
0
LINE
8
DEFAULT_255_1_234
10
13.2046331
20
0.5181211
11
13.3347472
21
0.5181211
0
LINE
8
DEFAULT_255_1_234
10
13.3347472
20
0.5181211
11
13.5604391
21
-0.2979035
0
LINE
8
DEFAULT_255_1_234
10
13.5604391
20
-0.2979035
11
13.592566
21
-0.4392621
0
LINE
8
DEFAULT_255_1_234
10
13.592566
20
-0.4392621
11
13.6174644
21
-0.28184
0
LINE
8
DEFAULT_255_1_234
10
13.6174644
20
-0.28184
11
13.7989817
21
0.5181211
0
LINE
8
DEFAULT_255_1_234
10
13.7989817
20
0.5181211
11
13.9539942
21
0.5181211
0
LINE
8
DEFAULT_255_1_234
10
13.9539942
20
0.5181211
11
13.6704739
21
-0.6513
0
LINE
8
DEFAULT_255_1_234
10
13.6704739
20
-0.6513
11
13.5299185
21
-0.6513
0
LINE
8
DEFAULT_255_1_234
10
13.5299185
20
-0.6513
11
13.2889663
21
0.2008674
0
LINE
8
DEFAULT_255_1_234
10
13.2889663
20
0.2008674
11
13.2704933
21
0.2900197
0
LINE
8
DEFAULT_255_1_234
10
13.2704933
20
0.2900197
11
13.2520203
21
0.2008674
0
LINE
8
DEFAULT_255_1_234
10
13.2520203
20
0.2008674
11
13.0022333
21
-0.6513
0
LINE
8
DEFAULT_255_1_234
10
13.0022333
20
-0.6513
11
12.8616778
21
-0.6513
0
LINE
8
DEFAULT_255_1_234
10
12.8616778
20
-0.6513
11
12.5789606
21
0.5181211
0
LINE
8
DEFAULT_255_1_234
10
12.5789606
20
0.5181211
11
12.73317
21
0.5181211
0
LINE
8
DEFAULT_255_1_234
10
14.3628097
20
-0.0938974
11
14.3628097
21
-0.2151766
0
LINE
8
DEFAULT_255_1_234
10
14.3628097
20
-0.2151766
11
13.9708609
21
-0.2151766
0
LINE
8
DEFAULT_255_1_234
10
13.9708609
20
-0.2151766
11
13.9708609
21
-0.0938974
0
LINE
8
DEFAULT_255_1_234
10
13.9708609
20
-0.0938974
11
14.3628097
21
-0.0938974
0
LINE
8
DEFAULT_255_1_234
10
14.6961269
20
0.5181211
11
14.6961269
21
-0.6513
0
LINE
8
DEFAULT_255_1_234
10
14.6961269
20
-0.6513
11
14.5419175
21
-0.6513
0
LINE
8
DEFAULT_255_1_234
10
14.5419175
20
-0.6513
11
14.5419175
21
0.5181211
0
LINE
8
DEFAULT_255_1_234
10
14.5419175
20
0.5181211
11
14.6961269
21
0.5181211
0
LINE
8
DEFAULT_255_1_234
10
15.3017199
20
-0.6513
11
14.9780409
21
-0.6513
0
LINE
8
DEFAULT_255_1_234
10
14.9780409
20
-0.6513
11
14.9780409
21
0.5181211
0
LINE
8
DEFAULT_255_1_234
10
14.9780409
20
0.5181211
11
15.3081453
21
0.5181211
0
LINE
8
DEFAULT_255_1_234
10
15.8237829
20
-0.0272339
11
15.8237829
21
-0.1019291
0
LINE
8
DEFAULT_255_1_234
10
15.3121612
20
0.3912196
11
15.1322502
21
0.3912196
0
LINE
8
DEFAULT_255_1_234
10
15.1322502
20
0.3912196
11
15.1322502
21
-0.5252017
0
LINE
8
DEFAULT_255_1_234
10
15.1322502
20
-0.5252017
11
15.2944914
21
-0.5252017
0
LINE
8
DEFAULT_255_1_234
10
15.6711799
20
-0.0987164
11
15.6711799
21
-0.0304466
0
ARC
8
DEFAULT_255_1_234
10
15.3120396
20
-0.0684106
40
0.5865446
50
75.4101064
51
90.3804066
0
ARC
8
DEFAULT_255_1_234
10
15.3349909
20
0.0272492
40
0.4881916
50
60.145586
51
75.1888407
0
ARC
8
DEFAULT_255_1_234
10
15.3508685
20
0.0549199
40
0.4562893
50
26.5253612
51
60.1450928
0
ARC
8
DEFAULT_255_1_234
10
15.2388434
20
-0.0044842
40
0.5830602
50
7.4030428
51
26.8320788
0
ARC
8
DEFAULT_255_1_234
10
15.0794191
20
-0.0293196
40
0.7443669
50
0.1605367
51
7.7176192
0
ARC
8
DEFAULT_255_1_234
10
15.0958095
20
-0.1057566
40
0.7279835
50
348.7289388
51
0.3012466
0
ARC
8
DEFAULT_255_1_234
10
15.2614526
20
-0.1386614
40
0.559104
50
333.0706509
51
348.7181832
0
ARC
8
DEFAULT_255_1_234
10
15.3581283
20
-0.1911681
40
0.4491417
50
299.2531685
51
333.4571258
0
ARC
8
DEFAULT_255_1_234
10
15.3220423
20
-0.1226172
40
0.5265881
50
278.107187
51
299.0339503
0
ARC
8
DEFAULT_255_1_234
10
15.2964502
20
0.0281216
40
0.679442
50
270.4443897
51
278.4511052
0
ARC
8
DEFAULT_255_1_234
10
15.2985332
20
-0.0647787
40
0.4604407
50
269.4970433
51
284.0205042
0
ARC
8
DEFAULT_255_1_234
10
15.3340633
20
-0.2013022
40
0.3193797
50
283.7700273
51
318.1555492
0
ARC
8
DEFAULT_255_1_234
10
15.3003391
20
-0.1760633
40
0.3613588
50
318.7415601
51
343.6873628
0
ARC
8
DEFAULT_255_1_234
10
15.1199414
20
-0.1197168
40
0.5503313
50
343.3325091
51
355.8548958
0
ARC
8
DEFAULT_255_1_234
10
14.9101098
20
-0.0997681
40
0.7610708
50
355.4988528
51
0.0791727
0
ARC
8
DEFAULT_255_1_234
10
14.9883721
20
-0.026222
40
0.6828208
50
359.6455037
51
9.8607896
0
ARC
8
DEFAULT_255_1_234
10
15.2244419
20
0.0164099
40
0.4429406
50
9.6571907
51
26.1932807
0
ARC
8
DEFAULT_255_1_234
10
15.3172408
20
0.0595118
40
0.3406537
50
26.5777228
51
40.1532208
0
ARC
8
DEFAULT_255_1_234
10
15.3428134
20
0.0794619
40
0.308246
50
40.3840491
51
80.1431104
0
ARC
8
DEFAULT_255_1_234
10
15.3101252
20
-0.0654667
40
0.4566909
50
79.2152159
51
89.7445637
0
LINE
8
DEFAULT_255_1_234
10
16.7843788
20
-0.5300208
11
16.7843788
21
-0.6513
0
LINE
8
DEFAULT_255_1_234
10
16.7843788
20
-0.6513
11
16.018151
21
-0.6513
0
LINE
8
DEFAULT_255_1_234
10
16.018151
20
-0.6513
11
16.018151
21
-0.5444779
0
LINE
8
DEFAULT_255_1_234
10
16.018151
20
-0.5444779
11
16.4229506
21
-0.0947005
0
LINE
8
DEFAULT_255_1_234
10
16.1442493
20
0.1735595
11
15.9956621
21
0.1735595
0
LINE
8
DEFAULT_255_1_234
10
16.5104965
20
-0.1902782
11
16.1972587
21
-0.5300208
0
LINE
8
DEFAULT_255_1_234
10
16.1972587
20
-0.5300208
11
16.7843788
21
-0.5300208
0
ARC
8
DEFAULT_255_1_234
10
15.0739339
20
1.0982527
40
1.8008286
50
318.5132453
51
320.7828378
0
ARC
8
DEFAULT_255_1_234
10
15.6026314
20
0.6679426
40
1.1191493
50
320.7372736
51
323.9737074
0
ARC
8
DEFAULT_255_1_234
10
15.994617
20
0.3839361
40
0.6350923
50
323.8961724
51
328.6421089
0
ARC
8
DEFAULT_255_1_234
10
16.1992765
20
0.2577031
40
0.3946393
50
328.8299013
51
331.789948
0
ARC
8
DEFAULT_255_1_234
10
16.2989944
20
0.2062509
40
0.2824501
50
331.4255242
51
352.9364833
0
ARC
8
DEFAULT_255_1_234
10
16.3126445
20
0.2031976
40
0.2685315
50
353.2248685
51
0.0169286
0
ARC
8
DEFAULT_255_1_234
10
16.3336321
20
0.205495
40
0.2475536
50
359.4866256
51
15.9339782
0
ARC
8
DEFAULT_255_1_234
10
16.3843307
20
0.2191286
40
0.1950618
50
16.1714718
51
43.5284424
0
ARC
8
DEFAULT_255_1_234
10
16.3920615
20
0.2268573
40
0.184134
50
43.4415429
51
83.1661404
0
ARC
8
DEFAULT_255_1_234
10
16.3786533
20
0.1531771
40
0.258926
50
82.160215
51
90.1505798
0
ARC
8
DEFAULT_255_1_234
10
16.3754961
20
0.0994865
40
0.3126255
50
89.5460705
51
102.5418777
0
ARC
8
DEFAULT_255_1_234
10
16.3512047
20
0.2025665
40
0.2067346
50
102.1739365
51
129.2061916
0
ARC
8
DEFAULT_255_1_234
10
16.3433119
20
0.2150094
40
0.1921118
50
129.7279328
51
135.7542026
0
ARC
8
DEFAULT_255_1_234
10
16.3554646
20
0.2053045
40
0.2075944
50
136.175737
51
166.3674722
0
ARC
8
DEFAULT_255_1_234
10
16.4561566
20
0.1783182
40
0.3118201
50
165.9092917
51
178.8683903
0
ARC
8
DEFAULT_255_1_234
10
16.5426427
20
0.1736179
40
0.3983935
50
178.438168
51
180.0083905
0
ARC
8
DEFAULT_255_1_234
10
16.4025029
20
0.1775231
40
0.4068601
50
163.2878735
51
180.5581814
0
ARC
8
DEFAULT_255_1_234
10
16.322329
20
0.199584
40
0.3237344
50
133.454115
51
162.9470031
0
ARC
8
DEFAULT_255_1_234
10
16.3401832
20
0.1806
40
0.349795
50
100.7869394
51
133.4384016
0
ARC
8
DEFAULT_255_1_234
10
16.3749603
20
0.0257319
40
0.5084616
50
89.6605301
51
101.3704185
0
ARC
8
DEFAULT_255_1_234
10
16.3815942
20
0.0318496
40
0.502348
50
78.2171172
51
90.4130393
0
ARC
8
DEFAULT_255_1_234
10
16.417102
20
0.1942637
40
0.3361092
50
55.9268222
51
78.4888551
0
ARC
8
DEFAULT_255_1_234
10
16.436746
20
0.2281324
40
0.2970617
50
47.9292255
51
55.4054003
0
ARC
8
DEFAULT_255_1_234
10
16.4469021
20
0.2384502
40
0.2825983
50
4.3347696
51
48.0560701
0
ARC
8
DEFAULT_255_1_234
10
16.3373415
20
0.2214601
40
0.393225
50
359.925209
51
5.5967654
0
ARC
8
DEFAULT_255_1_234
10
16.3802306
20
0.2270816
40
0.3503892
50
337.8914096
51
358.9967724
0
ARC
8
DEFAULT_255_1_234
10
16.1088719
20
0.3317706
40
0.6412172
50
326.9135351
51
338.3505194
0
ARC
8
DEFAULT_255_1_234
10
15.7103022
20
0.5872284
40
1.1146189
50
319.6472867
51
327.095818
0
ARC
8
DEFAULT_255_1_234
10
15.3270025
20
0.9034
40
1.6114559
50
317.2586784
51
319.9046139
0
LINE
8
DEFAULT_255_1_234
10
17.1578546
20
-0.1155831
11
17.1578546
21
0.0056962
0
LINE
8
DEFAULT_255_1_234
10
17.1578546
20
0.0056962
11
17.2694958
21
0.0056962
0
LINE
8
DEFAULT_255_1_234
10
17.0791436
20
0.2113087
11
16.9305564
21
0.2113087
0
LINE
8
DEFAULT_255_1_234
10
16.9201152
20
-0.3428812
11
17.0695055
21
-0.3428812
0
LINE
8
DEFAULT_255_1_234
10
17.2694958
20
-0.1155831
11
17.1578546
21
-0.1155831
0
ARC
8
DEFAULT_255_1_234
10
17.2665824
20
0.3449713
40
0.3392876
50
270.4919872
51
281.8951556
0
ARC
8
DEFAULT_255_1_234
10
17.2907086
20
0.2347702
40
0.2264817
50
281.6691735
51
301.2943132
0
ARC
8
DEFAULT_255_1_234
10
17.3077296
20
0.2036304
40
0.1910381
50
301.7833094
51
311.7545298
0
ARC
8
DEFAULT_255_1_234
10
17.3168872
20
0.1934748
40
0.1773635
50
311.7323931
51
354.2802411
0
ARC
8
DEFAULT_255_1_234
10
17.2442497
20
0.2059722
40
0.2509385
50
353.0937916
51
0.1181479
0
ARC
8
DEFAULT_255_1_234
10
17.1981282
20
0.2107386
40
0.2970898
50
359.1805295
51
15.0453146
0
ARC
8
DEFAULT_255_1_234
10
17.3327119
20
0.2499992
40
0.1569564
50
13.9577229
51
77.6713066
0
ARC
8
DEFAULT_255_1_234
10
17.2940648
20
0.1114949
40
0.3006298
50
76.1116566
51
90.7026153
0
ARC
8
DEFAULT_255_1_234
10
17.2881487
20
0.1388545
40
0.2732568
50
89.5324876
51
103.531937
0
ARC
8
DEFAULT_255_1_234
10
17.2680931
20
0.2187884
40
0.1908508
50
103.2931773
51
133.5619022
0
ARC
8
DEFAULT_255_1_234
10
17.2636419
20
0.2247375
40
0.1834746
50
133.8349307
51
173.5344437
0
ARC
8
DEFAULT_255_1_234
10
17.3359462
20
0.2119213
40
0.2568033
50
172.5096846
51
180.1366907
0
ARC
8
DEFAULT_255_1_234
10
17.2408356
20
0.2153622
40
0.3103056
50
155.3484492
51
180.7484736
0
ARC
8
DEFAULT_255_1_234
10
17.2359445
20
0.2124846
40
0.3070957
50
131.5744599
51
154.4798489
0
ARC
8
DEFAULT_255_1_234
10
17.2672593
20
0.180831
40
0.3515643
50
96.9875458
51
131.9690667
0
ARC
8
DEFAULT_255_1_234
10
17.2892072
20
0.0562636
40
0.4779224
50
89.8596053
51
97.7825159
0
ARC
8
DEFAULT_255_1_234
10
17.2940136
20
0.0300616
40
0.5041361
50
78.3655447
51
90.4131539
0
ARC
8
DEFAULT_255_1_234
10
17.3298054
20
0.1959887
40
0.3344039
50
56.6229102
51
78.638727
0
ARC
8
DEFAULT_255_1_234
10
17.3512997
20
0.2335805
40
0.2912001
50
47.0253525
51
56.0854072
0
ARC
8
DEFAULT_255_1_234
10
17.3532777
20
0.2375223
40
0.2869704
50
10.9208013
51
46.7778124
0
ARC
8
DEFAULT_255_1_234
10
17.2168844
20
0.2059857
40
0.426899
50
359.6364486
51
11.6087304
0
ARC
8
DEFAULT_255_1_234
10
17.4003688
20
0.2044752
40
0.243409
50
332.3549906
51
359.7179418
0
ARC
8
DEFAULT_255_1_234
10
17.3353289
20
0.2353142
40
0.3153459
50
325.2333722
51
332.8745602
0
ARC
8
DEFAULT_255_1_234
10
17.3505913
20
0.2246828
40
0.2967456
50
292.9802137
51
325.2392345
0
ARC
8
DEFAULT_255_1_234
10
17.3231287
20
0.2780863
40
0.3566604
50
292.5402179
51
293.6924929
0
ARC
8
DEFAULT_255_1_234
10
17.3623883
20
-0.3673909
40
0.3307468
50
57.6435486
51
72.8625112
0
ARC
8
DEFAULT_255_1_234
10
17.3978382
20
-0.3099451
40
0.2632492
50
36.7248896
51
57.4697979
0
ARC
8
DEFAULT_255_1_234
10
17.3967015
20
-0.308678
40
0.2634081
50
8.0545065
51
36.356114
0
ARC
8
DEFAULT_255_1_234
10
17.31042
20
-0.3241826
40
0.3510261
50
359.8320645
51
8.5869982
0
ARC
8
DEFAULT_255_1_234
10
17.2728977
20
-0.3289899
40
0.3885653
50
343.9829931
51
0.5571613
0
ARC
8
DEFAULT_255_1_234
10
17.3615174
20
-0.3532562
40
0.2966924
50
311.6359546
51
343.7651759
0
ARC
8
DEFAULT_255_1_234
10
17.3236743
20
-0.3105898
40
0.3537231
50
279.7829875
51
311.6255694
0
ARC
8
DEFAULT_255_1_234
10
17.2935519
20
-0.166872
40
0.5004971
50
269.7286406
51
280.3856417
0
ARC
8
DEFAULT_255_1_234
10
17.2873592
20
-0.1710004
40
0.4963778
50
256.6828919
51
270.4412052
0
ARC
8
DEFAULT_255_1_234
10
17.2534888
20
-0.3094606
40
0.3538406
50
229.4223008
51
256.8556159
0
ARC
8
DEFAULT_255_1_234
10
17.212028
20
-0.3561264
40
0.2914296
50
181.818294
51
229.6455059
0
ARC
8
DEFAULT_255_1_234
10
17.3160237
20
-0.3430504
40
0.3959084
50
179.9755256
51
183.2323064
0
ARC
8
DEFAULT_255_1_234
10
17.2987982
20
-0.3450963
40
0.2293034
50
179.4465117
51
196.2869258
0
ARC
8
DEFAULT_255_1_234
10
17.250039
20
-0.3584349
40
0.1787621
50
196.5661473
51
227.705904
0
ARC
8
DEFAULT_255_1_234
10
17.2664485
20
-0.3400845
40
0.2033784
50
227.7652068
51
257.8762805
0
ARC
8
DEFAULT_255_1_234
10
17.2889455
20
-0.2457844
40
0.3003081
50
257.4584385
51
270.426602
0
ARC
8
DEFAULT_255_1_234
10
17.2935022
20
-0.2168004
40
0.329292
50
269.5962073
51
280.8789248
0
ARC
8
DEFAULT_255_1_234
10
17.316455
20
-0.3314315
40
0.2123908
50
280.6346389
51
299.8595945
0
ARC
8
DEFAULT_255_1_234
10
17.3355457
20
-0.3676788
40
0.171457
50
300.3576302
51
314.5517981
0
ARC
8
DEFAULT_255_1_234
10
17.3272517
20
-0.3616081
40
0.1816095
50
315.0728369
51
345.0431014
0
ARC
8
DEFAULT_255_1_234
10
17.2349332
20
-0.3347159
40
0.2777492
50
344.5986631
51
357.9269593
0
ARC
8
DEFAULT_255_1_234
10
17.1453658
20
-0.3285724
40
0.3674917
50
357.4748886
51
0.0231117
0
ARC
8
DEFAULT_255_1_234
10
17.2476767
20
-0.3261321
40
0.2651907
50
359.5047933
51
13.4239635
0
ARC
8
DEFAULT_255_1_234
10
17.3343411
20
-0.3039522
40
0.1757509
50
12.9498199
51
48.7551375
0
ARC
8
DEFAULT_255_1_234
10
17.3161145
20
-0.32886
40
0.2065134
50
49.5088623
51
72.1836453
0
ARC
8
DEFAULT_255_1_234
10
17.2803297
20
-0.4350709
40
0.3185836
50
71.9010081
51
84.3554254
0
ARC
8
DEFAULT_255_1_234
10
17.2641929
20
-0.5711674
40
0.4556151
50
84.0193428
51
89.333121
0
LINE
8
DEFAULT_255_1_234
10
18.3537805
20
0.5237433
11
18.3537805
21
-0.6513
0
LINE
8
DEFAULT_255_1_234
10
18.3537805
20
-0.6513
11
18.2043901
21
-0.6513
0
LINE
8
DEFAULT_255_1_234
10
18.2043901
20
-0.6513
11
18.2043901
21
0.3390133
0
LINE
8
DEFAULT_255_1_234
10
18.2043901
20
0.3390133
11
17.9048063
21
0.2289785
0
LINE
8
DEFAULT_255_1_234
10
17.9048063
20
0.2289785
11
17.9048063
21
0.3639117
0
LINE
8
DEFAULT_255_1_234
10
17.9048063
20
0.3639117
11
18.3304884
21
0.5237433
0
LINE
8
DEFAULT_255_1_234
10
18.3304884
20
0.5237433
11
18.3537805
21
0.5237433
0
ARC
8
DEFAULT_255_2_778
10
15.2718323
20
180.194989
40
0.3782009
50
0.4397807
51
91.3045231
0
ARC
8
DEFAULT_255_2_778
10
15.2696879
20
180.1927064
40
0.3803695
50
269.0259909
51
0.7811192
0
ARC
8
DEFAULT_255_2_778
10
15.4288293
20
180.1802643
40
0.7639615
50
290.7362057
51
357.8000295
0
ARC
8
DEFAULT_255_2_778
10
15.3436031
20
180.1978235
40
0.8499188
50
356.8376875
51
0.0046095
0
ARC
8
DEFAULT_255_2_778
10
15.3422443
20
180.1978748
40
0.8512778
50
0.0011515
51
85.3589632
0
ARC
8
DEFAULT_255_2_778
10
15.3422371
20
180.1788092
40
0.8702827
50
85.4600549
51
90.0075769
0
ARC
8
DEFAULT_255_2_778
10
20.173385
20
180.1885426
40
0.3845507
50
1.3931151
51
90.158378
0
ARC
8
DEFAULT_255_2_778
10
20.2329096
20
180.1821635
40
0.8684198
50
359.7643557
51
42.1181505
0
ARC
8
DEFAULT_255_2_778
10
20.2353156
20
180.1825931
40
0.866348
50
42.2037872
51
87.9292218
0
ARC
8
DEFAULT_255_2_778
10
20.2305626
20
180.1413097
40
0.9077821
50
87.7235759
51
90.0025578
0
ARC
8
DEFAULT_255_2_778
10
12.9264947
20
180.1954344
40
0.3777354
50
0.3727528
51
91.1638813
0
ARC
8
DEFAULT_255_2_778
10
12.9805692
20
180.1821595
40
0.8684602
50
359.7646302
51
42.1161032
0
ARC
8
DEFAULT_255_2_778
10
12.9830774
20
180.1827127
40
0.8662296
50
42.2002176
51
87.9268901
0
ARC
8
DEFAULT_255_2_778
10
12.9783626
20
180.1416749
40
0.9074169
50
87.7231194
51
90.002558
0
ARC
8
DEFAULT_255_2_778
10
17.559042
20
179.7903858
40
1.2841942
50
233.3100129
51
270.0348017
0
ARC
8
DEFAULT_255_2_778
10
17.5711133
20
179.8107622
40
1.3077482
50
187.7860459
51
233.4193197
0
ARC
8
DEFAULT_255_2_778
10
17.5893588
20
179.8123185
40
1.3260368
50
179.9838663
51
187.7458681
0
ARC
8
DEFAULT_255_2_778
10
17.5478523
20
179.8129375
40
1.2845303
50
143.7084173
51
180.0109545
0
ARC
8
DEFAULT_255_2_778
10
17.5629238
20
179.8078899
40
1.2996747
50
94.9692901
51
143.9223324
0
ARC
8
DEFAULT_255_2_778
10
17.5597032
20
179.8085347
40
1.2987573
50
89.9947559
51
94.8302073
0
ARC
8
DEFAULT_255_2_778
10
17.5619339
20
179.8027304
40
1.3045632
50
58.1407344
51
90.0927508
0
ARC
8
DEFAULT_255_2_778
10
17.5700831
20
179.8083662
40
1.2954809
50
3.5056409
51
58.315291
0
ARC
8
DEFAULT_255_2_778
10
17.5711163
20
179.8124563
40
1.2942058
50
359.9971467
51
3.3277024
0
ARC
8
DEFAULT_255_2_778
10
17.3826088
20
179.8103483
40
1.4827147
50
0.006083
51
0.0789681
0
ARC
8
DEFAULT_255_2_778
10
17.5604187
20
179.8105022
40
1.3049047
50
315.0308293
51
0.0001529
0
ARC
8
DEFAULT_255_2_778
10
17.5609377
20
179.8102521
40
1.3043608
50
270.000667
51
315.0224921
0
LINE
8
DEFAULT_255_2_778
10
17.5609529
20
178.5058914
11
17.5598221
21
178.5058919
0
ARC
8
DEFAULT_255_2_778
10
17.5640812
20
179.8087112
40
0.7580313
50
269.6780691
51
315.5292436
0
ARC
8
DEFAULT_255_2_778
10
17.5610107
20
179.8079878
40
0.7597205
50
315.7303962
51
0.2857903
0
ARC
8
DEFAULT_255_2_778
10
17.8487376
20
179.8122382
40
0.4719845
50
359.944048
51
0.0186519
0
ARC
8
DEFAULT_255_2_778
10
17.5687772
20
179.8112605
40
0.7519457
50
0.086204
51
85.4319233
0
ARC
8
DEFAULT_255_2_778
10
17.5599609
20
179.7688338
40
0.7949581
50
85.0420495
51
90.0100075
0
ARC
8
DEFAULT_255_2_778
10
17.5579396
20
179.8255519
40
0.7382424
50
89.8538973
51
89.9999976
0
ARC
8
DEFAULT_255_2_778
10
17.558077
20
179.8126044
40
0.7511899
50
90.01048
51
134.9443097
0
ARC
8
DEFAULT_255_2_778
10
17.5582947
20
179.8124222
40
0.7514726
50
134.9462486
51
180.0023145
0
ARC
8
DEFAULT_255_2_778
10
17.5708624
20
179.8084875
40
0.7640503
50
179.7072119
51
222.5790813
0
ARC
8
DEFAULT_255_2_778
10
17.5579296
20
179.7974475
40
0.7470579
50
222.6267201
51
270.1451401
0
ARC
8
DEFAULT_255_2_778
10
9.564442
20
179.7903858
40
1.2841942
50
233.3100129
51
270.0348017
0
ARC
8
DEFAULT_255_2_778
10
9.5765133
20
179.8107622
40
1.3077482
50
187.7860459
51
233.4193197
0
ARC
8
DEFAULT_255_2_778
10
9.5947588
20
179.8123185
40
1.3260368
50
179.9838663
51
187.7458681
0
ARC
8
DEFAULT_255_2_778
10
9.5535129
20
179.8127961
40
1.2847909
50
143.1940819
51
180.0046489
0
ARC
8
DEFAULT_255_2_778
10
9.5683078
20
179.8081006
40
1.2994598
50
94.9233187
51
143.4191345
0
ARC
8
DEFAULT_255_2_778
10
9.5651008
20
179.808812
40
1.2984798
50
89.9946509
51
94.7850278
0
ARC
8
DEFAULT_255_2_778
10
9.5673902
20
179.8026441
40
1.3046496
50
58.1428905
51
90.0952196
0
ARC
8
DEFAULT_255_2_778
10
9.5758177
20
179.8087453
40
1.2950254
50
3.2656058
51
58.3171105
0
ARC
8
DEFAULT_255_2_778
10
9.5763693
20
179.8127485
40
1.2942527
50
359.997494
51
3.0900664
0
ARC
8
DEFAULT_255_2_778
10
9.5936718
20
179.8105448
40
1.276952
50
359.9949307
51
0.0963391
0
ARC
8
DEFAULT_255_2_778
10
9.5663093
20
179.8105585
40
1.3043147
50
315.0200668
51
359.994431
0
ARC
8
DEFAULT_255_2_778
10
9.5663338
20
179.81032
40
1.3041287
50
270.0008363
51
315.026719
0
LINE
8
DEFAULT_255_2_778
10
9.5663529
20
178.5061914
11
9.5652221
21
178.5061919
0
ARC
8
DEFAULT_255_2_778
10
9.5694412
20
179.8087135
40
0.7580334
50
269.6810953
51
315.6152252
0
ARC
8
DEFAULT_255_2_778
10
9.5663839
20
179.8080381
40
0.7597504
50
315.8129036
51
0.3254485
0
ARC
8
DEFAULT_255_2_778
10
9.5738176
20
179.8109565
40
0.7523058
50
0.1093155
51
85.7820321
0
ARC
8
DEFAULT_255_2_778
10
9.5653381
20
179.7694263
40
0.7943655
50
85.3923987
51
90.0083732
0
ARC
8
DEFAULT_255_2_778
10
9.5633385
20
179.8246348
40
0.7391595
50
89.8539942
51
89.9999859
0
ARC
8
DEFAULT_255_2_778
10
9.563405
20
179.8127783
40
0.7510159
50
90.0050654
51
134.9497993
0
ARC
8
DEFAULT_255_2_778
10
9.5632746
20
179.8125963
40
0.7510526
50
134.9329452
51
180.0155944
0
ARC
8
DEFAULT_255_2_778
10
9.5762945
20
179.8084612
40
0.7640826
50
179.7052536
51
222.5741919
0
ARC
8
DEFAULT_255_2_778
10
9.5632805
20
179.7974163
40
0.7470269
50
222.6256588
51
270.1489141
0
LINE
8
DEFAULT_255_2_778
10
14.0768221
20
181.0284919
11
14.0768221
21
178.5656919
0
LINE
8
DEFAULT_255_2_778
10
14.0768221
20
178.5656919
11
14.6203221
21
178.5656919
0
LINE
8
DEFAULT_255_2_778
10
14.6203221
20
178.5656919
11
14.6203221
21
180.5730919
0
LINE
8
DEFAULT_255_2_778
10
14.6203221
20
180.5730919
11
15.2632221
21
180.5730919
0
LINE
8
DEFAULT_255_2_778
10
15.2632221
20
179.8123919
11
14.7986221
21
179.8123919
0
LINE
8
DEFAULT_255_2_778
10
14.7986221
20
179.8123919
11
15.6397221
21
178.5653919
0
LINE
8
DEFAULT_255_2_778
10
15.6397221
20
178.5653919
11
16.3126221
21
178.5653919
0
LINE
8
DEFAULT_255_2_778
10
16.3126221
20
178.5653919
11
15.6993221
21
179.4657919
0
LINE
8
DEFAULT_255_2_778
10
15.3421221
20
181.0490919
11
14.6200221
21
181.0490919
0
LINE
8
DEFAULT_255_2_778
10
14.6200221
20
181.0490919
11
14.0766221
21
181.0284919
0
LINE
8
DEFAULT_255_2_778
10
14.0766221
20
181.0284919
11
14.0768221
21
181.0284919
0
LINE
8
DEFAULT_255_2_778
10
19.0142221
20
181.0284919
11
19.0142221
21
178.5656919
0
LINE
8
DEFAULT_255_2_778
10
19.0142221
20
178.5656919
11
19.5577221
21
178.5656919
0
LINE
8
DEFAULT_255_2_778
10
19.5577221
20
178.5656919
11
19.5577221
21
180.5730919
0
LINE
8
DEFAULT_255_2_778
10
19.5577221
20
180.5730919
11
20.1723221
21
180.5730919
0
LINE
8
DEFAULT_255_2_778
10
20.5578221
20
180.1978919
11
20.5578221
21
178.5656919
0
LINE
8
DEFAULT_255_2_778
10
20.5578221
20
178.5656919
11
21.1013221
21
178.5656919
0
LINE
8
DEFAULT_255_2_778
10
21.1013221
20
178.5656919
11
21.1013221
21
180.1785919
0
LINE
8
DEFAULT_255_2_778
10
20.2305221
20
181.0490919
11
19.5577221
21
181.0490919
0
LINE
8
DEFAULT_255_2_778
10
19.5577221
20
181.0490919
11
19.0142221
21
181.0284919
0
LINE
8
DEFAULT_255_2_778
10
19.0142221
20
181.0284919
11
19.0142221
21
181.0284919
0
LINE
8
DEFAULT_255_2_778
10
11.0196221
20
181.0284919
11
11.0196221
21
178.5656919
0
LINE
8
DEFAULT_255_2_778
10
11.0196221
20
178.5656919
11
11.5628221
21
178.5656919
0
LINE
8
DEFAULT_255_2_778
10
11.5628221
20
178.5656919
11
11.5628221
21
180.5730919
0
LINE
8
DEFAULT_255_2_778
10
11.5628221
20
180.5730919
11
12.1671221
21
180.5730919
0
LINE
8
DEFAULT_255_2_778
10
12.1671221
20
180.5730919
11
12.1671221
21
178.5656919
0
LINE
8
DEFAULT_255_2_778
10
12.1671221
20
178.5656919
11
12.7105221
21
178.5656919
0
LINE
8
DEFAULT_255_2_778
10
12.7105221
20
178.5656919
11
12.7105221
21
180.5730919
0
LINE
8
DEFAULT_255_2_778
10
12.7105221
20
180.5730919
11
12.9188221
21
180.5730919
0
LINE
8
DEFAULT_255_2_778
10
13.3042221
20
180.1978919
11
13.3042221
21
178.5656919
0
LINE
8
DEFAULT_255_2_778
10
13.3042221
20
178.5656919
11
13.8490221
21
178.5656919
0
LINE
8
DEFAULT_255_2_778
10
13.8490221
20
178.5656919
11
13.8490221
21
180.1785919
0
LINE
8
DEFAULT_255_2_778
10
12.9783221
20
181.0490919
11
11.5731221
21
181.0490919
0
LINE
8
DEFAULT_255_2_778
10
11.5731221
20
181.0490919
11
11.0193221
21
181.0284919
0
LINE
8
DEFAULT_255_2_778
10
11.0193221
20
181.0284919
11
11.0196221
21
181.0284919
0
LINE
8
DEFAULT_255_2_778
10
17.5598221
20
178.5058919
11
17.5598221
21
178.5061919
0
LINE
8
DEFAULT_255_2_778
10
9.5652221
20
178.5061919
11
9.5652221
21
178.5061919
0
LINE
8
DEFAULT_255_1_234
10
11.524023
20
176.3290663
11
11.6790355
21
176.3290663
0
LINE
8
DEFAULT_255_1_234
10
10.7786777
20
176.4880947
11
10.7786777
21
176.6005391
0
LINE
8
DEFAULT_255_1_234
10
11.6790355
20
176.7515357
11
11.524023
21
176.7515357
0
LINE
8
DEFAULT_255_1_234
10
10.9336902
20
176.5965232
11
10.9336902
21
176.4832757
0
ARC
8
DEFAULT_255_1_234
10
11.1309742
20
176.3887846
40
0.5513052
50
340.1774281
51
353.7814284
0
ARC
8
DEFAULT_255_1_234
10
11.2881095
20
176.3302582
40
0.3836379
50
311.4558989
51
340.4421614
0
ARC
8
DEFAULT_255_1_234
10
11.2847763
20
176.3413528
40
0.3941894
50
282.4333181
51
310.7513653
0
ARC
8
DEFAULT_255_1_234
10
11.2408502
20
176.5228679
40
0.5809175
50
269.9358511
51
282.809604
0
ARC
8
DEFAULT_255_1_234
10
11.2356568
20
176.6686212
40
0.7266847
50
270.0021091
51
270.3581957
0
ARC
8
DEFAULT_255_1_234
10
11.2303985
20
176.4085585
40
0.4666519
50
250.7884749
51
270.6489167
0
ARC
8
DEFAULT_255_1_234
10
11.213582
20
176.3448319
40
0.4009729
50
219.3627325
51
250.0611886
0
ARC
8
DEFAULT_255_1_234
10
11.2965031
20
176.4153042
40
0.5097822
50
193.5479632
51
219.5756669
0
ARC
8
DEFAULT_255_1_234
10
11.5336652
20
176.4768919
40
0.7547848
50
181.1218675
51
193.87563
0
ARC
8
DEFAULT_255_1_234
10
11.7406833
20
176.487958
40
0.9620055
50
179.9918545
51
181.5394234
0
ARC
8
DEFAULT_255_1_234
10
11.5555935
20
176.6042788
40
0.7769248
50
169.5837241
51
180.2757934
0
ARC
8
DEFAULT_255_1_234
10
11.3718873
20
176.6382229
40
0.590109
50
155.0365899
51
169.6003176
0
ARC
8
DEFAULT_255_1_234
10
11.2583337
20
176.6929677
40
0.4640625
50
136.783148
51
155.2472683
0
ARC
8
DEFAULT_255_1_234
10
11.2193814
20
176.7260562
40
0.4130255
50
121.7633186
51
136.428115
0
ARC
8
DEFAULT_255_1_234
10
11.2328776
20
176.7011227
40
0.4413323
50
95.6459699
51
121.5490577
0
ARC
8
DEFAULT_255_1_234
10
11.2486058
20
176.5902949
40
0.55319
50
89.924208
51
96.1377933
0
ARC
8
DEFAULT_255_1_234
10
11.2536491
20
176.6021542
40
0.5413475
50
76.6779277
51
90.4563316
0
ARC
8
DEFAULT_255_1_234
10
11.2930114
20
176.7612114
40
0.3775041
50
47.485847
51
76.9287264
0
ARC
8
DEFAULT_255_1_234
10
11.2783087
20
176.7512159
40
0.3948286
50
16.5424086
51
46.8933463
0
ARC
8
DEFAULT_255_1_234
10
11.1175244
20
176.6983861
40
0.564021
50
5.4072051
51
17.0365086
0
ARC
8
DEFAULT_255_1_234
10
10.9736261
20
176.6752679
40
0.5556559
50
7.8891745
51
15.9239216
0
ARC
8
DEFAULT_255_1_234
10
11.1723274
20
176.7329631
40
0.3487515
50
15.7653144
51
27.9410532
0
ARC
8
DEFAULT_255_1_234
10
11.2827492
20
176.792079
40
0.2235026
50
27.8166557
51
46.4008329
0
ARC
8
DEFAULT_255_1_234
10
11.2877135
20
176.7915082
40
0.2205286
50
47.4371857
51
75.0698205
0
ARC
8
DEFAULT_255_1_234
10
11.2568529
20
176.6840765
40
0.3322915
50
74.7008593
51
87.8124495
0
ARC
8
DEFAULT_255_1_234
10
11.2495217
20
176.5784844
40
0.4380987
50
87.3814673
51
90.0240855
0
ARC
8
DEFAULT_255_1_234
10
11.245676
20
176.6962291
40
0.3203749
50
89.3451631
51
108.5745436
0
ARC
8
DEFAULT_255_1_234
10
11.2319865
20
176.7475908
40
0.2673494
50
109.2998449
51
143.3037509
0
ARC
8
DEFAULT_255_1_234
10
11.3081938
20
176.6889881
40
0.3634757
50
143.0753173
51
163.1916937
0
ARC
8
DEFAULT_255_1_234
10
11.5033666
20
176.6273967
40
0.5681262
50
162.9373603
51
174.6208611
0
ARC
8
DEFAULT_255_1_234
10
11.7659708
20
176.598601
40
0.8322832
50
174.3419979
51
180.1430411
0
ARC
8
DEFAULT_255_1_234
10
11.6728864
20
176.4791698
40
0.7392076
50
179.6817502
51
189.150529
0
ARC
8
DEFAULT_255_1_234
10
11.4228112
20
176.437519
40
0.4856932
50
188.9910863
51
203.5773039
0
ARC
8
DEFAULT_255_1_234
10
11.3148445
20
176.3927211
40
0.3688271
50
203.9077269
51
215.1312379
0
ARC
8
DEFAULT_255_1_234
10
11.2225539
20
176.3211941
40
0.2522457
50
213.9071664
51
263.8849284
0
ARC
8
DEFAULT_255_1_234
10
11.2350868
20
176.3996518
40
0.3316174
50
263.1758525
51
270.1031083
0
ARC
8
DEFAULT_255_1_234
10
11.238296
20
176.5243365
40
0.4563091
50
269.6719807
51
279.0609165
0
ARC
8
DEFAULT_255_1_234
10
11.2649728
20
176.3630907
40
0.2928759
50
278.8750225
51
293.6346586
0
ARC
8
DEFAULT_255_1_234
10
11.2969936
20
176.28789
40
0.2111472
50
293.8553404
51
310.0518804
0
ARC
8
DEFAULT_255_1_234
10
11.297479
20
176.2816516
40
0.2060917
50
311.0646779
51
332.0108348
0
ARC
8
DEFAULT_255_1_234
10
11.1782517
20
176.3473978
40
0.3422352
50
331.6588543
51
343.2878891
0
ARC
8
DEFAULT_255_1_234
10
10.9720032
20
176.4107798
40
0.5580003
50
343.1446044
51
351.010618
0
ARC
8
DEFAULT_255_1_234
10
10.8178678
20
176.4388871
40
0.7146438
50
350.7157277
51
351.1602153
0
LINE
8
DEFAULT_255_1_234
10
12.3794031
20
176.2969394
11
12.3794031
21
177.1274211
0
LINE
8
DEFAULT_255_1_234
10
12.3794031
20
177.1274211
11
12.5344157
21
177.1274211
0
LINE
8
DEFAULT_255_1_234
10
12.5344157
20
177.1274211
11
12.5344157
21
176.2993489
0
LINE
8
DEFAULT_255_1_234
10
11.7962989
20
176.2808759
11
11.9505083
21
176.2808759
0
ARC
8
DEFAULT_255_1_234
10
12.0853342
20
176.2955089
40
0.4490979
50
346.3129415
51
0.4899112
0
ARC
8
DEFAULT_255_1_234
10
12.2221691
20
176.2604729
40
0.3078632
50
313.3793358
51
346.6225026
0
ARC
8
DEFAULT_255_1_234
10
12.2020878
20
176.2857522
40
0.3400404
50
281.1587967
51
312.9131091
0
ARC
8
DEFAULT_255_1_234
10
12.1680342
20
176.4352185
40
0.4932916
50
269.6424364
51
281.6795951
0
ARC
8
DEFAULT_255_1_234
10
12.1611706
20
176.4901382
40
0.5482147
50
258.9990078
51
270.3955952
0
ARC
8
DEFAULT_255_1_234
10
12.123701
20
176.3052746
40
0.359601
50
239.6256123
51
259.238693
0
ARC
8
DEFAULT_255_1_234
10
12.0948093
20
176.2507669
40
0.2979777
50
227.4959765
51
239.1188186
0
ARC
8
DEFAULT_255_1_234
10
12.0910659
20
176.2446689
40
0.2909561
50
191.339631
51
227.2280909
0
ARC
8
DEFAULT_255_1_234
10
12.23153
20
176.2779031
40
0.4352412
50
179.6086538
51
191.9934722
0
ARC
8
DEFAULT_255_1_234
10
12.2449322
20
176.2786427
40
0.2944324
50
179.5654258
51
192.070398
0
ARC
8
DEFAULT_255_1_234
10
12.1477812
20
176.2568079
40
0.194866
50
191.7656467
51
215.6461951
0
ARC
8
DEFAULT_255_1_234
10
12.1299313
20
176.2460546
40
0.1741017
50
216.1938368
51
224.3931108
0
ARC
8
DEFAULT_255_1_234
10
12.1306199
20
176.2487473
40
0.1764834
50
224.8613677
51
254.362656
0
ARC
8
DEFAULT_255_1_234
10
12.1576913
20
176.338201
40
0.2699302
50
253.9471729
51
267.3949949
0
ARC
8
DEFAULT_255_1_234
10
12.164742
20
176.4306067
40
0.362572
50
266.9456419
51
270.0337791
0
ARC
8
DEFAULT_255_1_234
10
12.16728
20
176.314423
40
0.2463991
50
269.4595111
51
286.1822844
0
ARC
8
DEFAULT_255_1_234
10
12.181409
20
176.2626047
40
0.1926982
50
286.4416479
51
315.8044008
0
ARC
8
DEFAULT_255_1_234
10
12.1759897
20
176.2668207
40
0.1995241
50
316.0212565
51
345.4794351
0
ARC
8
DEFAULT_255_1_234
10
12.0789404
20
176.2941575
40
0.3003349
50
345.0729543
51
358.325089
0
ARC
8
DEFAULT_255_1_234
10
11.9913375
20
176.2997568
40
0.3880759
50
357.8767804
51
359.5840246
0
LINE
8
DEFAULT_255_1_234
10
13.0829834
20
176.5154026
11
13.0829834
21
176.3941234
0
LINE
8
DEFAULT_255_1_234
10
13.0829834
20
176.3941234
11
12.6910346
21
176.3941234
0
LINE
8
DEFAULT_255_1_234
10
12.6910346
20
176.3941234
11
12.6910346
21
176.5154026
0
LINE
8
DEFAULT_255_1_234
10
12.6910346
20
176.5154026
11
13.0829834
21
176.5154026
0
LINE
8
DEFAULT_255_1_234
10
14.0267126
20
176.7892849
11
13.8717001
21
176.7892849
0
LINE
8
DEFAULT_255_1_234
10
13.1793643
20
176.2969394
11
13.3343768
21
176.2969394
0
ARC
8
DEFAULT_255_1_234
10
13.9375814
20
177.6839768
40
1.252368
50
248.9199003
51
254.1439814
0
ARC
8
DEFAULT_255_1_234
10
13.7695309
20
177.2513234
40
0.788226
50
241.633709
51
249.0064503
0
ARC
8
DEFAULT_255_1_234
10
13.6166703
20
176.9712317
40
0.4691427
50
230.498225
51
241.8087113
0
ARC
8
DEFAULT_255_1_234
10
13.5382277
20
176.8712906
40
0.3421437
50
227.4064532
51
229.9881192
0
ARC
8
DEFAULT_255_1_234
10
13.4894798
20
176.8237088
40
0.2741476
50
200.6781896
51
228.1763934
0
ARC
8
DEFAULT_255_1_234
10
13.4967109
20
176.8222077
40
0.2804109
50
179.5061581
51
199.8694617
0
ARC
8
DEFAULT_255_1_234
10
13.495786
20
176.829621
40
0.2795204
50
132.4834203
51
181.0242172
0
ARC
8
DEFAULT_255_1_234
10
13.5553443
20
176.7733704
40
0.3612768
50
129.2532479
51
133.4242687
0
ARC
8
DEFAULT_255_1_234
10
13.5699892
20
176.7513965
40
0.3875675
50
101.98776
51
128.8742646
0
ARC
8
DEFAULT_255_1_234
10
13.6098503
20
176.5792741
40
0.5642249
50
89.5906553
51
102.3169264
0
ARC
8
DEFAULT_255_1_234
10
13.6168995
20
176.6111148
40
0.5323783
50
77.2360837
51
90.3248275
0
ARC
8
DEFAULT_255_1_234
10
13.6376074
20
176.70784
40
0.4334697
50
63.837784
51
77.0809408
0
ARC
8
DEFAULT_255_1_234
10
13.6653836
20
176.7595911
40
0.3747796
50
45.9864267
51
64.1607727
0
ARC
8
DEFAULT_255_1_234
10
13.6914717
20
176.7893866
40
0.3352302
50
32.2747395
51
45.6547121
0
ARC
8
DEFAULT_255_1_234
10
13.6981158
20
176.791288
40
0.328603
50
359.6507365
51
32.6130309
0
ARC
8
DEFAULT_255_1_234
10
13.6038253
20
176.791766
40
0.2678863
50
359.469343
51
14.9832209
0
ARC
8
DEFAULT_255_1_234
10
13.6743316
20
176.8106539
40
0.1948938
50
14.9781179
51
48.2004265
0
ARC
8
DEFAULT_255_1_234
10
13.657896
20
176.7899983
40
0.2212521
50
48.5927837
51
74.1241538
0
ARC
8
DEFAULT_255_1_234
10
13.6245449
20
176.6799248
40
0.3362561
50
73.7888341
51
86.6652678
0
ARC
8
DEFAULT_255_1_234
10
13.6143015
20
176.5591881
40
0.4573953
50
86.2640471
51
90.0526343
0
ARC
8
DEFAULT_255_1_234
10
13.6114727
20
176.5987192
40
0.4178709
50
89.6697524
51
99.2309573
0
ARC
8
DEFAULT_255_1_234
10
13.5872178
20
176.7431964
40
0.2713749
50
99.069534
51
113.7658566
0
ARC
8
DEFAULT_255_1_234
10
13.5598369
20
176.8077677
40
0.2012469
50
114.0401004
51
127.9850673
0
ARC
8
DEFAULT_255_1_234
10
13.5357933
20
176.837373
40
0.1631167
50
127.7287463
51
176.7105154
0
ARC
8
DEFAULT_255_1_234
10
13.6036651
20
176.8272693
40
0.2315392
50
175.1779447
51
180.0581938
0
ARC
8
DEFAULT_255_1_234
10
13.5193498
20
176.8260428
40
0.1472271
50
179.6142195
51
228.1246017
0
ARC
8
DEFAULT_255_1_234
10
13.5635166
20
176.8669308
40
0.2072299
50
226.5779593
51
230.8800004
0
ARC
8
DEFAULT_255_1_234
10
13.6106245
20
176.9294636
40
0.2854818
50
231.4635071
51
241.9260842
0
ARC
8
DEFAULT_255_1_234
10
13.7303423
20
177.14978
40
0.53622
50
241.7178533
51
248.3259551
0
ARC
8
DEFAULT_255_1_234
10
13.8688795
20
177.4930064
40
0.9063478
50
248.2007737
51
252.4528373
0
ARC
8
DEFAULT_255_1_234
10
13.989252
20
177.8651441
40
1.2974635
50
252.3391078
51
254.3469452
0
ARC
8
DEFAULT_255_1_234
10
13.2350222
20
175.1674148
40
1.5037162
50
71.0197183
51
74.4087047
0
ARC
8
DEFAULT_255_1_234
10
13.4044907
20
175.6566111
40
0.9859993
50
66.1847285
51
71.086374
0
ARC
8
DEFAULT_255_1_234
10
13.560122
20
176.00702
40
0.6025855
50
59.3536294
51
66.2691831
0
ARC
8
DEFAULT_255_1_234
10
13.6489872
20
176.1573609
40
0.4279449
50
49.1020879
51
59.3293958
0
ARC
8
DEFAULT_255_1_234
10
13.7308612
20
176.2506834
40
0.3038015
50
32.7919921
51
49.2505539
0
ARC
8
DEFAULT_255_1_234
10
13.7629702
20
176.2735191
40
0.264448
50
31.1181161
51
32.4005348
0
ARC
8
DEFAULT_255_1_234
10
13.754124
20
176.2699779
40
0.2738556
50
8.1116974
51
30.7958831
0
ARC
8
DEFAULT_255_1_234
10
13.6730908
20
176.2561753
40
0.3560327
50
359.8389159
51
8.4706516
0
ARC
8
DEFAULT_255_1_234
10
13.7356699
20
176.2513137
40
0.2934776
50
337.4731098
51
0.7537279
0
ARC
8
DEFAULT_255_1_234
10
13.7535394
20
176.2493387
40
0.2762607
50
307.5917067
51
336.4315538
0
ARC
8
DEFAULT_255_1_234
10
13.7075222
20
176.3006102
40
0.3449979
50
307.6551545
51
308.4529766
0
ARC
8
DEFAULT_255_1_234
10
13.6844941
20
176.336125
40
0.3871988
50
284.3734338
51
307.1424381
0
ARC
8
DEFAULT_255_1_234
10
13.6349771
20
176.5182932
40
0.5759636
50
272.4382747
51
284.646547
0
ARC
8
DEFAULT_255_1_234
10
13.622298
20
176.6982893
40
0.7563528
50
269.9708387
51
272.8178037
0
ARC
8
DEFAULT_255_1_234
10
13.618002
20
176.4944716
40
0.5525489
50
248.2707594
51
270.4055579
0
ARC
8
DEFAULT_255_1_234
10
13.6125761
20
176.4754192
40
0.5328452
50
246.1383403
51
248.0542782
0
ARC
8
DEFAULT_255_1_234
10
13.570714
20
176.3874843
40
0.4355005
50
233.1670131
51
246.4950969
0
ARC
8
DEFAULT_255_1_234
10
13.5153045
20
176.3126812
40
0.3424126
50
215.3403242
51
233.0843104
0
ARC
8
DEFAULT_255_1_234
10
13.4880476
20
176.2928549
40
0.3087104
50
179.2419209
51
215.2648451
0
ARC
8
DEFAULT_255_1_234
10
13.564807
20
176.2942666
40
0.2304457
50
179.335461
51
199.1045811
0
ARC
8
DEFAULT_255_1_234
10
13.5315746
20
176.2855766
40
0.1962176
50
199.8828939
51
232.7063202
0
ARC
8
DEFAULT_255_1_234
10
13.5788015
20
176.3449788
40
0.2720938
50
232.3738199
51
255.5136649
0
ARC
8
DEFAULT_255_1_234
10
13.6128881
20
176.4693835
40
0.4010747
50
255.2446292
51
267.5320849
0
ARC
8
DEFAULT_255_1_234
10
13.6216505
20
176.5926702
40
0.5246356
50
267.1557994
51
270.0286766
0
ARC
8
DEFAULT_255_1_234
10
13.6244277
20
176.548295
40
0.4802668
50
269.7000017
51
278.1660162
0
ARC
8
DEFAULT_255_1_234
10
13.6500282
20
176.3752515
40
0.3053425
50
278.0231263
51
290.625471
0
ARC
8
DEFAULT_255_1_234
10
13.6847969
20
176.2825025
40
0.206291
50
290.6619762
51
307.0370976
0
ARC
8
DEFAULT_255_1_234
10
13.7148358
20
176.2456504
40
0.1587906
50
306.3943566
51
355.3030547
0
ARC
8
DEFAULT_255_1_234
10
13.6636289
20
176.2533113
40
0.2104809
50
354.3660432
51
0.0698737
0
ARC
8
DEFAULT_255_1_234
10
13.6778635
20
176.2555617
40
0.1962563
50
359.417946
51
16.1971788
0
ARC
8
DEFAULT_255_1_234
10
13.7233945
20
176.2680418
40
0.149053
50
16.4723299
51
52.6262157
0
ARC
8
DEFAULT_255_1_234
10
13.6412999
20
176.1596433
40
0.2850296
50
52.7386432
51
62.4979148
0
ARC
8
DEFAULT_255_1_234
10
13.5028076
20
175.8990283
40
0.5801521
50
62.2515216
51
68.1220564
0
ARC
8
DEFAULT_255_1_234
10
13.3307987
20
175.4762872
40
1.0365451
50
68.0062803
51
71.8053402
0
ARC
8
DEFAULT_255_1_234
10
13.1512358
20
174.9377758
40
1.6042013
50
71.7183119
51
73.9258742
0
LINE
8
DEFAULT_255_1_234
10
14.1656617
20
176.3684218
11
14.1656617
21
176.3957297
0
LINE
8
DEFAULT_255_1_234
10
14.9029753
20
176.4117932
11
14.9029753
21
176.3499488
0
LINE
8
DEFAULT_255_1_234
10
14.9029753
20
176.3499488
11
14.3142489
21
176.3499488
0
LINE
8
DEFAULT_255_1_234
10
14.8009722
20
176.1804792
11
14.8917309
21
176.1097999
0
LINE
8
DEFAULT_255_1_234
10
14.3190679
20
176.4720313
11
14.7543881
21
176.4720313
0
LINE
8
DEFAULT_255_1_234
10
14.7543881
20
176.4720313
11
14.7543881
21
176.4832757
0
ARC
8
DEFAULT_255_1_234
10
14.5595982
20
176.3795332
40
0.4376191
50
252.3266134
51
270.5810217
0
ARC
8
DEFAULT_255_1_234
10
14.5391071
20
176.3054644
40
0.3608374
50
223.3000567
51
251.8561855
0
ARC
8
DEFAULT_255_1_234
10
14.5602432
20
176.3259937
40
0.3902993
50
190.9374509
51
223.3654032
0
ARC
8
DEFAULT_255_1_234
10
14.7327404
20
176.3649885
40
0.5670891
50
179.6531105
51
191.4989439
0
ARC
8
DEFAULT_255_1_234
10
14.7449417
20
176.3989417
40
0.5792888
50
167.4007466
51
180.3176909
0
ARC
8
DEFAULT_255_1_234
10
14.6397478
20
176.4211885
40
0.471777
50
154.1835823
51
167.250763
0
ARC
8
DEFAULT_255_1_234
10
14.5765945
20
176.4544417
40
0.4004528
50
134.3149965
51
154.5315275
0
ARC
8
DEFAULT_255_1_234
10
14.5548441
20
176.4735228
40
0.371612
50
122.8616532
51
133.9707695
0
ARC
8
DEFAULT_255_1_234
10
14.5445015
20
176.4957703
40
0.3473289
50
89.8249009
51
123.4199222
0
ARC
8
DEFAULT_255_1_234
10
14.5495056
20
176.4310967
40
0.4120197
50
74.7876118
51
90.5482747
0
ARC
8
DEFAULT_255_1_234
10
14.5788799
20
176.539603
40
0.2996077
50
39.8178249
51
74.7633718
0
ARC
8
DEFAULT_255_1_234
10
14.5276119
20
176.4996351
40
0.3645855
50
16.8990863
51
39.4829761
0
ARC
8
DEFAULT_255_1_234
10
14.3381416
20
176.4389526
40
0.5635218
50
4.9636328
51
17.2026414
0
ARC
8
DEFAULT_255_1_234
10
14.0963486
20
176.413434
40
0.8066286
50
359.8834553
51
5.2834307
0
ARC
8
DEFAULT_255_1_234
10
14.700101
20
176.3565803
40
0.3859091
50
180.9846213
51
194.9401313
0
ARC
8
DEFAULT_255_1_234
10
14.5951288
20
176.3278849
40
0.2770883
50
194.80314
51
222.0412631
0
ARC
8
DEFAULT_255_1_234
10
14.564717
20
176.2977116
40
0.2343055
50
221.5417084
51
268.8614402
0
ARC
8
DEFAULT_255_1_234
10
14.5720165
20
176.3653686
40
0.3021528
50
267.732405
51
270.0097136
0
ARC
8
DEFAULT_255_1_234
10
14.5737975
20
176.3855105
40
0.3222994
50
269.6924892
51
280.4117579
0
ARC
8
DEFAULT_255_1_234
10
14.5914381
20
176.2936193
40
0.2287344
50
280.2255091
51
298.6338936
0
ARC
8
DEFAULT_255_1_234
10
14.6031173
20
176.2692223
40
0.2017294
50
299.0430333
51
300.4643464
0
ARC
8
DEFAULT_255_1_234
10
14.5351179
20
176.3826038
40
0.3339357
50
300.6577328
51
322.0378878
0
ARC
8
DEFAULT_255_1_234
10
14.5000718
20
176.4130021
40
0.3802736
50
321.6750233
51
322.3046845
0
ARC
8
DEFAULT_255_1_234
10
14.5931679
20
176.296337
40
0.3520454
50
276.9728461
51
328.0035423
0
ARC
8
DEFAULT_255_1_234
10
14.5654732
20
176.4443841
40
0.5024498
50
269.8361028
51
278.0581756
0
ARC
8
DEFAULT_255_1_234
10
14.542747
20
176.5188757
40
0.202159
50
89.2018686
51
117.2851756
0
ARC
8
DEFAULT_255_1_234
10
14.5480639
20
176.5146752
40
0.2083484
50
118.0551165
51
137.4540413
0
ARC
8
DEFAULT_255_1_234
10
14.5855379
20
176.4806304
40
0.2589774
50
137.5109581
51
158.8516286
0
ARC
8
DEFAULT_255_1_234
10
14.6993214
20
176.4347074
40
0.38167
50
158.5845963
51
170.1721436
0
ARC
8
DEFAULT_255_1_234
10
14.8162603
20
176.4114823
40
0.5008657
50
169.8376422
51
173.0566086
0
ARC
8
DEFAULT_255_1_234
10
14.3465677
20
176.4625509
40
0.4083467
50
2.9091802
51
12.8847116
0
ARC
8
DEFAULT_255_1_234
10
14.4836354
20
176.4948101
40
0.2675383
50
12.6957781
51
28.6404489
0
ARC
8
DEFAULT_255_1_234
10
14.5378025
20
176.5228458
40
0.2065654
50
29.0169854
51
41.1487595
0
ARC
8
DEFAULT_255_1_234
10
14.558081
20
176.5405003
40
0.1796786
50
41.1646065
51
85.0013516
0
ARC
8
DEFAULT_255_1_234
10
14.5459906
20
176.4670431
40
0.2539726
50
83.7280015
51
90.0964893
0
LINE
8
DEFAULT_255_1_234
10
15.4949144
20
176.8318531
11
15.4949144
21
176.6937072
0
LINE
8
DEFAULT_255_1_234
10
15.2234417
20
176.5748375
11
15.2234417
21
175.958
0
LINE
8
DEFAULT_255_1_234
10
15.2234417
20
175.958
11
15.0748545
21
175.958
0
LINE
8
DEFAULT_255_1_234
10
15.0748545
20
175.958
11
15.0748545
21
176.8270341
0
LINE
8
DEFAULT_255_1_234
10
15.0748545
20
176.8270341
11
15.2194258
21
176.8270341
0
LINE
8
DEFAULT_255_1_234
10
15.2194258
20
176.8270341
11
15.2218353
21
176.7266374
0
ARC
8
DEFAULT_255_1_234
10
15.428255
20
176.2877342
40
0.4114092
50
80.6754243
51
86.8932892
0
ARC
8
DEFAULT_255_1_234
10
15.4222084
20
176.19097
40
0.5083596
50
86.8038578
51
90.0431435
0
ARC
8
DEFAULT_255_1_234
10
15.4185065
20
176.4366866
40
0.2626638
50
89.2759698
51
106.6213787
0
ARC
8
DEFAULT_255_1_234
10
15.3980629
20
176.510983
40
0.1856317
50
107.1346045
51
157.6458115
0
ARC
8
DEFAULT_255_1_234
10
15.467223
20
176.4726311
40
0.2643398
50
155.6586782
51
157.2539184
0
ARC
8
DEFAULT_255_1_234
10
15.4467432
20
176.5895157
40
0.2634121
50
127.8165941
51
148.6302098
0
ARC
8
DEFAULT_255_1_234
10
15.4213901
20
176.6155218
40
0.2273596
50
91.3329982
51
126.7875809
0
ARC
8
DEFAULT_255_1_234
10
15.4289842
20
176.5440195
40
0.299078
50
89.986594
51
92.4688449
0
ARC
8
DEFAULT_255_1_234
10
15.4298237
20
176.5715078
40
0.2715908
50
85.3589899
51
90.1623399
0
ARC
8
DEFAULT_255_1_234
10
15.4382752
20
176.6719164
40
0.1708278
50
78.401942
51
85.4594656
0
ARC
8
DEFAULT_255_1_234
10
15.4527636
20
176.7410236
40
0.1002194
50
67.7858312
51
78.5728455
0
ARC
8
DEFAULT_255_1_234
10
15.4635489
20
176.7689887
40
0.0702548
50
63.4835954
51
67.3062642
0
LINE
8
DEFAULT_255_1_234
10
15.7928919
20
176.8270341
11
15.7928919
21
175.958
0
LINE
8
DEFAULT_255_1_234
10
15.7928919
20
175.958
11
15.6443047
21
175.958
0
LINE
8
DEFAULT_255_1_234
10
15.6443047
20
175.958
11
15.6443047
21
176.8270341
0
LINE
8
DEFAULT_255_1_234
10
15.6443047
20
176.8270341
11
15.7928919
21
176.8270341
0
ARC
8
DEFAULT_255_1_234
10
15.7301196
20
177.0584889
40
0.097867
50
161.415052
51
180.5526306
0
ARC
8
DEFAULT_255_1_234
10
15.7176974
20
177.0619077
40
0.0850062
50
138.1827368
51
160.9307106
0
ARC
8
DEFAULT_255_1_234
10
15.706692
20
177.0714588
40
0.0704362
50
104.6368899
51
138.0039868
0
ARC
8
DEFAULT_255_1_234
10
15.7174075
20
177.0347963
40
0.1086221
50
92.0600725
51
105.2189128
0
ARC
8
DEFAULT_255_1_234
10
15.7197423
20
177.0005117
40
0.1429728
50
89.9756393
51
92.5012496
0
ARC
8
DEFAULT_255_1_234
10
15.7207442
20
177.0230731
40
0.1204151
50
78.0235316
51
90.4478182
0
ARC
8
DEFAULT_255_1_234
10
15.7299534
20
177.0644295
40
0.0780493
50
55.051506
51
78.3369085
0
ARC
8
DEFAULT_255_1_234
10
15.7349809
20
177.0728711
40
0.0682538
50
42.0501187
51
54.4513741
0
ARC
8
DEFAULT_255_1_234
10
15.7214676
20
177.0604798
40
0.0865878
50
1.7497075
51
42.1496013
0
ARC
8
DEFAULT_255_1_234
10
15.6960009
20
177.0575738
40
0.1121515
50
359.9852656
51
2.8364544
0
ARC
8
DEFAULT_255_1_234
10
15.7126001
20
177.0566229
40
0.0955566
50
342.1070653
51
0.552888
0
ARC
8
DEFAULT_255_1_234
10
15.7268698
20
177.0526904
40
0.0807713
50
316.7107116
51
341.6516965
0
ARC
8
DEFAULT_255_1_234
10
15.7335735
20
177.0466823
40
0.0717724
50
285.4397031
51
316.5324284
0
ARC
8
DEFAULT_255_1_234
10
15.7225652
20
177.0832554
40
0.1099597
50
272.3547054
51
285.8953117
0
ARC
8
DEFAULT_255_1_234
10
15.719881
20
177.1198048
40
0.1465932
50
269.9695369
51
272.8160237
0
ARC
8
DEFAULT_255_1_234
10
15.7188992
20
177.0978863
40
0.1246779
50
258.8431134
51
270.4153935
0
ARC
8
DEFAULT_255_1_234
10
15.7099034
20
177.0543414
40
0.0802162
50
238.5431189
51
259.1288175
0
ARC
8
DEFAULT_255_1_234
10
15.7030919
20
177.0419856
40
0.0661247
50
222.5062634
51
237.9906969
0
ARC
8
DEFAULT_255_1_234
10
15.7158506
20
177.0535889
40
0.0833707
50
184.1069131
51
222.460413
0
ARC
8
DEFAULT_255_1_234
10
15.7427747
20
177.0574349
40
0.1105176
50
179.9429482
51
185.0960898
0
LINE
8
DEFAULT_255_1_234
10
15.9928822
20
176.3684218
11
15.9928822
21
176.3957297
0
LINE
8
DEFAULT_255_1_234
10
16.7301958
20
176.4117932
11
16.7301958
21
176.3499488
0
LINE
8
DEFAULT_255_1_234
10
16.7301958
20
176.3499488
11
16.1414693
21
176.3499488
0
LINE
8
DEFAULT_255_1_234
10
16.6281927
20
176.1804792
11
16.7189513
21
176.1097999
0
LINE
8
DEFAULT_255_1_234
10
16.1462884
20
176.4720313
11
16.5816086
21
176.4720313
0
LINE
8
DEFAULT_255_1_234
10
16.5816086
20
176.4720313
11
16.5816086
21
176.4832757
0
ARC
8
DEFAULT_255_1_234
10
16.3868187
20
176.3795332
40
0.4376191
50
252.3266134
51
270.5810217
0
ARC
8
DEFAULT_255_1_234
10
16.3663276
20
176.3054644
40
0.3608374
50
223.3000567
51
251.8561855
0
ARC
8
DEFAULT_255_1_234
10
16.3874637
20
176.3259937
40
0.3902993
50
190.9374509
51
223.3654032
0
ARC
8
DEFAULT_255_1_234
10
16.5599609
20
176.3649885
40
0.5670891
50
179.6531105
51
191.4989439
0
ARC
8
DEFAULT_255_1_234
10
16.5721621
20
176.3989417
40
0.5792888
50
167.4007466
51
180.3176909
0
ARC
8
DEFAULT_255_1_234
10
16.4669683
20
176.4211885
40
0.471777
50
154.1835823
51
167.250763
0
ARC
8
DEFAULT_255_1_234
10
16.403815
20
176.4544417
40
0.4004528
50
134.3149965
51
154.5315275
0
ARC
8
DEFAULT_255_1_234
10
16.3820645
20
176.4735228
40
0.371612
50
122.8616532
51
133.9707695
0
ARC
8
DEFAULT_255_1_234
10
16.3717219
20
176.4957703
40
0.3473289
50
89.8249009
51
123.4199222
0
ARC
8
DEFAULT_255_1_234
10
16.376726
20
176.4310967
40
0.4120197
50
74.7876118
51
90.5482747
0
ARC
8
DEFAULT_255_1_234
10
16.4061004
20
176.539603
40
0.2996077
50
39.8178249
51
74.7633718
0
ARC
8
DEFAULT_255_1_234
10
16.3548324
20
176.4996351
40
0.3645855
50
16.8990863
51
39.4829761
0
ARC
8
DEFAULT_255_1_234
10
16.165362
20
176.4389526
40
0.5635218
50
4.9636328
51
17.2026414
0
ARC
8
DEFAULT_255_1_234
10
15.923569
20
176.413434
40
0.8066286
50
359.8834553
51
5.2834307
0
ARC
8
DEFAULT_255_1_234
10
16.5273215
20
176.3565803
40
0.3859091
50
180.9846213
51
194.9401313
0
ARC
8
DEFAULT_255_1_234
10
16.4223493
20
176.3278849
40
0.2770883
50
194.80314
51
222.0412631
0
ARC
8
DEFAULT_255_1_234
10
16.3919375
20
176.2977116
40
0.2343055
50
221.5417084
51
268.8614402
0
ARC
8
DEFAULT_255_1_234
10
16.3992369
20
176.3653686
40
0.3021528
50
267.732405
51
270.0097136
0
ARC
8
DEFAULT_255_1_234
10
16.4010179
20
176.3855105
40
0.3222994
50
269.6924892
51
280.4117579
0
ARC
8
DEFAULT_255_1_234
10
16.4186586
20
176.2936193
40
0.2287344
50
280.2255091
51
298.6338936
0
ARC
8
DEFAULT_255_1_234
10
16.4303378
20
176.2692223
40
0.2017294
50
299.0430333
51
300.4643464
0
ARC
8
DEFAULT_255_1_234
10
16.3623383
20
176.3826038
40
0.3339357
50
300.6577328
51
322.0378878
0
ARC
8
DEFAULT_255_1_234
10
16.3272923
20
176.4130021
40
0.3802736
50
321.6750233
51
322.3046845
0
ARC
8
DEFAULT_255_1_234
10
16.4203884
20
176.296337
40
0.3520454
50
276.9728461
51
328.0035423
0
ARC
8
DEFAULT_255_1_234
10
16.3926937
20
176.4443841
40
0.5024498
50
269.8361028
51
278.0581756
0
ARC
8
DEFAULT_255_1_234
10
16.3699674
20
176.5188757
40
0.202159
50
89.2018686
51
117.2851756
0
ARC
8
DEFAULT_255_1_234
10
16.3752843
20
176.5146752
40
0.2083484
50
118.0551165
51
137.4540413
0
ARC
8
DEFAULT_255_1_234
10
16.4127583
20
176.4806304
40
0.2589774
50
137.5109581
51
158.8516286
0
ARC
8
DEFAULT_255_1_234
10
16.5265419
20
176.4347074
40
0.38167
50
158.5845963
51
170.1721436
0
ARC
8
DEFAULT_255_1_234
10
16.6434808
20
176.4114823
40
0.5008657
50
169.8376422
51
173.0566086
0
ARC
8
DEFAULT_255_1_234
10
16.1737882
20
176.4625509
40
0.4083467
50
2.9091802
51
12.8847116
0
ARC
8
DEFAULT_255_1_234
10
16.3108558
20
176.4948101
40
0.2675383
50
12.6957781
51
28.6404489
0
ARC
8
DEFAULT_255_1_234
10
16.3650229
20
176.5228458
40
0.2065654
50
29.0169854
51
41.1487595
0
ARC
8
DEFAULT_255_1_234
10
16.3853014
20
176.5405003
40
0.1796786
50
41.1646065
51
85.0013516
0
ARC
8
DEFAULT_255_1_234
10
16.3732111
20
176.4670431
40
0.2539726
50
83.7280015
51
90.0964893
0
LINE
8
DEFAULT_255_1_234
10
17.5486299
20
176.5716248
11
17.3992396
21
176.5716248
0
LINE
8
DEFAULT_255_1_234
10
16.8659321
20
176.2254569
11
17.0145193
21
176.2254569
0
ARC
8
DEFAULT_255_1_234
10
17.2804214
20
176.1899959
40
0.1276617
50
359.3334982
51
18.5871358
0
ARC
8
DEFAULT_255_1_234
10
17.3012851
20
176.1955133
40
0.1061371
50
19.3540742
51
54.6485071
0
ARC
8
DEFAULT_255_1_234
10
17.2508753
20
176.1259919
40
0.1920087
50
54.3827097
51
65.0622807
0
ARC
8
DEFAULT_255_1_234
10
17.174015
20
175.96429
40
0.3710447
50
64.8282493
51
71.4200025
0
ARC
8
DEFAULT_255_1_234
10
17.0838025
20
175.6996107
40
0.6506741
50
71.3164301
51
75.8006402
0
ARC
8
DEFAULT_255_1_234
10
16.9996845
20
175.3755561
40
0.9854641
50
75.6809531
51
78.0061883
0
ARC
8
DEFAULT_255_1_234
10
17.4445378
20
177.473477
40
1.1591028
50
254.6901892
51
258.0466452
0
ARC
8
DEFAULT_255_1_234
10
17.3407287
20
177.0975781
40
0.7691345
50
249.9010773
51
254.755261
0
ARC
8
DEFAULT_255_1_234
10
17.2403629
20
176.8249982
40
0.478665
50
243.3097214
51
249.9709442
0
ARC
8
DEFAULT_255_1_234
10
17.177465
20
176.6995778
40
0.3383568
50
234.4047477
51
243.2862168
0
ARC
8
DEFAULT_255_1_234
10
17.1152173
20
176.6136232
40
0.2322322
50
220.8667099
51
234.5493881
0
ARC
8
DEFAULT_255_1_234
10
17.0810114
20
176.5824817
40
0.1859923
50
214.3062465
51
220.5065136
0
ARC
8
DEFAULT_255_1_234
10
17.0784194
20
176.579388
40
0.1821108
50
186.912965
51
213.9618616
0
ARC
8
DEFAULT_255_1_234
10
17.1316288
20
176.5880009
40
0.2359799
50
179.8808832
51
187.4339886
0
ARC
8
DEFAULT_255_1_234
10
17.1161422
20
176.5900088
40
0.2204978
50
132.005434
51
180.3942919
0
ARC
8
DEFAULT_255_1_234
10
17.1818035
20
176.5294083
40
0.3095791
50
129.2319861
51
133.5302299
0
ARC
8
DEFAULT_255_1_234
10
17.1871543
20
176.5199928
40
0.3202615
50
100.4410011
51
128.9081242
0
ARC
8
DEFAULT_255_1_234
10
17.2145427
20
176.3914455
40
0.4516583
50
89.6985377
51
100.9026564
0
ARC
8
DEFAULT_255_1_234
10
17.2202469
20
176.3754166
40
0.4676928
50
77.6965325
51
90.4076836
0
ARC
8
DEFAULT_255_1_234
10
17.2533453
20
176.5181413
40
0.3211988
50
50.7276602
51
78.0399361
0
ARC
8
DEFAULT_255_1_234
10
17.2977911
20
176.5699296
40
0.2529778
50
25.7545084
51
51.0957453
0
ARC
8
DEFAULT_255_1_234
10
17.2979136
20
176.5749206
40
0.250738
50
359.2468627
51
24.7394243
0
ARC
8
DEFAULT_255_1_234
10
17.2694588
20
176.5720664
40
0.1297815
50
359.8050318
51
45.1544908
0
ARC
8
DEFAULT_255_1_234
10
17.228773
20
176.5372794
40
0.1831883
50
43.8047702
51
49.6271585
0
ARC
8
DEFAULT_255_1_234
10
17.2295632
20
176.5373678
40
0.18261
50
49.7980766
51
82.1218353
0
ARC
8
DEFAULT_255_1_234
10
17.2176603
20
176.4726998
40
0.2483163
50
81.4465357
51
90.1710293
0
ARC
8
DEFAULT_255_1_234
10
17.2152206
20
176.420088
40
0.300932
50
89.6766211
51
99.1264602
0
ARC
8
DEFAULT_255_1_234
10
17.1980668
20
176.5234537
40
0.1961547
50
98.968313
51
113.4570237
0
ARC
8
DEFAULT_255_1_234
10
17.1784753
20
176.5702965
40
0.1453859
50
113.722589
51
127.4763106
0
ARC
8
DEFAULT_255_1_234
10
17.1616399
20
176.5903124
40
0.1192639
50
126.9083309
51
150.3165862
0
ARC
8
DEFAULT_255_1_234
10
17.1568732
20
176.5953981
40
0.112623
50
151.3635175
51
180.0701457
0
ARC
8
DEFAULT_255_1_234
10
17.1877517
20
176.593299
40
0.1435149
50
179.2169974
51
179.9954013
0
ARC
8
DEFAULT_255_1_234
10
17.1516574
20
176.5920056
40
0.1074286
50
179.3040112
51
198.4225446
0
ARC
8
DEFAULT_255_1_234
10
17.1324708
20
176.5870127
40
0.0876573
50
199.2895851
51
238.6034594
0
ARC
8
DEFAULT_255_1_234
10
17.1927554
20
176.681645
40
0.1998512
50
237.9846301
51
246.8744712
0
ARC
8
DEFAULT_255_1_234
10
17.2785499
20
176.8779205
40
0.4140547
50
246.6234531
51
251.8168941
0
ARC
8
DEFAULT_255_1_234
10
17.3816043
20
177.1873905
40
0.7402308
50
251.713434
51
255.0778414
0
ARC
8
DEFAULT_255_1_234
10
17.5015305
20
177.6340563
40
1.2027155
50
255.0367487
51
257.4705983
0
ARC
8
DEFAULT_255_1_234
10
16.9907315
20
175.3326863
40
1.1546601
50
73.6837552
51
77.5016755
0
ARC
8
DEFAULT_255_1_234
10
17.099609
20
175.7026581
40
0.7690009
50
68.7044154
51
73.7249639
0
ARC
8
DEFAULT_255_1_234
10
17.1899111
20
175.9353654
40
0.5193873
50
63.590599
51
68.6626804
0
ARC
8
DEFAULT_255_1_234
10
17.267013
20
176.0891123
40
0.3473927
50
54.7106439
51
63.7013633
0
ARC
8
DEFAULT_255_1_234
10
17.3294584
20
176.17634
40
0.2401192
50
41.0622434
51
54.8487496
0
ARC
8
DEFAULT_255_1_234
10
17.3635971
20
176.2076592
40
0.1938094
50
34.4950568
51
40.7105546
0
ARC
8
DEFAULT_255_1_234
10
17.3682778
20
176.2125078
40
0.1872106
50
9.3763373
51
34.0833615
0
ARC
8
DEFAULT_255_1_234
10
17.3029648
20
176.1999728
40
0.2536988
50
359.7694872
51
9.7663171
0
ARC
8
DEFAULT_255_1_234
10
17.3227149
20
176.1956764
40
0.2339696
50
335.8654732
51
0.8022045
0
ARC
8
DEFAULT_255_1_234
10
17.3302194
20
176.1970197
40
0.2277108
50
307.7357725
51
334.7849066
0
ARC
8
DEFAULT_255_1_234
10
17.2901369
20
176.2420645
40
0.2878951
50
307.0241536
51
308.5578354
0
ARC
8
DEFAULT_255_1_234
10
17.2643701
20
176.2806801
40
0.3342515
50
282.9362969
51
306.5646424
0
ARC
8
DEFAULT_255_1_234
10
17.2281998
20
176.4274108
40
0.4853615
50
271.1026298
51
283.2200835
0
ARC
8
DEFAULT_255_1_234
10
17.2218242
20
176.5515418
40
0.6096052
50
269.9919117
51
271.4772449
0
ARC
8
DEFAULT_255_1_234
10
17.2191997
20
176.4437436
40
0.5018135
50
259.0723564
51
270.289833
0
ARC
8
DEFAULT_255_1_234
10
17.1979729
20
176.3320271
40
0.388099
50
245.4963068
51
259.0227342
0
ARC
8
DEFAULT_255_1_234
10
17.1701686
20
176.2738615
40
0.3236422
50
228.9684658
51
245.7044727
0
ARC
8
DEFAULT_255_1_234
10
17.1436129
20
176.2411575
40
0.2815426
50
214.4011705
51
228.6759915
0
ARC
8
DEFAULT_255_1_234
10
17.114687
20
176.225329
40
0.2487548
50
179.9705531
51
215.1572795
0
ARC
8
DEFAULT_255_1_234
10
17.184747
20
176.2326806
40
0.1703809
50
182.4299387
51
203.0329699
0
ARC
8
DEFAULT_255_1_234
10
17.1663127
20
176.2270396
40
0.1512226
50
203.798802
51
232.548466
0
ARC
8
DEFAULT_255_1_234
10
17.1939649
20
176.2621826
40
0.1959374
50
232.3782728
51
256.3934612
0
ARC
8
DEFAULT_255_1_234
10
17.217001
20
176.3511842
40
0.2878639
50
256.104506
51
268.4626716
0
ARC
8
DEFAULT_255_1_234
10
17.2216495
20
176.4308487
40
0.3676329
50
268.0715632
51
270.0138206
0
ARC
8
DEFAULT_255_1_234
10
17.2235019
20
176.4036083
40
0.3403971
50
269.7031147
51
278.8341955
0
ARC
8
DEFAULT_255_1_234
10
17.2417112
20
176.2905876
40
0.2259217
50
278.6728789
51
292.8232582
0
ARC
8
DEFAULT_255_1_234
10
17.2617651
20
176.2404449
40
0.171929
50
293.1452328
51
303.6655899
0
ARC
8
DEFAULT_255_1_234
10
17.288253
20
176.2028204
40
0.1259367
50
303.1248165
51
321.742847
0
ARC
8
DEFAULT_255_1_234
10
17.306841
20
176.1865156
40
0.1012531
50
322.4748573
51
1.1291126
0
LINE
8
DEFAULT_255_2_778
10
9.3932417
20
170.0828311
11
10.7161417
21
170.0828311
0
LINE
8
DEFAULT_255_2_778
10
10.7161417
20
170.0828311
11
10.7161417
21
90.3771311
0
LINE
8
DEFAULT_255_2_778
10
10.7161417
20
85.7469311
11
10.7161417
21
6.0411311
0
LINE
8
DEFAULT_255_2_778
10
10.7161417
20
6.0411311
11
9.3932417
21
6.0411311
0
LINE
8
DEFAULT_255_2_778
10
9.3932834
20
90.3771041
11
12.0390834
21
90.3771041
0
LINE
8
DEFAULT_255_2_778
10
12.0390834
20
90.3771041
11
12.0390834
21
85.7469041
0
LINE
8
DEFAULT_255_2_778
10
12.0390834
20
85.7469041
11
9.3932834
21
85.7469041
0
LINE
8
DEFAULT_255_2_778
10
9.3932834
20
85.7469041
11
9.3932834
21
90.3771041
0
LINE
8
DEFAULT_255_2_778
10
10.187
20
86.2098833
11
10.187
21
89.9140833
0
LINE
8
DEFAULT_255_2_778
10
9.9224167
20
89.2196656
11
10.1870167
21
89.9141656
0
LINE
8
DEFAULT_255_2_778
10
10.1870167
20
89.9141656
11
10.4516167
21
89.2196656
0
LINE
8
DEFAULT_255_2_778
10
10.4516167
20
89.2196656
11
9.9224167
21
89.2196656
0
LINE
8
DEFAULT_255_2_778
10
11.2453
20
89.9140833
11
11.2453
21
86.2098833
0
LINE
8
DEFAULT_255_2_778
10
10.9807167
20
86.9044656
11
11.2453167
21
86.2099656
0
LINE
8
DEFAULT_255_2_778
10
11.2453167
20
86.2099656
11
11.5099167
21
86.9044656
0
LINE
8
DEFAULT_255_2_778
10
11.5099167
20
86.9044656
11
10.9807167
21
86.9044656
0
LINE
8
DEFAULT_255_1_234
10
4.9290119
20
174.0949792
11
4.9290119
21
173.9737
0
LINE
8
DEFAULT_255_1_234
10
4.9290119
20
173.9737
11
4.162784
21
173.9737
0
LINE
8
DEFAULT_255_1_234
10
4.162784
20
173.9737
11
4.162784
21
174.0805221
0
LINE
8
DEFAULT_255_1_234
10
4.162784
20
174.0805221
11
4.5675836
21
174.5302995
0
LINE
8
DEFAULT_255_1_234
10
4.2888823
20
174.7985595
11
4.1402952
21
174.7985595
0
LINE
8
DEFAULT_255_1_234
10
4.6551296
20
174.4347218
11
4.3418918
21
174.0949792
0
LINE
8
DEFAULT_255_1_234
10
4.3418918
20
174.0949792
11
4.9290119
21
174.0949792
0
ARC
8
DEFAULT_255_1_234
10
3.218567
20
175.7232527
40
1.8008286
50
318.5132453
51
320.7828378
0
ARC
8
DEFAULT_255_1_234
10
3.7472644
20
175.2929426
40
1.1191493
50
320.7372736
51
323.9737074
0
ARC
8
DEFAULT_255_1_234
10
4.1392501
20
175.0089361
40
0.6350923
50
323.8961724
51
328.6421089
0
ARC
8
DEFAULT_255_1_234
10
4.3439096
20
174.8827031
40
0.3946393
50
328.8299013
51
331.789948
0
ARC
8
DEFAULT_255_1_234
10
4.4436274
20
174.8312509
40
0.2824501
50
331.4255242
51
352.9364833
0
ARC
8
DEFAULT_255_1_234
10
4.4572775
20
174.8281976
40
0.2685315
50
353.2248685
51
0.0169286
0
ARC
8
DEFAULT_255_1_234
10
4.4782652
20
174.830495
40
0.2475536
50
359.4866256
51
15.9339782
0
ARC
8
DEFAULT_255_1_234
10
4.5289637
20
174.8441286
40
0.1950618
50
16.1714718
51
43.5284424
0
ARC
8
DEFAULT_255_1_234
10
4.5366946
20
174.8518573
40
0.184134
50
43.4415429
51
83.1661404
0
ARC
8
DEFAULT_255_1_234
10
4.5232864
20
174.7781771
40
0.258926
50
82.160215
51
90.1505798
0
ARC
8
DEFAULT_255_1_234
10
4.5201291
20
174.7244865
40
0.3126255
50
89.5460705
51
102.5418777
0
ARC
8
DEFAULT_255_1_234
10
4.4958377
20
174.8275665
40
0.2067346
50
102.1739365
51
129.2061916
0
ARC
8
DEFAULT_255_1_234
10
4.4879449
20
174.8400094
40
0.1921118
50
129.7279328
51
135.7542026
0
ARC
8
DEFAULT_255_1_234
10
4.5000977
20
174.8303045
40
0.2075944
50
136.175737
51
166.3674722
0
ARC
8
DEFAULT_255_1_234
10
4.6007896
20
174.8033182
40
0.3118201
50
165.9092917
51
178.8683903
0
ARC
8
DEFAULT_255_1_234
10
4.6872757
20
174.7986179
40
0.3983935
50
178.438168
51
180.0083905
0
ARC
8
DEFAULT_255_1_234
10
4.5471359
20
174.8025231
40
0.4068601
50
163.2878735
51
180.5581814
0
ARC
8
DEFAULT_255_1_234
10
4.4669621
20
174.824584
40
0.3237344
50
133.454115
51
162.9470031
0
ARC
8
DEFAULT_255_1_234
10
4.4848162
20
174.8056
40
0.349795
50
100.7869394
51
133.4384016
0
ARC
8
DEFAULT_255_1_234
10
4.5195934
20
174.6507319
40
0.5084616
50
89.6605301
51
101.3704185
0
ARC
8
DEFAULT_255_1_234
10
4.5262273
20
174.6568496
40
0.502348
50
78.2171172
51
90.4130393
0
ARC
8
DEFAULT_255_1_234
10
4.5617351
20
174.8192637
40
0.3361092
50
55.9268222
51
78.4888551
0
ARC
8
DEFAULT_255_1_234
10
4.5813791
20
174.8531324
40
0.2970617
50
47.9292255
51
55.4054003
0
ARC
8
DEFAULT_255_1_234
10
4.5915352
20
174.8634502
40
0.2825983
50
4.3347696
51
48.0560701
0
ARC
8
DEFAULT_255_1_234
10
4.4819745
20
174.8464601
40
0.393225
50
359.925209
51
5.5967654
0
ARC
8
DEFAULT_255_1_234
10
4.5248637
20
174.8520816
40
0.3503892
50
337.8914096
51
358.9967724
0
ARC
8
DEFAULT_255_1_234
10
4.2535049
20
174.9567706
40
0.6412172
50
326.9135351
51
338.3505194
0
ARC
8
DEFAULT_255_1_234
10
3.8549353
20
175.2122284
40
1.1146189
50
319.6472867
51
327.095818
0
ARC
8
DEFAULT_255_1_234
10
3.4716356
20
175.5284
40
1.6114559
50
317.2586784
51
319.9046139
0
LINE
8
DEFAULT_255_1_234
10
5.7137127
20
175.1431211
11
5.7137127
21
174.366452
0
LINE
8
DEFAULT_255_1_234
10
5.7137127
20
174.366452
11
5.8759538
21
174.366452
0
LINE
8
DEFAULT_255_1_234
10
5.8759538
20
174.366452
11
5.8759538
21
174.2451728
0
LINE
8
DEFAULT_255_1_234
10
5.8759538
20
174.2451728
11
5.7137127
21
174.2451728
0
LINE
8
DEFAULT_255_1_234
10
5.7137127
20
174.2451728
11
5.7137127
21
173.9737
0
LINE
8
DEFAULT_255_1_234
10
5.7137127
20
173.9737
11
5.5643224
21
173.9737
0
LINE
8
DEFAULT_255_1_234
10
5.5643224
20
173.9737
11
5.5643224
21
174.2451728
0
LINE
8
DEFAULT_255_1_234
10
5.5643224
20
174.2451728
11
5.0318181
21
174.2451728
0
LINE
8
DEFAULT_255_1_234
10
5.0318181
20
174.2451728
11
5.0318181
21
174.3327187
0
LINE
8
DEFAULT_255_1_234
10
5.0318181
20
174.3327187
11
5.5554875
21
175.1431211
0
LINE
8
DEFAULT_255_1_234
10
5.5554875
20
175.1431211
11
5.7137127
21
175.1431211
0
LINE
8
DEFAULT_255_1_234
10
5.5466525
20
174.9077912
11
5.2004846
21
174.366452
0
LINE
8
DEFAULT_255_1_234
10
5.2004846
20
174.366452
11
5.5643224
21
174.366452
0
LINE
8
DEFAULT_255_1_234
10
5.5643224
20
174.366452
11
5.5643224
21
174.9399181
0
LINE
8
DEFAULT_255_1_234
10
5.5643224
20
174.9399181
11
5.5466525
21
174.9077912
0
LINE
8
DEFAULT_255_1_234
10
6.103252
20
175.1431211
11
6.435766
21
174.1785093
0
LINE
8
DEFAULT_255_1_234
10
6.435766
20
174.1785093
11
6.7698863
21
175.1431211
0
LINE
8
DEFAULT_255_1_234
10
6.7698863
20
175.1431211
11
6.9385528
21
175.1431211
0
LINE
8
DEFAULT_255_1_234
10
6.9385528
20
175.1431211
11
6.5048389
21
173.9737
0
LINE
8
DEFAULT_255_1_234
10
6.5048389
20
173.9737
11
6.3682994
21
173.9737
0
LINE
8
DEFAULT_255_1_234
10
6.3682994
20
173.9737
11
5.9353887
21
175.1431211
0
LINE
8
DEFAULT_255_1_234
10
5.9353887
20
175.1431211
11
6.103252
21
175.1431211
0
LINE
8
DEFAULT_255_1_234
10
4.3652902
20
5.8097211
11
4.3652902
21
4.6403
0
LINE
8
DEFAULT_255_1_234
10
4.3652902
20
4.6403
11
4.2110808
21
4.6403
0
LINE
8
DEFAULT_255_1_234
10
4.2110808
20
4.6403
11
4.2110808
21
5.8097211
0
LINE
8
DEFAULT_255_1_234
10
4.2110808
20
5.8097211
11
4.3652902
21
5.8097211
0
LINE
8
DEFAULT_255_1_234
10
5.5459557
20
5.8097211
11
5.5459557
21
4.6403
0
LINE
8
DEFAULT_255_1_234
10
5.5459557
20
4.6403
11
5.3909432
21
4.6403
0
LINE
8
DEFAULT_255_1_234
10
5.3909432
20
4.6403
11
4.8022167
21
5.541461
0
LINE
8
DEFAULT_255_1_234
10
4.8022167
20
5.541461
11
4.8022167
21
4.6403
0
LINE
8
DEFAULT_255_1_234
10
4.8022167
20
4.6403
11
4.6472042
21
4.6403
0
LINE
8
DEFAULT_255_1_234
10
4.6472042
20
4.6403
11
4.6472042
21
5.8097211
0
LINE
8
DEFAULT_255_1_234
10
4.6472042
20
5.8097211
11
4.8022167
21
5.8097211
0
LINE
8
DEFAULT_255_1_234
10
4.8022167
20
5.8097211
11
5.3925495
21
4.9045442
0
LINE
8
DEFAULT_255_1_234
10
5.3925495
20
4.9045442
11
5.3925495
21
5.8097211
0
LINE
8
DEFAULT_255_1_234
10
5.3925495
20
5.8097211
11
5.5459557
21
5.8097211
0
LINE
8
DEFAULT_255_1_234
10
6.2696153
20
5.8153433
11
6.2696153
21
4.6403
0
LINE
8
DEFAULT_255_1_234
10
6.2696153
20
4.6403
11
6.120225
21
4.6403
0
LINE
8
DEFAULT_255_1_234
10
6.120225
20
4.6403
11
6.120225
21
5.6306133
0
LINE
8
DEFAULT_255_1_234
10
6.120225
20
5.6306133
11
5.8206412
21
5.5205785
0
LINE
8
DEFAULT_255_1_234
10
5.8206412
20
5.5205785
11
5.8206412
21
5.6555117
0
LINE
8
DEFAULT_255_1_234
10
5.8206412
20
5.6555117
11
6.2463233
21
5.8153433
0
LINE
8
DEFAULT_255_1_234
10
6.2463233
20
5.8153433
11
6.2696153
21
5.8153433
0
LINE
8
DEFAULT_255_1_234
10
6.892075
20
5.1960963
11
6.7732053
21
5.2266169
0
LINE
8
DEFAULT_255_1_234
10
6.7732053
20
5.2266169
11
6.8326402
21
5.8097211
0
LINE
8
DEFAULT_255_1_234
10
6.8326402
20
5.8097211
11
7.4318079
21
5.8097211
0
LINE
8
DEFAULT_255_1_234
10
7.4318079
20
5.8097211
11
7.4318079
21
5.6723784
0
LINE
8
DEFAULT_255_1_234
10
7.4318079
20
5.6723784
11
6.9587385
21
5.6723784
0
LINE
8
DEFAULT_255_1_234
10
6.9587385
20
5.6723784
11
6.9233988
21
5.3535184
0
LINE
8
DEFAULT_255_1_234
10
6.7314403
20
4.9479156
11
6.8719957
21
4.9479156
0
LINE
8
DEFAULT_255_1_234
10
6.9314306
20
5.2282232
11
6.892075
21
5.1960963
0
ARC
8
DEFAULT_255_1_234
10
7.1088772
20
5.035523
40
0.3681349
50
93.7182161
51
120.2538958
0
ARC
8
DEFAULT_255_1_234
10
7.1183035
20
4.9547394
40
0.449379
50
89.9660152
51
94.2496022
0
ARC
8
DEFAULT_255_1_234
10
7.1223769
20
5.0136549
40
0.390482
50
73.8043271
51
90.5585896
0
ARC
8
DEFAULT_255_1_234
10
7.1458666
20
5.0994602
40
0.3015334
50
41.3071453
51
73.5430202
0
ARC
8
DEFAULT_255_1_234
10
7.1042493
20
5.0636324
40
0.3564457
50
13.5075983
51
41.2174222
0
ARC
8
DEFAULT_255_1_234
10
6.9400697
20
5.0206486
40
0.5261351
50
1.1331335
51
13.8829381
0
ARC
8
DEFAULT_255_1_234
10
6.7989066
20
5.0130665
40
0.6674378
50
359.9919444
51
1.544251
0
ARC
8
DEFAULT_255_1_234
10
6.9265892
20
5.008928
40
0.5397702
50
347.8572367
51
0.4293338
0
ARC
8
DEFAULT_255_1_234
10
7.101621
20
4.9692736
40
0.3603188
50
323.673004
51
348.1672506
0
ARC
8
DEFAULT_255_1_234
10
7.1310718
20
4.9513168
40
0.3259678
50
316.8171152
51
323.1492751
0
ARC
8
DEFAULT_255_1_234
10
7.1371907
20
4.947646
40
0.3189975
50
281.8396411
51
316.5457803
0
ARC
8
DEFAULT_255_1_234
10
7.0996171
20
5.1031762
40
0.4789527
50
269.5770101
51
282.4214771
0
ARC
8
DEFAULT_255_1_234
10
7.0924983
20
5.0818125
40
0.45759
50
256.2427136
51
270.4486331
0
ARC
8
DEFAULT_255_1_234
10
7.0625885
20
4.9618229
40
0.3339303
50
228.9023911
51
256.3314342
0
ARC
8
DEFAULT_255_1_234
10
7.0552117
20
4.9501746
40
0.32031
50
193.753695
51
228.5271154
0
ARC
8
DEFAULT_255_1_234
10
7.1790071
20
4.98648
40
0.4492253
50
184.924711
51
194.497588
0
ARC
8
DEFAULT_255_1_234
10
7.1982638
20
4.9900591
40
0.3289787
50
187.3600538
51
198.6732863
0
ARC
8
DEFAULT_255_1_234
10
7.0932932
20
4.9536674
40
0.217884
50
198.4451669
51
217.794479
0
ARC
8
DEFAULT_255_1_234
10
7.0637107
20
4.9327085
40
0.1816698
50
218.2887171
51
228.5612368
0
ARC
8
DEFAULT_255_1_234
10
7.0734894
20
4.9458963
40
0.1980329
50
228.9654866
51
258.1234728
0
ARC
8
DEFAULT_255_1_234
10
7.0940604
20
5.0339833
40
0.2884748
50
257.7258293
51
270.401361
0
ARC
8
DEFAULT_255_1_234
10
7.0985491
20
4.9894821
40
0.2439788
50
269.4204404
51
286.4209037
0
ARC
8
DEFAULT_255_1_234
10
7.1133978
20
4.9355657
40
0.1880666
50
286.7251356
51
320.600362
0
ARC
8
DEFAULT_255_1_234
10
7.0750803
20
4.9666595
40
0.2374121
50
320.6712579
51
344.5441685
0
ARC
8
DEFAULT_255_1_234
10
6.9594129
20
5.0006045
40
0.3579479
50
344.2412205
51
356.7357071
0
ARC
8
DEFAULT_255_1_234
10
6.8345278
20
5.0109444
40
0.4832297
50
356.3548756
51
0.0500261
0
ARC
8
DEFAULT_255_1_234
10
6.9681787
20
5.014065
40
0.3495889
50
359.5576869
51
12.953486
0
ARC
8
DEFAULT_255_1_234
10
7.0736684
20
5.0396434
40
0.2410532
50
12.6490276
51
41.6081334
0
ARC
8
DEFAULT_255_1_234
10
7.0967055
20
5.0592321
40
0.2108218
50
41.7850273
51
85.9892764
0
ARC
8
DEFAULT_255_1_234
10
7.0843792
20
4.9779462
40
0.2928454
50
84.6957577
51
90.0676183
0
ARC
8
DEFAULT_255_1_234
10
7.0820276
20
4.9110716
40
0.3597255
50
89.6804936
51
99.1614436
0
ARC
8
DEFAULT_255_1_234
10
7.0614907
20
5.0338131
40
0.235281
50
98.9830931
51
113.8908934
0
ARC
8
DEFAULT_255_1_234
10
7.0385317
20
5.0879587
40
0.176479
50
114.1950727
51
127.3641004
0
LINE
8
DEFAULT_255_1_234
10
4.4710902
20
11.1014211
11
4.4710902
21
9.932
0
LINE
8
DEFAULT_255_1_234
10
4.4710902
20
9.932
11
4.3168808
21
9.932
0
LINE
8
DEFAULT_255_1_234
10
4.3168808
20
9.932
11
4.3168808
21
11.1014211
0
LINE
8
DEFAULT_255_1_234
10
4.3168808
20
11.1014211
11
4.4710902
21
11.1014211
0
LINE
8
DEFAULT_255_1_234
10
5.6517557
20
11.1014211
11
5.6517557
21
9.932
0
LINE
8
DEFAULT_255_1_234
10
5.6517557
20
9.932
11
5.4967432
21
9.932
0
LINE
8
DEFAULT_255_1_234
10
5.4967432
20
9.932
11
4.9080167
21
10.833161
0
LINE
8
DEFAULT_255_1_234
10
4.9080167
20
10.833161
11
4.9080167
21
9.932
0
LINE
8
DEFAULT_255_1_234
10
4.9080167
20
9.932
11
4.7530042
21
9.932
0
LINE
8
DEFAULT_255_1_234
10
4.7530042
20
9.932
11
4.7530042
21
11.1014211
0
LINE
8
DEFAULT_255_1_234
10
4.7530042
20
11.1014211
11
4.9080167
21
11.1014211
0
LINE
8
DEFAULT_255_1_234
10
4.9080167
20
11.1014211
11
5.4983495
21
10.1962442
0
LINE
8
DEFAULT_255_1_234
10
5.4983495
20
10.1962442
11
5.4983495
21
11.1014211
0
LINE
8
DEFAULT_255_1_234
10
5.4983495
20
11.1014211
11
5.6517557
21
11.1014211
0
LINE
8
DEFAULT_255_1_234
10
6.3754153
20
11.1070433
11
6.3754153
21
9.932
0
LINE
8
DEFAULT_255_1_234
10
6.3754153
20
9.932
11
6.226025
21
9.932
0
LINE
8
DEFAULT_255_1_234
10
6.226025
20
9.932
11
6.226025
21
10.9223133
0
LINE
8
DEFAULT_255_1_234
10
6.226025
20
10.9223133
11
5.9264412
21
10.8122785
0
LINE
8
DEFAULT_255_1_234
10
5.9264412
20
10.8122785
11
5.9264412
21
10.9472117
0
LINE
8
DEFAULT_255_1_234
10
5.9264412
20
10.9472117
11
6.3521233
21
11.1070433
0
LINE
8
DEFAULT_255_1_234
10
6.3521233
20
11.1070433
11
6.3754153
21
11.1070433
0
LINE
8
DEFAULT_255_1_234
10
7.4380143
20
11.1014211
11
7.4380143
21
10.324752
0
LINE
8
DEFAULT_255_1_234
10
7.4380143
20
10.324752
11
7.6002554
21
10.324752
0
LINE
8
DEFAULT_255_1_234
10
7.6002554
20
10.324752
11
7.6002554
21
10.2034728
0
LINE
8
DEFAULT_255_1_234
10
7.6002554
20
10.2034728
11
7.4380143
21
10.2034728
0
LINE
8
DEFAULT_255_1_234
10
7.4380143
20
10.2034728
11
7.4380143
21
9.932
0
LINE
8
DEFAULT_255_1_234
10
7.4380143
20
9.932
11
7.288624
21
9.932
0
LINE
8
DEFAULT_255_1_234
10
7.288624
20
9.932
11
7.288624
21
10.2034728
0
LINE
8
DEFAULT_255_1_234
10
7.288624
20
10.2034728
11
6.7561197
21
10.2034728
0
LINE
8
DEFAULT_255_1_234
10
6.7561197
20
10.2034728
11
6.7561197
21
10.2910187
0
LINE
8
DEFAULT_255_1_234
10
6.7561197
20
10.2910187
11
7.2797891
21
11.1014211
0
LINE
8
DEFAULT_255_1_234
10
7.2797891
20
11.1014211
11
7.4380143
21
11.1014211
0
LINE
8
DEFAULT_255_1_234
10
7.2709542
20
10.8660912
11
6.9247862
21
10.324752
0
LINE
8
DEFAULT_255_1_234
10
6.9247862
20
10.324752
11
7.288624
21
10.324752
0
LINE
8
DEFAULT_255_1_234
10
7.288624
20
10.324752
11
7.288624
21
10.8982181
0
LINE
8
DEFAULT_255_1_234
10
7.288624
20
10.8982181
11
7.2709542
21
10.8660912
0
LINE
8
DEFAULT_255_1_234
10
4.3652902
20
16.3931211
11
4.3652902
21
15.2237
0
LINE
8
DEFAULT_255_1_234
10
4.3652902
20
15.2237
11
4.2110808
21
15.2237
0
LINE
8
DEFAULT_255_1_234
10
4.2110808
20
15.2237
11
4.2110808
21
16.3931211
0
LINE
8
DEFAULT_255_1_234
10
4.2110808
20
16.3931211
11
4.3652902
21
16.3931211
0
LINE
8
DEFAULT_255_1_234
10
5.5459557
20
16.3931211
11
5.5459557
21
15.2237
0
LINE
8
DEFAULT_255_1_234
10
5.5459557
20
15.2237
11
5.3909432
21
15.2237
0
LINE
8
DEFAULT_255_1_234
10
5.3909432
20
15.2237
11
4.8022167
21
16.124861
0
LINE
8
DEFAULT_255_1_234
10
4.8022167
20
16.124861
11
4.8022167
21
15.2237
0
LINE
8
DEFAULT_255_1_234
10
4.8022167
20
15.2237
11
4.6472042
21
15.2237
0
LINE
8
DEFAULT_255_1_234
10
4.6472042
20
15.2237
11
4.6472042
21
16.3931211
0
LINE
8
DEFAULT_255_1_234
10
4.6472042
20
16.3931211
11
4.8022167
21
16.3931211
0
LINE
8
DEFAULT_255_1_234
10
4.8022167
20
16.3931211
11
5.3925495
21
15.4879442
0
LINE
8
DEFAULT_255_1_234
10
5.3925495
20
15.4879442
11
5.3925495
21
16.3931211
0
LINE
8
DEFAULT_255_1_234
10
5.3925495
20
16.3931211
11
5.5459557
21
16.3931211
0
LINE
8
DEFAULT_255_1_234
10
6.2696153
20
16.3987433
11
6.2696153
21
15.2237
0
LINE
8
DEFAULT_255_1_234
10
6.2696153
20
15.2237
11
6.120225
21
15.2237
0
LINE
8
DEFAULT_255_1_234
10
6.120225
20
15.2237
11
6.120225
21
16.2140133
0
LINE
8
DEFAULT_255_1_234
10
6.120225
20
16.2140133
11
5.8206412
21
16.1039785
0
LINE
8
DEFAULT_255_1_234
10
5.8206412
20
16.1039785
11
5.8206412
21
16.2389117
0
LINE
8
DEFAULT_255_1_234
10
5.8206412
20
16.2389117
11
6.2463233
21
16.3987433
0
LINE
8
DEFAULT_255_1_234
10
6.2463233
20
16.3987433
11
6.2696153
21
16.3987433
0
LINE
8
DEFAULT_255_1_234
10
6.9209893
20
15.7594169
11
6.9209893
21
15.8806962
0
LINE
8
DEFAULT_255_1_234
10
6.9209893
20
15.8806962
11
7.0326305
21
15.8806962
0
LINE
8
DEFAULT_255_1_234
10
6.8422783
20
16.0863087
11
6.6936911
21
16.0863087
0
LINE
8
DEFAULT_255_1_234
10
6.6832499
20
15.5321188
11
6.8326402
21
15.5321188
0
LINE
8
DEFAULT_255_1_234
10
7.0326305
20
15.7594169
11
6.9209893
21
15.7594169
0
ARC
8
DEFAULT_255_1_234
10
7.0297171
20
16.2199713
40
0.3392876
50
270.4919872
51
281.8951556
0
ARC
8
DEFAULT_255_1_234
10
7.0538433
20
16.1097702
40
0.2264817
50
281.6691735
51
301.2943132
0
ARC
8
DEFAULT_255_1_234
10
7.0708643
20
16.0786304
40
0.1910381
50
301.7833094
51
311.7545298
0
ARC
8
DEFAULT_255_1_234
10
7.0800219
20
16.0684748
40
0.1773635
50
311.7323931
51
354.2802411
0
ARC
8
DEFAULT_255_1_234
10
7.0073844
20
16.0809722
40
0.2509385
50
353.0937916
51
0.1181479
0
ARC
8
DEFAULT_255_1_234
10
6.9612629
20
16.0857386
40
0.2970898
50
359.1805295
51
15.0453146
0
ARC
8
DEFAULT_255_1_234
10
7.0958466
20
16.1249992
40
0.1569564
50
13.9577229
51
77.6713066
0
ARC
8
DEFAULT_255_1_234
10
7.0571995
20
15.9864949
40
0.3006298
50
76.1116566
51
90.7026153
0
ARC
8
DEFAULT_255_1_234
10
7.0512833
20
16.0138545
40
0.2732568
50
89.5324876
51
103.531937
0
ARC
8
DEFAULT_255_1_234
10
7.0312278
20
16.0937884
40
0.1908508
50
103.2931773
51
133.5619022
0
ARC
8
DEFAULT_255_1_234
10
7.0267766
20
16.0997375
40
0.1834746
50
133.8349307
51
173.5344437
0
ARC
8
DEFAULT_255_1_234
10
7.0990809
20
16.0869213
40
0.2568033
50
172.5096846
51
180.1366907
0
ARC
8
DEFAULT_255_1_234
10
7.0039703
20
16.0903622
40
0.3103056
50
155.3484492
51
180.7484736
0
ARC
8
DEFAULT_255_1_234
10
6.9990792
20
16.0874846
40
0.3070957
50
131.5744599
51
154.4798489
0
ARC
8
DEFAULT_255_1_234
10
7.0303939
20
16.055831
40
0.3515643
50
96.9875458
51
131.9690667
0
ARC
8
DEFAULT_255_1_234
10
7.0523419
20
15.9312636
40
0.4779224
50
89.8596053
51
97.7825159
0
ARC
8
DEFAULT_255_1_234
10
7.0571482
20
15.9050616
40
0.5041361
50
78.3655447
51
90.4131539
0
ARC
8
DEFAULT_255_1_234
10
7.09294
20
16.0709887
40
0.3344039
50
56.6229102
51
78.638727
0
ARC
8
DEFAULT_255_1_234
10
7.1144344
20
16.1085805
40
0.2912001
50
47.0253525
51
56.0854072
0
ARC
8
DEFAULT_255_1_234
10
7.1164124
20
16.1125223
40
0.2869704
50
10.9208013
51
46.7778124
0
ARC
8
DEFAULT_255_1_234
10
6.980019
20
16.0809857
40
0.426899
50
359.6364486
51
11.6087304
0
ARC
8
DEFAULT_255_1_234
10
7.1635035
20
16.0794752
40
0.243409
50
332.3549906
51
359.7179418
0
ARC
8
DEFAULT_255_1_234
10
7.0984636
20
16.1103142
40
0.3153459
50
325.2333722
51
332.8745602
0
ARC
8
DEFAULT_255_1_234
10
7.113726
20
16.0996828
40
0.2967456
50
292.9802137
51
325.2392345
0
ARC
8
DEFAULT_255_1_234
10
7.0862634
20
16.1530863
40
0.3566604
50
292.5402179
51
293.6924929
0
ARC
8
DEFAULT_255_1_234
10
7.1255229
20
15.5076091
40
0.3307468
50
57.6435486
51
72.8625112
0
ARC
8
DEFAULT_255_1_234
10
7.1609729
20
15.5650549
40
0.2632492
50
36.7248896
51
57.4697979
0
ARC
8
DEFAULT_255_1_234
10
7.1598362
20
15.566322
40
0.2634081
50
8.0545065
51
36.356114
0
ARC
8
DEFAULT_255_1_234
10
7.0735547
20
15.5508174
40
0.3510261
50
359.8320645
51
8.5869982
0
ARC
8
DEFAULT_255_1_234
10
7.0360323
20
15.5460101
40
0.3885653
50
343.9829931
51
0.5571613
0
ARC
8
DEFAULT_255_1_234
10
7.1246521
20
15.5217438
40
0.2966924
50
311.6359546
51
343.7651759
0
ARC
8
DEFAULT_255_1_234
10
7.086809
20
15.5644102
40
0.3537231
50
279.7829875
51
311.6255694
0
ARC
8
DEFAULT_255_1_234
10
7.0566866
20
15.708128
40
0.5004971
50
269.7286406
51
280.3856417
0
ARC
8
DEFAULT_255_1_234
10
7.0504939
20
15.7039996
40
0.4963778
50
256.6828919
51
270.4412052
0
ARC
8
DEFAULT_255_1_234
10
7.0166234
20
15.5655394
40
0.3538406
50
229.4223008
51
256.8556159
0
ARC
8
DEFAULT_255_1_234
10
6.9751627
20
15.5188736
40
0.2914296
50
181.818294
51
229.6455059
0
ARC
8
DEFAULT_255_1_234
10
7.0791583
20
15.5319496
40
0.3959084
50
179.9755256
51
183.2323064
0
ARC
8
DEFAULT_255_1_234
10
7.0619329
20
15.5299037
40
0.2293034
50
179.4465117
51
196.2869258
0
ARC
8
DEFAULT_255_1_234
10
7.0131737
20
15.5165651
40
0.1787621
50
196.5661473
51
227.705904
0
ARC
8
DEFAULT_255_1_234
10
7.0295832
20
15.5349155
40
0.2033784
50
227.7652068
51
257.8762805
0
ARC
8
DEFAULT_255_1_234
10
7.0520802
20
15.6292156
40
0.3003081
50
257.4584385
51
270.426602
0
ARC
8
DEFAULT_255_1_234
10
7.0566368
20
15.6581996
40
0.329292
50
269.5962073
51
280.8789248
0
ARC
8
DEFAULT_255_1_234
10
7.0795897
20
15.5435685
40
0.2123908
50
280.6346389
51
299.8595945
0
ARC
8
DEFAULT_255_1_234
10
7.0986804
20
15.5073212
40
0.171457
50
300.3576302
51
314.5517981
0
ARC
8
DEFAULT_255_1_234
10
7.0903864
20
15.5133919
40
0.1816095
50
315.0728369
51
345.0431014
0
ARC
8
DEFAULT_255_1_234
10
6.9980678
20
15.5402841
40
0.2777492
50
344.5986631
51
357.9269593
0
ARC
8
DEFAULT_255_1_234
10
6.9085005
20
15.5464276
40
0.3674917
50
357.4748886
51
0.0231117
0
ARC
8
DEFAULT_255_1_234
10
7.0108114
20
15.5488679
40
0.2651907
50
359.5047933
51
13.4239635
0
ARC
8
DEFAULT_255_1_234
10
7.0974758
20
15.5710478
40
0.1757509
50
12.9498199
51
48.7551375
0
ARC
8
DEFAULT_255_1_234
10
7.0792492
20
15.54614
40
0.2065134
50
49.5088623
51
72.1836453
0
ARC
8
DEFAULT_255_1_234
10
7.0434644
20
15.4399291
40
0.3185836
50
71.9010081
51
84.3554254
0
ARC
8
DEFAULT_255_1_234
10
7.0273276
20
15.3038326
40
0.4556151
50
84.0193428
51
89.333121
0
LINE
8
DEFAULT_255_1_234
10
4.3652902
20
21.6847211
11
4.3652902
21
20.5153
0
LINE
8
DEFAULT_255_1_234
10
4.3652902
20
20.5153
11
4.2110808
21
20.5153
0
LINE
8
DEFAULT_255_1_234
10
4.2110808
20
20.5153
11
4.2110808
21
21.6847211
0
LINE
8
DEFAULT_255_1_234
10
4.2110808
20
21.6847211
11
4.3652902
21
21.6847211
0
LINE
8
DEFAULT_255_1_234
10
5.5459557
20
21.6847211
11
5.5459557
21
20.5153
0
LINE
8
DEFAULT_255_1_234
10
5.5459557
20
20.5153
11
5.3909432
21
20.5153
0
LINE
8
DEFAULT_255_1_234
10
5.3909432
20
20.5153
11
4.8022167
21
21.416461
0
LINE
8
DEFAULT_255_1_234
10
4.8022167
20
21.416461
11
4.8022167
21
20.5153
0
LINE
8
DEFAULT_255_1_234
10
4.8022167
20
20.5153
11
4.6472042
21
20.5153
0
LINE
8
DEFAULT_255_1_234
10
4.6472042
20
20.5153
11
4.6472042
21
21.6847211
0
LINE
8
DEFAULT_255_1_234
10
4.6472042
20
21.6847211
11
4.8022167
21
21.6847211
0
LINE
8
DEFAULT_255_1_234
10
4.8022167
20
21.6847211
11
5.3925495
21
20.7795442
0
LINE
8
DEFAULT_255_1_234
10
5.3925495
20
20.7795442
11
5.3925495
21
21.6847211
0
LINE
8
DEFAULT_255_1_234
10
5.3925495
20
21.6847211
11
5.5459557
21
21.6847211
0
LINE
8
DEFAULT_255_1_234
10
6.2696153
20
21.6903433
11
6.2696153
21
20.5153
0
LINE
8
DEFAULT_255_1_234
10
6.2696153
20
20.5153
11
6.120225
21
20.5153
0
LINE
8
DEFAULT_255_1_234
10
6.120225
20
20.5153
11
6.120225
21
21.5056133
0
LINE
8
DEFAULT_255_1_234
10
6.120225
20
21.5056133
11
5.8206412
21
21.3955785
0
LINE
8
DEFAULT_255_1_234
10
5.8206412
20
21.3955785
11
5.8206412
21
21.5305117
0
LINE
8
DEFAULT_255_1_234
10
5.8206412
20
21.5305117
11
6.2463233
21
21.6903433
0
LINE
8
DEFAULT_255_1_234
10
6.2463233
20
21.6903433
11
6.2696153
21
21.6903433
0
LINE
8
DEFAULT_255_1_234
10
7.4711634
20
20.6365792
11
7.4711634
21
20.5153
0
LINE
8
DEFAULT_255_1_234
10
7.4711634
20
20.5153
11
6.7049355
21
20.5153
0
LINE
8
DEFAULT_255_1_234
10
6.7049355
20
20.5153
11
6.7049355
21
20.6221221
0
LINE
8
DEFAULT_255_1_234
10
6.7049355
20
20.6221221
11
7.1097352
21
21.0718995
0
LINE
8
DEFAULT_255_1_234
10
6.8310338
20
21.3401595
11
6.6824467
21
21.3401595
0
LINE
8
DEFAULT_255_1_234
10
7.1972811
20
20.9763218
11
6.8840433
21
20.6365792
0
LINE
8
DEFAULT_255_1_234
10
6.8840433
20
20.6365792
11
7.4711634
21
20.6365792
0
ARC
8
DEFAULT_255_1_234
10
5.7607185
20
22.2648527
40
1.8008286
50
318.5132453
51
320.7828378
0
ARC
8
DEFAULT_255_1_234
10
6.2894159
20
21.8345426
40
1.1191493
50
320.7372736
51
323.9737074
0
ARC
8
DEFAULT_255_1_234
10
6.6814016
20
21.5505361
40
0.6350923
50
323.8961724
51
328.6421089
0
ARC
8
DEFAULT_255_1_234
10
6.8860611
20
21.4243031
40
0.3946393
50
328.8299013
51
331.789948
0
ARC
8
DEFAULT_255_1_234
10
6.985779
20
21.3728509
40
0.2824501
50
331.4255242
51
352.9364833
0
ARC
8
DEFAULT_255_1_234
10
6.999429
20
21.3697976
40
0.2685315
50
353.2248685
51
0.0169286
0
ARC
8
DEFAULT_255_1_234
10
7.0204167
20
21.372095
40
0.2475536
50
359.4866256
51
15.9339782
0
ARC
8
DEFAULT_255_1_234
10
7.0711152
20
21.3857286
40
0.1950618
50
16.1714718
51
43.5284424
0
ARC
8
DEFAULT_255_1_234
10
7.0788461
20
21.3934573
40
0.184134
50
43.4415429
51
83.1661404
0
ARC
8
DEFAULT_255_1_234
10
7.0654379
20
21.3197771
40
0.258926
50
82.160215
51
90.1505798
0
ARC
8
DEFAULT_255_1_234
10
7.0622807
20
21.2660865
40
0.3126255
50
89.5460705
51
102.5418777
0
ARC
8
DEFAULT_255_1_234
10
7.0379893
20
21.3691665
40
0.2067346
50
102.1739365
51
129.2061916
0
ARC
8
DEFAULT_255_1_234
10
7.0300964
20
21.3816094
40
0.1921118
50
129.7279328
51
135.7542026
0
ARC
8
DEFAULT_255_1_234
10
7.0422492
20
21.3719045
40
0.2075944
50
136.175737
51
166.3674722
0
ARC
8
DEFAULT_255_1_234
10
7.1429411
20
21.3449182
40
0.3118201
50
165.9092917
51
178.8683903
0
ARC
8
DEFAULT_255_1_234
10
7.2294273
20
21.3402179
40
0.3983935
50
178.438168
51
180.0083905
0
ARC
8
DEFAULT_255_1_234
10
7.0892875
20
21.3441231
40
0.4068601
50
163.2878735
51
180.5581814
0
ARC
8
DEFAULT_255_1_234
10
7.0091136
20
21.366184
40
0.3237344
50
133.454115
51
162.9470031
0
ARC
8
DEFAULT_255_1_234
10
7.0269677
20
21.3472
40
0.349795
50
100.7869394
51
133.4384016
0
ARC
8
DEFAULT_255_1_234
10
7.0617449
20
21.1923319
40
0.5084616
50
89.6605301
51
101.3704185
0
ARC
8
DEFAULT_255_1_234
10
7.0683788
20
21.1984496
40
0.502348
50
78.2171172
51
90.4130393
0
ARC
8
DEFAULT_255_1_234
10
7.1038866
20
21.3608637
40
0.3361092
50
55.9268222
51
78.4888551
0
ARC
8
DEFAULT_255_1_234
10
7.1235306
20
21.3947324
40
0.2970617
50
47.9292255
51
55.4054003
0
ARC
8
DEFAULT_255_1_234
10
7.1336867
20
21.4050502
40
0.2825983
50
4.3347696
51
48.0560701
0
ARC
8
DEFAULT_255_1_234
10
7.024126
20
21.3880601
40
0.393225
50
359.925209
51
5.5967654
0
ARC
8
DEFAULT_255_1_234
10
7.0670152
20
21.3936816
40
0.3503892
50
337.8914096
51
358.9967724
0
ARC
8
DEFAULT_255_1_234
10
6.7956564
20
21.4983706
40
0.6412172
50
326.9135351
51
338.3505194
0
ARC
8
DEFAULT_255_1_234
10
6.3970868
20
21.7538284
40
1.1146189
50
319.6472867
51
327.095818
0
ARC
8
DEFAULT_255_1_234
10
6.0137871
20
22.07
40
1.6114559
50
317.2586784
51
319.9046139
0
LINE
8
DEFAULT_255_1_234
10
4.3570902
20
26.9764211
11
4.3570902
21
25.807
0
LINE
8
DEFAULT_255_1_234
10
4.3570902
20
25.807
11
4.2028808
21
25.807
0
LINE
8
DEFAULT_255_1_234
10
4.2028808
20
25.807
11
4.2028808
21
26.9764211
0
LINE
8
DEFAULT_255_1_234
10
4.2028808
20
26.9764211
11
4.3570902
21
26.9764211
0
LINE
8
DEFAULT_255_1_234
10
5.5377557
20
26.9764211
11
5.5377557
21
25.807
0
LINE
8
DEFAULT_255_1_234
10
5.5377557
20
25.807
11
5.3827432
21
25.807
0
LINE
8
DEFAULT_255_1_234
10
5.3827432
20
25.807
11
4.7940167
21
26.708161
0
LINE
8
DEFAULT_255_1_234
10
4.7940167
20
26.708161
11
4.7940167
21
25.807
0
LINE
8
DEFAULT_255_1_234
10
4.7940167
20
25.807
11
4.6390042
21
25.807
0
LINE
8
DEFAULT_255_1_234
10
4.6390042
20
25.807
11
4.6390042
21
26.9764211
0
LINE
8
DEFAULT_255_1_234
10
4.6390042
20
26.9764211
11
4.7940167
21
26.9764211
0
LINE
8
DEFAULT_255_1_234
10
4.7940167
20
26.9764211
11
5.3843495
21
26.0712442
0
LINE
8
DEFAULT_255_1_234
10
5.3843495
20
26.0712442
11
5.3843495
21
26.9764211
0
LINE
8
DEFAULT_255_1_234
10
5.3843495
20
26.9764211
11
5.5377557
21
26.9764211
0
LINE
8
DEFAULT_255_1_234
10
6.2614153
20
26.9820433
11
6.2614153
21
25.807
0
LINE
8
DEFAULT_255_1_234
10
6.2614153
20
25.807
11
6.112025
21
25.807
0
LINE
8
DEFAULT_255_1_234
10
6.112025
20
25.807
11
6.112025
21
26.7973133
0
LINE
8
DEFAULT_255_1_234
10
6.112025
20
26.7973133
11
5.8124412
21
26.6872785
0
LINE
8
DEFAULT_255_1_234
10
5.8124412
20
26.6872785
11
5.8124412
21
26.8222117
0
LINE
8
DEFAULT_255_1_234
10
5.8124412
20
26.8222117
11
6.2381233
21
26.9820433
0
LINE
8
DEFAULT_255_1_234
10
6.2381233
20
26.9820433
11
6.2614153
21
26.9820433
0
LINE
8
DEFAULT_255_1_234
10
7.1850652
20
26.9820433
11
7.1850652
21
25.807
0
LINE
8
DEFAULT_255_1_234
10
7.1850652
20
25.807
11
7.0356749
21
25.807
0
LINE
8
DEFAULT_255_1_234
10
7.0356749
20
25.807
11
7.0356749
21
26.7973133
0
LINE
8
DEFAULT_255_1_234
10
7.0356749
20
26.7973133
11
6.7360911
21
26.6872785
0
LINE
8
DEFAULT_255_1_234
10
6.7360911
20
26.6872785
11
6.7360911
21
26.8222117
0
LINE
8
DEFAULT_255_1_234
10
6.7360911
20
26.8222117
11
7.1617732
21
26.9820433
0
LINE
8
DEFAULT_255_1_234
10
7.1617732
20
26.9820433
11
7.1850652
21
26.9820433
0
LINE
8
DEFAULT_255_1_234
10
4.3652902
20
32.2681211
11
4.3652902
21
31.0987
0
LINE
8
DEFAULT_255_1_234
10
4.3652902
20
31.0987
11
4.2110808
21
31.0987
0
LINE
8
DEFAULT_255_1_234
10
4.2110808
20
31.0987
11
4.2110808
21
32.2681211
0
LINE
8
DEFAULT_255_1_234
10
4.2110808
20
32.2681211
11
4.3652902
21
32.2681211
0
LINE
8
DEFAULT_255_1_234
10
5.5459557
20
32.2681211
11
5.5459557
21
31.0987
0
LINE
8
DEFAULT_255_1_234
10
5.5459557
20
31.0987
11
5.3909432
21
31.0987
0
LINE
8
DEFAULT_255_1_234
10
5.3909432
20
31.0987
11
4.8022167
21
31.999861
0
LINE
8
DEFAULT_255_1_234
10
4.8022167
20
31.999861
11
4.8022167
21
31.0987
0
LINE
8
DEFAULT_255_1_234
10
4.8022167
20
31.0987
11
4.6472042
21
31.0987
0
LINE
8
DEFAULT_255_1_234
10
4.6472042
20
31.0987
11
4.6472042
21
32.2681211
0
LINE
8
DEFAULT_255_1_234
10
4.6472042
20
32.2681211
11
4.8022167
21
32.2681211
0
LINE
8
DEFAULT_255_1_234
10
4.8022167
20
32.2681211
11
5.3925495
21
31.3629442
0
LINE
8
DEFAULT_255_1_234
10
5.3925495
20
31.3629442
11
5.3925495
21
32.2681211
0
LINE
8
DEFAULT_255_1_234
10
5.3925495
20
32.2681211
11
5.5459557
21
32.2681211
0
LINE
8
DEFAULT_255_1_234
10
6.2696153
20
32.2737433
11
6.2696153
21
31.0987
0
LINE
8
DEFAULT_255_1_234
10
6.2696153
20
31.0987
11
6.120225
21
31.0987
0
LINE
8
DEFAULT_255_1_234
10
6.120225
20
31.0987
11
6.120225
21
32.0890133
0
LINE
8
DEFAULT_255_1_234
10
6.120225
20
32.0890133
11
5.8206412
21
31.9789785
0
LINE
8
DEFAULT_255_1_234
10
5.8206412
20
31.9789785
11
5.8206412
21
32.1139117
0
LINE
8
DEFAULT_255_1_234
10
5.8206412
20
32.1139117
11
6.2463233
21
32.2737433
0
LINE
8
DEFAULT_255_1_234
10
6.2463233
20
32.2737433
11
6.2696153
21
32.2737433
0
LINE
8
DEFAULT_255_1_234
10
7.4382333
20
31.7902327
11
7.4382333
21
31.5974709
0
LINE
8
DEFAULT_255_1_234
10
6.7001165
20
31.5773916
11
6.7001165
21
31.7757755
0
LINE
8
DEFAULT_255_1_234
10
7.2896461
20
31.5573123
11
7.2896461
21
31.8006739
0
LINE
8
DEFAULT_255_1_234
10
6.8487037
20
31.8119184
11
6.8487037
21
31.5741789
0
ARC
8
DEFAULT_255_1_234
10
6.2135222
20
31.5925805
40
1.2247208
50
353.8441951
51
0.2287902
0
ARC
8
DEFAULT_255_1_234
10
6.6774726
20
31.5407806
40
0.7578929
50
344.4934747
51
353.9765454
0
ARC
8
DEFAULT_255_1_234
10
6.9767316
20
31.4556981
40
0.4467846
50
329.2803592
51
344.7472793
0
ARC
8
DEFAULT_255_1_234
10
7.0760141
20
31.4012018
40
0.3336173
50
324.9352394
51
328.6160465
0
ARC
8
DEFAULT_255_1_234
10
7.113725
20
31.3748427
40
0.2876076
50
280.580143
51
324.9173126
0
ARC
8
DEFAULT_255_1_234
10
7.0736042
20
31.5419099
40
0.4592847
50
269.5977311
51
281.6734359
0
ARC
8
DEFAULT_255_1_234
10
7.0663948
20
31.5299173
40
0.4472986
50
256.6228859
51
270.51044
0
ARC
8
DEFAULT_255_1_234
10
7.0261926
20
31.3750877
40
0.2873874
50
215.8618325
51
257.2788573
0
ARC
8
DEFAULT_255_1_234
10
7.1282957
20
31.4435977
40
0.4102928
50
197.9693508
51
215.2623606
0
ARC
8
DEFAULT_255_1_234
10
7.3768073
20
31.5274709
40
0.6725652
50
187.8816417
51
198.2346507
0
ARC
8
DEFAULT_255_1_234
10
7.7726281
20
31.5846079
40
1.0724845
50
180.8976217
51
188.0055519
0
ARC
8
DEFAULT_255_1_234
10
8.0526469
20
31.5949777
40
1.3526448
50
180.7449369
51
181.1510016
0
ARC
8
DEFAULT_255_1_234
10
7.8949198
20
31.7806042
40
1.1948131
50
173.7675579
51
180.231553
0
ARC
8
DEFAULT_255_1_234
10
7.4431345
20
31.8316666
40
0.7401564
50
164.3058563
51
173.9002247
0
ARC
8
DEFAULT_255_1_234
10
7.1519414
20
31.9155656
40
0.4371288
50
148.7922025
51
164.568378
0
ARC
8
DEFAULT_255_1_234
10
7.0567866
20
31.9686929
40
0.3282386
50
144.5883898
51
148.1176286
0
ARC
8
DEFAULT_255_1_234
10
7.0224764
20
31.9926315
40
0.2864044
50
101.6440918
51
144.514236
0
ARC
8
DEFAULT_255_1_234
10
7.0649831
20
31.8237069
40
0.4604934
50
89.5284041
51
102.5819763
0
ARC
8
DEFAULT_255_1_234
10
7.0728918
20
31.8198018
40
0.464401
50
77.0437873
51
90.5081339
0
ARC
8
DEFAULT_255_1_234
10
7.113092
20
31.9840615
40
0.2953195
50
48.2778575
51
77.4994676
0
ARC
8
DEFAULT_255_1_234
10
7.1203551
20
31.9969746
40
0.2808655
50
36.3142134
51
47.6305865
0
ARC
8
DEFAULT_255_1_234
10
7.0334858
20
31.9384515
40
0.3855453
50
18.2931786
51
35.6769206
0
ARC
8
DEFAULT_255_1_234
10
6.7791617
20
31.8511593
40
0.654423
50
8.024666
51
18.5605216
0
ARC
8
DEFAULT_255_1_234
10
6.3628537
20
31.7896792
40
1.0752407
50
1.1274072
51
8.1718305
0
ARC
8
DEFAULT_255_1_234
10
6.0392728
20
31.7769885
40
1.3990231
50
0.5424119
51
1.3863029
0
ARC
8
DEFAULT_255_1_234
10
6.2214106
20
31.8042342
40
1.0682415
50
359.8090433
51
4.9407866
0
ARC
8
DEFAULT_255_1_234
10
6.642412
20
31.8418113
40
0.6455691
50
4.8362157
51
12.2904523
0
ARC
8
DEFAULT_255_1_234
10
6.9179234
20
31.9031965
40
0.3633074
50
12.0805627
51
23.8173984
0
ARC
8
DEFAULT_255_1_234
10
7.035294
20
31.9528919
40
0.2358723
50
24.2871213
51
31.3935614
0
ARC
8
DEFAULT_255_1_234
10
7.0877637
20
31.9872233
40
0.1732111
50
30.7407893
51
82.4657128
0
ARC
8
DEFAULT_255_1_234
10
7.0697771
20
31.8988691
40
0.263235
50
81.1060089
51
90.2184952
0
ARC
8
DEFAULT_255_1_234
10
7.066207
20
31.9246924
40
0.2374236
50
89.3806855
51
105.6762551
0
ARC
8
DEFAULT_255_1_234
10
7.0478701
20
31.9913567
40
0.1682847
50
105.7981136
51
149.7388061
0
ARC
8
DEFAULT_255_1_234
10
7.1542779
20
31.927395
40
0.2924306
50
149.4208916
51
163.6286378
0
ARC
8
DEFAULT_255_1_234
10
7.3633667
20
31.863625
40
0.5110213
50
163.3763315
51
172.1410975
0
ARC
8
DEFAULT_255_1_234
10
7.6934386
20
31.8163518
40
0.8444586
50
172.0259487
51
178.0703232
0
ARC
8
DEFAULT_255_1_234
10
7.9964476
20
31.8019906
40
1.1477868
50
177.8631668
51
179.5044149
0
ARC
8
DEFAULT_255_1_234
10
7.889188
20
31.5705389
40
1.0404907
50
179.7995573
51
185.2460446
0
ARC
8
DEFAULT_255_1_234
10
7.4848919
20
31.5322513
40
0.6343885
50
185.1411642
51
193.0079639
0
ARC
8
DEFAULT_255_1_234
10
7.2205392
20
31.4697641
40
0.3627568
50
192.7897626
51
205.2507664
0
ARC
8
DEFAULT_255_1_234
10
7.1158939
20
31.4230415
40
0.2481908
50
205.8005384
51
211.2537509
0
ARC
8
DEFAULT_255_1_234
10
7.0635379
20
31.387958
40
0.1852521
50
210.3789793
51
238.4008143
0
ARC
8
DEFAULT_255_1_234
10
7.0615901
20
31.3926376
40
0.1882621
50
239.6520629
51
265.9793761
0
ARC
8
DEFAULT_255_1_234
10
7.0701101
20
31.4598427
40
0.2559272
50
265.1315437
51
270.060332
0
ARC
8
DEFAULT_255_1_234
10
7.072988
20
31.4274534
40
0.2235528
50
269.3314664
51
287.2178029
0
ARC
8
DEFAULT_255_1_234
10
7.0867732
20
31.3771279
40
0.1714108
50
287.7958004
51
329.080874
0
ARC
8
DEFAULT_255_1_234
10
6.9910189
20
31.436893
40
0.2842745
50
328.6634704
51
343.3325132
0
ARC
8
DEFAULT_255_1_234
10
6.7737209
20
31.5045863
40
0.5118644
50
343.0499468
51
351.9393422
0
ARC
8
DEFAULT_255_1_234
10
6.4270509
20
31.5556949
40
0.8622784
50
351.8069023
51
357.7959224
0
ARC
8
DEFAULT_255_1_234
10
6.1035065
20
31.5724721
40
1.1862365
50
357.5871873
51
359.2677531
0
LINE
8
DEFAULT_255_1_234
10
4.3082902
20
37.5597211
11
4.3082902
21
36.3903
0
LINE
8
DEFAULT_255_1_234
10
4.3082902
20
36.3903
11
4.1540808
21
36.3903
0
LINE
8
DEFAULT_255_1_234
10
4.1540808
20
36.3903
11
4.1540808
21
37.5597211
0
LINE
8
DEFAULT_255_1_234
10
4.1540808
20
37.5597211
11
4.3082902
21
37.5597211
0
LINE
8
DEFAULT_255_1_234
10
5.4889557
20
37.5597211
11
5.4889557
21
36.3903
0
LINE
8
DEFAULT_255_1_234
10
5.4889557
20
36.3903
11
5.3339432
21
36.3903
0
LINE
8
DEFAULT_255_1_234
10
5.3339432
20
36.3903
11
4.7452167
21
37.291461
0
LINE
8
DEFAULT_255_1_234
10
4.7452167
20
37.291461
11
4.7452167
21
36.3903
0
LINE
8
DEFAULT_255_1_234
10
4.7452167
20
36.3903
11
4.5902042
21
36.3903
0
LINE
8
DEFAULT_255_1_234
10
4.5902042
20
36.3903
11
4.5902042
21
37.5597211
0
LINE
8
DEFAULT_255_1_234
10
4.5902042
20
37.5597211
11
4.7452167
21
37.5597211
0
LINE
8
DEFAULT_255_1_234
10
4.7452167
20
37.5597211
11
5.3355495
21
36.6545442
0
LINE
8
DEFAULT_255_1_234
10
5.3355495
20
36.6545442
11
5.3355495
21
37.5597211
0
LINE
8
DEFAULT_255_1_234
10
5.3355495
20
37.5597211
11
5.4889557
21
37.5597211
0
LINE
8
DEFAULT_255_1_234
10
6.4431262
20
37.0922739
11
6.4431262
21
37.0489025
0
LINE
8
DEFAULT_255_1_234
10
5.9009839
20
36.3894968
11
5.8720696
21
36.3894968
0
LINE
8
DEFAULT_255_1_234
10
5.8720696
20
36.3894968
11
5.8720696
21
36.5147919
0
LINE
8
DEFAULT_255_1_234
10
5.8720696
20
36.5147919
11
5.9033934
21
36.5147919
0
LINE
8
DEFAULT_255_1_234
10
6.2945391
20
37.0633597
11
6.2945391
21
37.1227945
0
ARC
8
DEFAULT_255_1_234
10
6.015166
20
37.1379403
40
0.3635579
50
297.4037347
51
320.016758
0
ARC
8
DEFAULT_255_1_234
10
6.0441609
20
37.082224
40
0.3007486
50
270.2633101
51
297.3851877
0
ARC
8
DEFAULT_255_1_234
10
6.0407565
20
37.1285904
40
0.3471448
50
269.9966443
51
270.7900392
0
ARC
8
DEFAULT_255_1_234
10
6.0382046
20
37.1284143
40
0.3469779
50
254.5999133
51
270.4180344
0
ARC
8
DEFAULT_255_1_234
10
6.0239406
20
37.0719647
40
0.2887697
50
236.4717942
51
254.3541279
0
ARC
8
DEFAULT_255_1_234
10
6.0395623
20
37.0929711
40
0.3149125
50
208.4727207
51
236.2134933
0
ARC
8
DEFAULT_255_1_234
10
6.1034398
20
37.1320455
40
0.3897115
50
204.3447514
51
209.0453999
0
ARC
8
DEFAULT_255_1_234
10
6.1713974
20
37.1608656
40
0.4635101
50
183.9375985
51
204.1276318
0
ARC
8
DEFAULT_255_1_234
10
6.2622225
20
37.1706482
40
0.5548037
50
179.9652252
51
184.3013875
0
ARC
8
DEFAULT_255_1_234
10
6.2382272
20
37.1739507
40
0.5308164
50
166.7585989
51
180.3201225
0
ARC
8
DEFAULT_255_1_234
10
6.1535885
20
37.1923488
40
0.4442163
50
154.6955053
51
166.5679793
0
ARC
8
DEFAULT_255_1_234
10
6.0682755
20
37.235321
40
0.3487299
50
136.3324195
51
155.0871442
0
ARC
8
DEFAULT_255_1_234
10
6.0401828
20
37.2593954
40
0.3117924
50
121.236733
51
135.9680508
0
ARC
8
DEFAULT_255_1_234
10
6.0542326
20
37.2333743
40
0.3413302
50
96.845628
51
120.9881519
0
ARC
8
DEFAULT_255_1_234
10
6.0687908
20
37.1398515
40
0.4359341
50
89.8870174
51
97.2802754
0
ARC
8
DEFAULT_255_1_234
10
6.0740346
20
37.2036095
40
0.3722009
50
70.6505584
51
90.6749113
0
ARC
8
DEFAULT_255_1_234
10
6.0871625
20
37.2549361
40
0.3194571
50
36.7492984
51
69.8219918
0
ARC
8
DEFAULT_255_1_234
10
5.987279
20
37.1770993
40
0.4460685
50
15.39587
51
37.0840084
0
ARC
8
DEFAULT_255_1_234
10
5.7743223
20
37.1150242
40
0.6678714
50
3.9488873
51
15.6798563
0
ARC
8
DEFAULT_255_1_234
10
5.5341851
20
37.0933964
40
0.9089418
50
359.929245
51
4.2665314
0
ARC
8
DEFAULT_255_1_234
10
5.0736288
20
37.0422513
40
1.3695135
50
352.8366322
51
0.2782669
0
ARC
8
DEFAULT_255_1_234
10
5.6023967
20
36.9735629
40
0.8363105
50
341.8359505
51
352.9884176
0
ARC
8
DEFAULT_255_1_234
10
5.9242686
20
36.86507
40
0.4966642
50
322.8578092
51
342.1527901
0
ARC
8
DEFAULT_255_1_234
10
6.0106642
20
36.8061384
40
0.3922466
50
319.334325
51
322.0998941
0
ARC
8
DEFAULT_255_1_234
10
5.9796979
20
36.8372209
40
0.4360033
50
285.9541367
51
318.8878087
0
ARC
8
DEFAULT_255_1_234
10
5.907024
20
37.06826
40
0.678149
50
272.9281676
51
286.4922826
0
ARC
8
DEFAULT_255_1_234
10
5.8880358
20
37.2933587
40
0.9039547
50
270.8207226
51
273.4012994
0
ARC
8
DEFAULT_255_1_234
10
5.8969209
20
37.1114666
40
0.5967098
50
270.6214993
51
281.4062806
0
ARC
8
DEFAULT_255_1_234
10
5.939919
20
36.9058833
40
0.3866861
50
281.1852553
51
299.0621114
0
ARC
8
DEFAULT_255_1_234
10
5.9772761
20
36.8337798
40
0.3055236
50
299.5067782
51
313.1200873
0
ARC
8
DEFAULT_255_1_234
10
5.9794728
20
36.8258554
40
0.2982623
50
313.8526205
51
338.5989322
0
ARC
8
DEFAULT_255_1_234
10
5.8170802
20
36.8925781
40
0.4738131
50
338.2523585
51
351.2430902
0
ARC
8
DEFAULT_255_1_234
10
5.5760098
20
36.9335447
40
0.7183203
50
350.9409515
51
357.6691871
0
ARC
8
DEFAULT_255_1_234
10
6.0650528
20
37.1337764
40
0.2294452
50
269.9447023
51
306.8248917
0
ARC
8
DEFAULT_255_1_234
10
6.0413443
20
37.1760898
40
0.2775994
50
305.5072438
51
327.0773448
0
ARC
8
DEFAULT_255_1_234
10
6.0531884
20
37.1666025
40
0.2625056
50
327.4104943
51
336.840169
0
ARC
8
DEFAULT_255_1_234
10
5.7437949
20
37.1260302
40
0.5507537
50
359.6633817
51
10.117533
0
ARC
8
DEFAULT_255_1_234
10
5.9191747
20
37.1584777
40
0.372403
50
9.9430141
51
26.7700076
0
ARC
8
DEFAULT_255_1_234
10
5.9788959
20
37.1860187
40
0.3066865
50
27.2015464
51
34.6829435
0
ARC
8
DEFAULT_255_1_234
10
6.027844
20
37.2227977
40
0.245519
50
34.1250343
51
50.3070065
0
ARC
8
DEFAULT_255_1_234
10
6.0725119
20
37.2762385
40
0.1758693
50
50.3851167
51
90.6705993
0
ARC
8
DEFAULT_255_1_234
10
6.0678352
20
37.2457799
40
0.2063326
50
89.272901
51
111.9140407
0
ARC
8
DEFAULT_255_1_234
10
6.065888
20
37.259844
40
0.1925887
50
112.9382311
51
142.5320782
0
ARC
8
DEFAULT_255_1_234
10
6.120506
20
37.2154969
40
0.2629232
50
142.1021256
51
166.3835592
0
ARC
8
DEFAULT_255_1_234
10
6.2386365
20
37.1849915
40
0.3849193
50
166.1100289
51
178.665427
0
ARC
8
DEFAULT_255_1_234
10
6.3433955
20
37.1791117
40
0.4897989
50
178.2632126
51
180.0111093
0
ARC
8
DEFAULT_255_1_234
10
6.2632075
20
37.1762728
40
0.40962
50
179.6161962
51
191.8787166
0
ARC
8
DEFAULT_255_1_234
10
6.1411914
20
37.1492896
40
0.2846655
50
191.6191692
51
215.2972286
0
ARC
8
DEFAULT_255_1_234
10
6.1215105
20
37.1377918
40
0.2619665
50
215.7320102
51
216.5355409
0
ARC
8
DEFAULT_255_1_234
10
6.0676191
20
37.0945647
40
0.1929497
50
215.7486685
51
239.9727502
0
ARC
8
DEFAULT_255_1_234
10
6.0606107
20
37.0894894
40
0.1850822
50
241.0650169
51
269.2810483
0
ARC
8
DEFAULT_255_1_234
10
6.0648022
20
37.1385371
40
0.2342059
50
268.4062526
51
270.0071348
0
LINE
8
DEFAULT_255_1_234
10
4.3082902
20
42.8514211
11
4.3082902
21
41.682
0
LINE
8
DEFAULT_255_1_234
10
4.3082902
20
41.682
11
4.1540808
21
41.682
0
LINE
8
DEFAULT_255_1_234
10
4.1540808
20
41.682
11
4.1540808
21
42.8514211
0
LINE
8
DEFAULT_255_1_234
10
4.1540808
20
42.8514211
11
4.3082902
21
42.8514211
0
LINE
8
DEFAULT_255_1_234
10
5.4889557
20
42.8514211
11
5.4889557
21
41.682
0
LINE
8
DEFAULT_255_1_234
10
5.4889557
20
41.682
11
5.3339432
21
41.682
0
LINE
8
DEFAULT_255_1_234
10
5.3339432
20
41.682
11
4.7452167
21
42.583161
0
LINE
8
DEFAULT_255_1_234
10
4.7452167
20
42.583161
11
4.7452167
21
41.682
0
LINE
8
DEFAULT_255_1_234
10
4.7452167
20
41.682
11
4.5902042
21
41.682
0
LINE
8
DEFAULT_255_1_234
10
4.5902042
20
41.682
11
4.5902042
21
42.8514211
0
LINE
8
DEFAULT_255_1_234
10
4.5902042
20
42.8514211
11
4.7452167
21
42.8514211
0
LINE
8
DEFAULT_255_1_234
10
4.7452167
20
42.8514211
11
5.3355495
21
41.9462442
0
LINE
8
DEFAULT_255_1_234
10
5.3355495
20
41.9462442
11
5.3355495
21
42.8514211
0
LINE
8
DEFAULT_255_1_234
10
5.3355495
20
42.8514211
11
5.4889557
21
42.8514211
0
ARC
8
DEFAULT_255_1_234
10
6.151264
20
42.5436703
40
0.2822356
50
338.8763615
51
0.5166041
0
ARC
8
DEFAULT_255_1_234
10
6.1681294
20
42.5391208
40
0.2648703
50
325.8412414
51
338.4795939
0
ARC
8
DEFAULT_255_1_234
10
6.1290662
20
42.5662042
40
0.3124019
50
296.7586019
51
325.753654
0
ARC
8
DEFAULT_255_1_234
10
6.100277
20
42.6146789
40
0.368668
50
296.0902311
51
297.3618122
0
ARC
8
DEFAULT_255_1_234
10
6.1260228
20
41.9592041
40
0.3518806
50
47.9009248
51
67.1946869
0
ARC
8
DEFAULT_255_1_234
10
6.145647
20
41.9838395
40
0.320451
50
35.236241
51
47.551371
0
ARC
8
DEFAULT_255_1_234
10
6.1718088
20
42.0012993
40
0.2890103
50
359.2759738
51
35.4014081
0
ARC
8
DEFAULT_255_1_234
10
6.0973119
20
41.9939826
40
0.3635026
50
343.1294516
51
0.5776525
0
ARC
8
DEFAULT_255_1_234
10
6.1697664
20
41.974033
40
0.2883832
50
310.8497458
51
342.744803
0
ARC
8
DEFAULT_255_1_234
10
6.1279777
20
42.0217294
40
0.3517954
50
281.5473923
51
310.9169905
0
ARC
8
DEFAULT_255_1_234
10
6.0923227
20
42.1770084
40
0.5110832
50
269.6192722
51
281.9789957
0
ARC
8
DEFAULT_255_1_234
10
6.0851016
20
42.1770828
40
0.5111606
50
257.4584469
51
270.4287458
0
ARC
8
DEFAULT_255_1_234
10
6.0470159
20
42.0167344
40
0.3463762
50
228.7553743
51
257.8484423
0
ARC
8
DEFAULT_255_1_234
10
6.0160357
20
41.9794442
40
0.297916
50
184.0104442
51
228.5071787
0
ARC
8
DEFAULT_255_1_234
10
6.1323301
20
41.9971512
40
0.4152734
50
179.9315461
51
185.3254504
0
ARC
8
DEFAULT_255_1_234
10
6.0146947
20
42.0008992
40
0.2976554
50
145.6795913
51
180.6259649
0
ARC
8
DEFAULT_255_1_234
10
6.0310296
20
41.9894929
40
0.3175776
50
115.5537925
51
145.6416199
0
ARC
8
DEFAULT_255_1_234
10
6.0651227
20
41.9284028
40
0.3874232
50
113.2437915
51
116.2054627
0
ARC
8
DEFAULT_255_1_234
10
6.0498439
20
42.568258
40
0.3154751
50
222.9548379
51
244.1372485
0
ARC
8
DEFAULT_255_1_234
10
6.0376514
20
42.5545834
40
0.2972382
50
213.3439227
51
222.6271327
0
ARC
8
DEFAULT_255_1_234
10
6.0184449
20
42.5415308
40
0.274019
50
180.4316517
51
213.2713999
0
ARC
8
DEFAULT_255_1_234
10
6.075945
20
42.546211
40
0.33158
50
179.9992944
51
181.1655061
0
ARC
8
DEFAULT_255_1_234
10
6.1168867
20
42.5496561
40
0.3725376
50
164.6186108
51
180.5292368
0
ARC
8
DEFAULT_255_1_234
10
6.027073
20
42.5738101
40
0.2795349
50
132.2454369
51
164.5092287
0
ARC
8
DEFAULT_255_1_234
10
6.0557834
20
42.5413028
40
0.3229019
50
100.7052766
51
132.1387266
0
ARC
8
DEFAULT_255_1_234
10
6.0862806
20
42.4035086
40
0.4639835
50
89.6732617
51
101.2449487
0
ARC
8
DEFAULT_255_1_234
10
6.0925004
20
42.420999
40
0.4464999
50
76.2876631
51
90.4586123
0
ARC
8
DEFAULT_255_1_234
10
6.1231236
20
42.543222
40
0.3205023
50
47.8240157
51
76.4266918
0
ARC
8
DEFAULT_255_1_234
10
6.1453786
20
42.569259
40
0.2862661
50
6.9168658
51
47.6261438
0
ARC
8
DEFAULT_255_1_234
10
6.0267189
20
42.547337
40
0.4067708
50
359.8419705
51
7.9694496
0
ARC
8
DEFAULT_255_1_234
10
6.0609086
20
42.0032925
40
0.2513121
50
359.4454068
51
16.9256425
0
ARC
8
DEFAULT_255_1_234
10
6.1077897
20
42.0162033
40
0.2027071
50
17.292259
51
45.462717
0
ARC
8
DEFAULT_255_1_234
10
6.1023833
20
42.0115434
40
0.2098212
50
45.3028762
51
83.1921472
0
ARC
8
DEFAULT_255_1_234
10
6.0880517
20
41.9313895
40
0.2911472
50
82.2614531
51
90.143954
0
ARC
8
DEFAULT_255_1_234
10
6.0849637
20
41.954695
40
0.2678513
50
89.4959189
51
104.8579811
0
ARC
8
DEFAULT_255_1_234
10
6.0672896
20
42.021689
40
0.1985654
50
104.8855873
51
135.2448349
0
ARC
8
DEFAULT_255_1_234
10
6.0722669
20
42.0172336
40
0.2052373
50
135.3398955
51
172.104394
0
ARC
8
DEFAULT_255_1_234
10
6.1529727
20
42.0017925
40
0.2873299
50
171.2651929
51
180.1859362
0
ARC
8
DEFAULT_255_1_234
10
6.1360428
20
41.9985733
40
0.2704083
50
179.515471
51
193.6466734
0
ARC
8
DEFAULT_255_1_234
10
6.0544197
20
41.9777777
40
0.1861855
50
193.3540587
51
225.8256931
0
ARC
8
DEFAULT_255_1_234
10
6.0584955
20
41.9848524
40
0.1941102
50
226.418029
51
255.8553723
0
ARC
8
DEFAULT_255_1_234
10
6.0841387
20
42.0784998
40
0.2911917
50
255.4655572
51
268.7985967
0
ARC
8
DEFAULT_255_1_234
10
6.0888579
20
42.1623491
40
0.3751331
50
268.3464808
51
270.0104874
0
ARC
8
DEFAULT_255_1_234
10
6.0911967
20
42.0939138
40
0.3067064
50
269.575914
51
282.0823146
0
ARC
8
DEFAULT_255_1_234
10
6.1136876
20
41.9944803
40
0.2047712
50
281.7522535
51
306.6056425
0
ARC
8
DEFAULT_255_1_234
10
6.1235302
20
41.9783487
40
0.1859604
50
307.1350025
51
314.0277951
0
ARC
8
DEFAULT_255_1_234
10
6.1199386
20
41.9809766
40
0.1903475
50
314.2553419
51
350.169324
0
ARC
8
DEFAULT_255_1_234
10
6.0347855
20
41.9994409
40
0.2774269
50
349.4145679
51
0.2930737
0
ARC
8
DEFAULT_255_1_234
10
6.0868288
20
42.5153353
40
0.2300764
50
89.477591
51
105.729794
0
ARC
8
DEFAULT_255_1_234
10
6.0732202
20
42.5658637
40
0.1777519
50
105.922966
51
135.1662921
0
ARC
8
DEFAULT_255_1_234
10
6.0752704
20
42.5644419
40
0.1802087
50
135.3053131
51
168.9882338
0
ARC
8
DEFAULT_255_1_234
10
6.1580277
20
42.5454721
40
0.2650806
50
168.3802067
51
180.3602358
0
ARC
8
DEFAULT_255_1_234
10
6.1351856
20
42.5417041
40
0.2422425
50
179.5029707
51
194.9126783
0
ARC
8
DEFAULT_255_1_234
10
6.0766517
20
42.526311
40
0.1817188
50
194.9722181
51
224.1943972
0
ARC
8
DEFAULT_255_1_234
10
6.0738384
20
42.5240169
40
0.1781027
50
224.2961434
51
262.0157375
0
ARC
8
DEFAULT_255_1_234
10
6.0880627
20
42.5971661
40
0.2525492
50
261.1250369
51
270.1959853
0
ARC
8
DEFAULT_255_1_234
10
6.0910382
20
42.5784339
40
0.233825
50
269.4825617
51
285.0988277
0
ARC
8
DEFAULT_255_1_234
10
6.1064541
20
42.520599
40
0.1739712
50
285.1585659
51
315.9484648
0
ARC
8
DEFAULT_255_1_234
10
6.0975553
20
42.5287886
40
0.1860616
50
316.0412958
51
351.9162715
0
ARC
8
DEFAULT_255_1_234
10
6.0242508
20
42.5429245
40
0.2606517
50
351.1056823
51
0.1936567
0
ARC
8
DEFAULT_255_1_234
10
6.0505337
20
42.5459369
40
0.234377
50
359.4789506
51
16.0679113
0
ARC
8
DEFAULT_255_1_234
10
6.0981296
20
42.558781
40
0.1850875
50
16.3251951
51
44.791304
0
ARC
8
DEFAULT_255_1_234
10
6.0963577
20
42.5588339
40
0.186312
50
44.3958661
51
88.2498933
0
ARC
8
DEFAULT_255_1_234
10
6.0890131
20
42.4977154
40
0.2476868
50
86.9833827
51
90.0200148
0
LINE
8
DEFAULT_255_1_234
10
4.3082902
20
48.1431211
11
4.3082902
21
46.9737
0
LINE
8
DEFAULT_255_1_234
10
4.3082902
20
46.9737
11
4.1540808
21
46.9737
0
LINE
8
DEFAULT_255_1_234
10
4.1540808
20
46.9737
11
4.1540808
21
48.1431211
0
LINE
8
DEFAULT_255_1_234
10
4.1540808
20
48.1431211
11
4.3082902
21
48.1431211
0
LINE
8
DEFAULT_255_1_234
10
5.4889557
20
48.1431211
11
5.4889557
21
46.9737
0
LINE
8
DEFAULT_255_1_234
10
5.4889557
20
46.9737
11
5.3339432
21
46.9737
0
LINE
8
DEFAULT_255_1_234
10
5.3339432
20
46.9737
11
4.7452167
21
47.874861
0
LINE
8
DEFAULT_255_1_234
10
4.7452167
20
47.874861
11
4.7452167
21
46.9737
0
LINE
8
DEFAULT_255_1_234
10
4.7452167
20
46.9737
11
4.5902042
21
46.9737
0
LINE
8
DEFAULT_255_1_234
10
4.5902042
20
46.9737
11
4.5902042
21
48.1431211
0
LINE
8
DEFAULT_255_1_234
10
4.5902042
20
48.1431211
11
4.7452167
21
48.1431211
0
LINE
8
DEFAULT_255_1_234
10
4.7452167
20
48.1431211
11
5.3355495
21
47.2379442
0
LINE
8
DEFAULT_255_1_234
10
5.3355495
20
47.2379442
11
5.3355495
21
48.1431211
0
LINE
8
DEFAULT_255_1_234
10
5.3355495
20
48.1431211
11
5.4889557
21
48.1431211
0
LINE
8
DEFAULT_255_1_234
10
6.479269
20
48.1431211
11
6.479269
21
48.059591
0
LINE
8
DEFAULT_255_1_234
10
6.479269
20
48.059591
11
5.9949552
21
46.9737
0
LINE
8
DEFAULT_255_1_234
10
5.9949552
20
46.9737
11
5.8391395
21
46.9737
0
LINE
8
DEFAULT_255_1_234
10
5.8391395
20
46.9737
11
6.321847
21
48.0210387
0
LINE
8
DEFAULT_255_1_234
10
6.321847
20
48.0210387
11
5.688946
21
48.0210387
0
LINE
8
DEFAULT_255_1_234
10
5.688946
20
48.0210387
11
5.688946
21
48.1431211
0
LINE
8
DEFAULT_255_1_234
10
5.688946
20
48.1431211
11
6.479269
21
48.1431211
0
LINE
8
DEFAULT_255_1_234
10
4.3082902
20
53.4347211
11
4.3082902
21
52.2653
0
LINE
8
DEFAULT_255_1_234
10
4.3082902
20
52.2653
11
4.1540808
21
52.2653
0
LINE
8
DEFAULT_255_1_234
10
4.1540808
20
52.2653
11
4.1540808
21
53.4347211
0
LINE
8
DEFAULT_255_1_234
10
4.1540808
20
53.4347211
11
4.3082902
21
53.4347211
0
LINE
8
DEFAULT_255_1_234
10
5.4889557
20
53.4347211
11
5.4889557
21
52.2653
0
LINE
8
DEFAULT_255_1_234
10
5.4889557
20
52.2653
11
5.3339432
21
52.2653
0
LINE
8
DEFAULT_255_1_234
10
5.3339432
20
52.2653
11
4.7452167
21
53.166461
0
LINE
8
DEFAULT_255_1_234
10
4.7452167
20
53.166461
11
4.7452167
21
52.2653
0
LINE
8
DEFAULT_255_1_234
10
4.7452167
20
52.2653
11
4.5902042
21
52.2653
0
LINE
8
DEFAULT_255_1_234
10
4.5902042
20
52.2653
11
4.5902042
21
53.4347211
0
LINE
8
DEFAULT_255_1_234
10
4.5902042
20
53.4347211
11
4.7452167
21
53.4347211
0
LINE
8
DEFAULT_255_1_234
10
4.7452167
20
53.4347211
11
5.3355495
21
52.5295442
0
LINE
8
DEFAULT_255_1_234
10
5.3355495
20
52.5295442
11
5.3355495
21
53.4347211
0
LINE
8
DEFAULT_255_1_234
10
5.3355495
20
53.4347211
11
5.4889557
21
53.4347211
0
LINE
8
DEFAULT_255_1_234
10
6.2808851
20
53.4355243
11
6.3073898
21
53.4355243
0
LINE
8
DEFAULT_255_1_234
10
6.3073898
20
53.4355243
11
6.3073898
21
53.309426
0
LINE
8
DEFAULT_255_1_234
10
6.3073898
20
53.309426
11
6.2800819
21
53.309426
0
LINE
8
DEFAULT_255_1_234
10
5.7331206
20
52.7102583
11
5.7331206
21
52.7672836
0
LINE
8
DEFAULT_255_1_234
10
5.8825109
20
52.7480075
11
5.8825109
21
52.6933917
0
ARC
8
DEFAULT_255_1_234
10
6.2853167
20
52.8096455
40
0.4998079
50
90.6001036
51
104.514704
0
ARC
8
DEFAULT_255_1_234
10
6.2464683
20
52.9541131
40
0.3502176
50
104.2855254
51
133.862935
0
ARC
8
DEFAULT_255_1_234
10
6.262844
20
52.943283
40
0.3693984
50
134.5302688
51
161.6210873
0
ARC
8
DEFAULT_255_1_234
10
6.4281629
20
52.8849895
40
0.5446739
50
161.2849839
51
174.2076652
0
ARC
8
DEFAULT_255_1_234
10
6.5688566
20
52.8655787
40
0.6866274
50
173.7810589
51
174.9254635
0
ARC
8
DEFAULT_255_1_234
10
6.1138398
20
52.7272839
40
0.3033419
50
95.8330959
51
138.9954921
0
ARC
8
DEFAULT_255_1_234
10
6.1361754
20
52.5994375
40
0.4328947
50
89.8753725
51
97.0544009
0
ARC
8
DEFAULT_255_1_234
10
6.140922
20
52.6829748
40
0.3493769
50
71.6407809
51
90.6240094
0
ARC
8
DEFAULT_255_1_234
10
6.1559793
20
52.7384082
40
0.2920396
50
39.6367836
51
71.019018
0
ARC
8
DEFAULT_255_1_234
10
6.0923266
20
52.6833998
40
0.3761538
50
10.658731
51
39.9043955
0
ARC
8
DEFAULT_255_1_234
10
5.9375349
20
52.6497686
40
0.5345136
50
359.682601
51
11.132623
0
ARC
8
DEFAULT_255_1_234
10
5.933548
20
52.642701
40
0.5385081
50
347.2486944
51
0.4369317
0
ARC
8
DEFAULT_255_1_234
10
6.1002957
20
52.6025807
40
0.3670249
50
318.1409698
51
347.6118597
0
ARC
8
DEFAULT_255_1_234
10
6.132795
20
52.5758702
40
0.3250007
50
275.6342139
51
317.8248465
0
ARC
8
DEFAULT_255_1_234
10
6.1107062
20
52.7058219
40
0.4565864
50
269.8874292
51
276.7917694
0
ARC
8
DEFAULT_255_1_234
10
6.1052132
20
52.6032743
40
0.3540676
50
246.9140195
51
270.7437342
0
ARC
8
DEFAULT_255_1_234
10
6.1058522
20
52.5890384
40
0.3412781
50
218.1665114
51
245.878116
0
ARC
8
DEFAULT_255_1_234
10
6.1937983
20
52.6626279
40
0.455911
50
191.4115814
51
218.6077802
0
ARC
8
DEFAULT_255_1_234
10
6.3876072
20
52.7060833
40
0.6545001
50
179.6345085
51
191.7836486
0
ARC
8
DEFAULT_255_1_234
10
6.9458409
20
52.7739697
40
1.2127388
50
171.4525249
51
180.3158839
0
ARC
8
DEFAULT_255_1_234
10
6.5063285
20
52.8423608
40
0.7679464
50
157.9802646
51
171.6246686
0
ARC
8
DEFAULT_255_1_234
10
6.2849306
20
52.9306421
40
0.5296008
50
141.4298019
51
157.854097
0
ARC
8
DEFAULT_255_1_234
10
6.2207627
20
52.9760381
40
0.4511509
50
102.8715806
51
140.8564722
0
ARC
8
DEFAULT_255_1_234
10
6.2855242
20
52.7320552
40
0.7034845
50
90.3778349
51
103.5869322
0
ARC
8
DEFAULT_255_1_234
10
6.1117018
20
52.671573
40
0.2370698
50
89.8751008
51
126.2071704
0
ARC
8
DEFAULT_255_1_234
10
6.1162808
20
52.6561303
40
0.2522934
50
124.9745049
51
144.895901
0
ARC
8
DEFAULT_255_1_234
10
6.0986999
20
52.670456
40
0.2296779
50
145.2974905
51
160.2660252
0
ARC
8
DEFAULT_255_1_234
10
6.4059537
20
52.6902071
40
0.5234525
50
179.6514266
51
190.2855912
0
ARC
8
DEFAULT_255_1_234
10
6.2365675
20
52.6582786
40
0.3510893
50
190.0945431
51
207.5098196
0
ARC
8
DEFAULT_255_1_234
10
6.1799944
20
52.6313623
40
0.288489
50
207.9583163
51
216.3251085
0
ARC
8
DEFAULT_255_1_234
10
6.1460052
20
52.6034105
40
0.2445587
50
215.7661442
51
232.5456785
0
ARC
8
DEFAULT_255_1_234
10
6.1077035
20
52.5547482
40
0.1826382
50
232.8005391
51
270.6605633
0
ARC
8
DEFAULT_255_1_234
10
6.1122736
20
52.5911612
40
0.2190529
50
269.35537
51
288.4744281
0
ARC
8
DEFAULT_255_1_234
10
6.1215633
20
52.5562118
40
0.1829749
50
289.1833337
51
322.9683818
0
ARC
8
DEFAULT_255_1_234
10
6.0604155
20
52.6044391
40
0.2608399
50
322.6007884
51
346.5182367
0
ARC
8
DEFAULT_255_1_234
10
5.9446751
20
52.6339616
40
0.3802777
50
346.2582162
51
358.7741648
0
ARC
8
DEFAULT_255_1_234
10
5.842842
20
52.6394965
40
0.4822176
50
358.3755224
51
0.0098023
0
ARC
8
DEFAULT_255_1_234
10
5.9184607
20
52.6422657
40
0.4066078
50
359.6214041
51
11.2839074
0
ARC
8
DEFAULT_255_1_234
10
6.0461754
20
52.6689066
40
0.2761514
50
11.0482309
51
31.8146458
0
ARC
8
DEFAULT_255_1_234
10
6.0770797
20
52.6856584
40
0.2410679
50
32.3035391
51
38.082671
0
ARC
8
DEFAULT_255_1_234
10
6.1191457
20
52.7237662
40
0.1844966
50
36.825067
51
85.7415724
0
ARC
8
DEFAULT_255_1_234
10
6.112429
20
52.6737301
40
0.2349122
50
85.0140713
51
90.0513278
0
LINE
8
DEFAULT_255_1_234
10
4.3082902
20
58.7264211
11
4.3082902
21
57.557
0
LINE
8
DEFAULT_255_1_234
10
4.3082902
20
57.557
11
4.1540808
21
57.557
0
LINE
8
DEFAULT_255_1_234
10
4.1540808
20
57.557
11
4.1540808
21
58.7264211
0
LINE
8
DEFAULT_255_1_234
10
4.1540808
20
58.7264211
11
4.3082902
21
58.7264211
0
LINE
8
DEFAULT_255_1_234
10
5.4889557
20
58.7264211
11
5.4889557
21
57.557
0
LINE
8
DEFAULT_255_1_234
10
5.4889557
20
57.557
11
5.3339432
21
57.557
0
LINE
8
DEFAULT_255_1_234
10
5.3339432
20
57.557
11
4.7452167
21
58.458161
0
LINE
8
DEFAULT_255_1_234
10
4.7452167
20
58.458161
11
4.7452167
21
57.557
0
LINE
8
DEFAULT_255_1_234
10
4.7452167
20
57.557
11
4.5902042
21
57.557
0
LINE
8
DEFAULT_255_1_234
10
4.5902042
20
57.557
11
4.5902042
21
58.7264211
0
LINE
8
DEFAULT_255_1_234
10
4.5902042
20
58.7264211
11
4.7452167
21
58.7264211
0
LINE
8
DEFAULT_255_1_234
10
4.7452167
20
58.7264211
11
5.3355495
21
57.8212442
0
LINE
8
DEFAULT_255_1_234
10
5.3355495
20
57.8212442
11
5.3355495
21
58.7264211
0
LINE
8
DEFAULT_255_1_234
10
5.3355495
20
58.7264211
11
5.4889557
21
58.7264211
0
LINE
8
DEFAULT_255_1_234
10
5.9114251
20
58.1127963
11
5.7925554
21
58.1433169
0
LINE
8
DEFAULT_255_1_234
10
5.7925554
20
58.1433169
11
5.8519903
21
58.7264211
0
LINE
8
DEFAULT_255_1_234
10
5.8519903
20
58.7264211
11
6.451158
21
58.7264211
0
LINE
8
DEFAULT_255_1_234
10
6.451158
20
58.7264211
11
6.451158
21
58.5890784
0
LINE
8
DEFAULT_255_1_234
10
6.451158
20
58.5890784
11
5.9780886
21
58.5890784
0
LINE
8
DEFAULT_255_1_234
10
5.9780886
20
58.5890784
11
5.9427489
21
58.2702184
0
LINE
8
DEFAULT_255_1_234
10
5.7507904
20
57.8646156
11
5.8913458
21
57.8646156
0
LINE
8
DEFAULT_255_1_234
10
5.9507807
20
58.1449232
11
5.9114251
21
58.1127963
0
ARC
8
DEFAULT_255_1_234
10
6.1282273
20
57.952223
40
0.3681349
50
93.7182161
51
120.2538958
0
ARC
8
DEFAULT_255_1_234
10
6.1376536
20
57.8714394
40
0.449379
50
89.9660152
51
94.2496022
0
ARC
8
DEFAULT_255_1_234
10
6.141727
20
57.9303549
40
0.390482
50
73.8043271
51
90.5585896
0
ARC
8
DEFAULT_255_1_234
10
6.1652167
20
58.0161602
40
0.3015334
50
41.3071453
51
73.5430202
0
ARC
8
DEFAULT_255_1_234
10
6.1235994
20
57.9803324
40
0.3564457
50
13.5075983
51
41.2174222
0
ARC
8
DEFAULT_255_1_234
10
5.9594198
20
57.9373486
40
0.5261351
50
1.1331335
51
13.8829381
0
ARC
8
DEFAULT_255_1_234
10
5.8182567
20
57.9297665
40
0.6674378
50
359.9919444
51
1.544251
0
ARC
8
DEFAULT_255_1_234
10
5.9459393
20
57.925628
40
0.5397702
50
347.8572367
51
0.4293338
0
ARC
8
DEFAULT_255_1_234
10
6.1209711
20
57.8859736
40
0.3603188
50
323.673004
51
348.1672506
0
ARC
8
DEFAULT_255_1_234
10
6.1504219
20
57.8680168
40
0.3259678
50
316.8171152
51
323.1492751
0
ARC
8
DEFAULT_255_1_234
10
6.1565408
20
57.864346
40
0.3189975
50
281.8396411
51
316.5457803
0
ARC
8
DEFAULT_255_1_234
10
6.1189672
20
58.0198762
40
0.4789527
50
269.5770101
51
282.4214771
0
ARC
8
DEFAULT_255_1_234
10
6.1118483
20
57.9985125
40
0.45759
50
256.2427136
51
270.4486331
0
ARC
8
DEFAULT_255_1_234
10
6.0819386
20
57.8785229
40
0.3339303
50
228.9023911
51
256.3314342
0
ARC
8
DEFAULT_255_1_234
10
6.0745618
20
57.8668746
40
0.32031
50
193.753695
51
228.5271154
0
ARC
8
DEFAULT_255_1_234
10
6.1983572
20
57.90318
40
0.4492253
50
184.924711
51
194.497588
0
ARC
8
DEFAULT_255_1_234
10
6.2176139
20
57.9067591
40
0.3289787
50
187.3600538
51
198.6732863
0
ARC
8
DEFAULT_255_1_234
10
6.1126433
20
57.8703674
40
0.217884
50
198.4451669
51
217.794479
0
ARC
8
DEFAULT_255_1_234
10
6.0830608
20
57.8494085
40
0.1816698
50
218.2887171
51
228.5612368
0
ARC
8
DEFAULT_255_1_234
10
6.0928395
20
57.8625963
40
0.1980329
50
228.9654866
51
258.1234728
0
ARC
8
DEFAULT_255_1_234
10
6.1134105
20
57.9506833
40
0.2884748
50
257.7258293
51
270.401361
0
ARC
8
DEFAULT_255_1_234
10
6.1178992
20
57.9061821
40
0.2439788
50
269.4204404
51
286.4209037
0
ARC
8
DEFAULT_255_1_234
10
6.1327479
20
57.8522657
40
0.1880666
50
286.7251356
51
320.600362
0
ARC
8
DEFAULT_255_1_234
10
6.0944304
20
57.8833595
40
0.2374121
50
320.6712579
51
344.5441685
0
ARC
8
DEFAULT_255_1_234
10
5.978763
20
57.9173045
40
0.3579479
50
344.2412205
51
356.7357071
0
ARC
8
DEFAULT_255_1_234
10
5.8538779
20
57.9276444
40
0.4832297
50
356.3548756
51
0.0500261
0
ARC
8
DEFAULT_255_1_234
10
5.9875288
20
57.930765
40
0.3495889
50
359.5576869
51
12.953486
0
ARC
8
DEFAULT_255_1_234
10
6.0930185
20
57.9563434
40
0.2410532
50
12.6490276
51
41.6081334
0
ARC
8
DEFAULT_255_1_234
10
6.1160556
20
57.9759321
40
0.2108218
50
41.7850273
51
85.9892764
0
ARC
8
DEFAULT_255_1_234
10
6.1037293
20
57.8946462
40
0.2928454
50
84.6957577
51
90.0676183
0
ARC
8
DEFAULT_255_1_234
10
6.1013777
20
57.8277716
40
0.3597255
50
89.6804936
51
99.1614436
0
ARC
8
DEFAULT_255_1_234
10
6.0808408
20
57.9505131
40
0.235281
50
98.9830931
51
113.8908934
0
ARC
8
DEFAULT_255_1_234
10
6.0578818
20
58.0046587
40
0.176479
50
114.1950727
51
127.3641004
0
LINE
8
DEFAULT_255_1_234
10
4.4140902
20
64.0181211
11
4.4140902
21
62.8487
0
LINE
8
DEFAULT_255_1_234
10
4.4140902
20
62.8487
11
4.2598808
21
62.8487
0
LINE
8
DEFAULT_255_1_234
10
4.2598808
20
62.8487
11
4.2598808
21
64.0181211
0
LINE
8
DEFAULT_255_1_234
10
4.2598808
20
64.0181211
11
4.4140902
21
64.0181211
0
LINE
8
DEFAULT_255_1_234
10
5.5947557
20
64.0181211
11
5.5947557
21
62.8487
0
LINE
8
DEFAULT_255_1_234
10
5.5947557
20
62.8487
11
5.4397432
21
62.8487
0
LINE
8
DEFAULT_255_1_234
10
5.4397432
20
62.8487
11
4.8510167
21
63.749861
0
LINE
8
DEFAULT_255_1_234
10
4.8510167
20
63.749861
11
4.8510167
21
62.8487
0
LINE
8
DEFAULT_255_1_234
10
4.8510167
20
62.8487
11
4.6960042
21
62.8487
0
LINE
8
DEFAULT_255_1_234
10
4.6960042
20
62.8487
11
4.6960042
21
64.0181211
0
LINE
8
DEFAULT_255_1_234
10
4.6960042
20
64.0181211
11
4.8510167
21
64.0181211
0
LINE
8
DEFAULT_255_1_234
10
4.8510167
20
64.0181211
11
5.4413495
21
63.1129442
0
LINE
8
DEFAULT_255_1_234
10
5.4413495
20
63.1129442
11
5.4413495
21
64.0181211
0
LINE
8
DEFAULT_255_1_234
10
5.4413495
20
64.0181211
11
5.5947557
21
64.0181211
0
LINE
8
DEFAULT_255_1_234
10
6.4573644
20
64.0181211
11
6.4573644
21
63.241452
0
LINE
8
DEFAULT_255_1_234
10
6.4573644
20
63.241452
11
6.6196055
21
63.241452
0
LINE
8
DEFAULT_255_1_234
10
6.6196055
20
63.241452
11
6.6196055
21
63.1201728
0
LINE
8
DEFAULT_255_1_234
10
6.6196055
20
63.1201728
11
6.4573644
21
63.1201728
0
LINE
8
DEFAULT_255_1_234
10
6.4573644
20
63.1201728
11
6.4573644
21
62.8487
0
LINE
8
DEFAULT_255_1_234
10
6.4573644
20
62.8487
11
6.3079741
21
62.8487
0
LINE
8
DEFAULT_255_1_234
10
6.3079741
20
62.8487
11
6.3079741
21
63.1201728
0
LINE
8
DEFAULT_255_1_234
10
6.3079741
20
63.1201728
11
5.7754698
21
63.1201728
0
LINE
8
DEFAULT_255_1_234
10
5.7754698
20
63.1201728
11
5.7754698
21
63.2077187
0
LINE
8
DEFAULT_255_1_234
10
5.7754698
20
63.2077187
11
6.2991392
21
64.0181211
0
LINE
8
DEFAULT_255_1_234
10
6.2991392
20
64.0181211
11
6.4573644
21
64.0181211
0
LINE
8
DEFAULT_255_1_234
10
6.2903042
20
63.7827912
11
5.9441363
21
63.241452
0
LINE
8
DEFAULT_255_1_234
10
5.9441363
20
63.241452
11
6.3079741
21
63.241452
0
LINE
8
DEFAULT_255_1_234
10
6.3079741
20
63.241452
11
6.3079741
21
63.8149181
0
LINE
8
DEFAULT_255_1_234
10
6.3079741
20
63.8149181
11
6.2903042
21
63.7827912
0
LINE
8
DEFAULT_255_1_234
10
4.3082902
20
69.3097211
11
4.3082902
21
68.1403
0
LINE
8
DEFAULT_255_1_234
10
4.3082902
20
68.1403
11
4.1540808
21
68.1403
0
LINE
8
DEFAULT_255_1_234
10
4.1540808
20
68.1403
11
4.1540808
21
69.3097211
0
LINE
8
DEFAULT_255_1_234
10
4.1540808
20
69.3097211
11
4.3082902
21
69.3097211
0
LINE
8
DEFAULT_255_1_234
10
5.4889557
20
69.3097211
11
5.4889557
21
68.1403
0
LINE
8
DEFAULT_255_1_234
10
5.4889557
20
68.1403
11
5.3339432
21
68.1403
0
LINE
8
DEFAULT_255_1_234
10
5.3339432
20
68.1403
11
4.7452167
21
69.041461
0
LINE
8
DEFAULT_255_1_234
10
4.7452167
20
69.041461
11
4.7452167
21
68.1403
0
LINE
8
DEFAULT_255_1_234
10
4.7452167
20
68.1403
11
4.5902042
21
68.1403
0
LINE
8
DEFAULT_255_1_234
10
4.5902042
20
68.1403
11
4.5902042
21
69.3097211
0
LINE
8
DEFAULT_255_1_234
10
4.5902042
20
69.3097211
11
4.7452167
21
69.3097211
0
LINE
8
DEFAULT_255_1_234
10
4.7452167
20
69.3097211
11
5.3355495
21
68.4045442
0
LINE
8
DEFAULT_255_1_234
10
5.3355495
20
68.4045442
11
5.3355495
21
69.3097211
0
LINE
8
DEFAULT_255_1_234
10
5.3355495
20
69.3097211
11
5.4889557
21
69.3097211
0
LINE
8
DEFAULT_255_1_234
10
5.9403394
20
68.6760169
11
5.9403394
21
68.7972962
0
LINE
8
DEFAULT_255_1_234
10
5.9403394
20
68.7972962
11
6.0519806
21
68.7972962
0
LINE
8
DEFAULT_255_1_234
10
5.8616284
20
69.0029087
11
5.7130412
21
69.0029087
0
LINE
8
DEFAULT_255_1_234
10
5.7026
20
68.4487188
11
5.8519903
21
68.4487188
0
LINE
8
DEFAULT_255_1_234
10
6.0519806
20
68.6760169
11
5.9403394
21
68.6760169
0
ARC
8
DEFAULT_255_1_234
10
6.0490672
20
69.1365713
40
0.3392876
50
270.4919872
51
281.8951556
0
ARC
8
DEFAULT_255_1_234
10
6.0731934
20
69.0263702
40
0.2264817
50
281.6691735
51
301.2943132
0
ARC
8
DEFAULT_255_1_234
10
6.0902144
20
68.9952304
40
0.1910381
50
301.7833094
51
311.7545298
0
ARC
8
DEFAULT_255_1_234
10
6.099372
20
68.9850748
40
0.1773635
50
311.7323931
51
354.2802411
0
ARC
8
DEFAULT_255_1_234
10
6.0267345
20
68.9975722
40
0.2509385
50
353.0937916
51
0.1181479
0
ARC
8
DEFAULT_255_1_234
10
5.980613
20
69.0023386
40
0.2970898
50
359.1805295
51
15.0453146
0
ARC
8
DEFAULT_255_1_234
10
6.1151967
20
69.0415992
40
0.1569564
50
13.9577229
51
77.6713066
0
ARC
8
DEFAULT_255_1_234
10
6.0765496
20
68.9030949
40
0.3006298
50
76.1116566
51
90.7026153
0
ARC
8
DEFAULT_255_1_234
10
6.0706334
20
68.9304545
40
0.2732568
50
89.5324876
51
103.531937
0
ARC
8
DEFAULT_255_1_234
10
6.0505779
20
69.0103884
40
0.1908508
50
103.2931773
51
133.5619022
0
ARC
8
DEFAULT_255_1_234
10
6.0461267
20
69.0163375
40
0.1834746
50
133.8349307
51
173.5344437
0
ARC
8
DEFAULT_255_1_234
10
6.118431
20
69.0035213
40
0.2568033
50
172.5096846
51
180.1366907
0
ARC
8
DEFAULT_255_1_234
10
6.0233204
20
69.0069622
40
0.3103056
50
155.3484492
51
180.7484736
0
ARC
8
DEFAULT_255_1_234
10
6.0184293
20
69.0040846
40
0.3070957
50
131.5744599
51
154.4798489
0
ARC
8
DEFAULT_255_1_234
10
6.049744
20
68.972431
40
0.3515643
50
96.9875458
51
131.9690667
0
ARC
8
DEFAULT_255_1_234
10
6.071692
20
68.8478636
40
0.4779224
50
89.8596053
51
97.7825159
0
ARC
8
DEFAULT_255_1_234
10
6.0764983
20
68.8216616
40
0.5041361
50
78.3655447
51
90.4131539
0
ARC
8
DEFAULT_255_1_234
10
6.1122901
20
68.9875887
40
0.3344039
50
56.6229102
51
78.638727
0
ARC
8
DEFAULT_255_1_234
10
6.1337845
20
69.0251805
40
0.2912001
50
47.0253525
51
56.0854072
0
ARC
8
DEFAULT_255_1_234
10
6.1357625
20
69.0291223
40
0.2869704
50
10.9208013
51
46.7778124
0
ARC
8
DEFAULT_255_1_234
10
5.9993691
20
68.9975857
40
0.426899
50
359.6364486
51
11.6087304
0
ARC
8
DEFAULT_255_1_234
10
6.1828536
20
68.9960752
40
0.243409
50
332.3549906
51
359.7179418
0
ARC
8
DEFAULT_255_1_234
10
6.1178137
20
69.0269142
40
0.3153459
50
325.2333722
51
332.8745602
0
ARC
8
DEFAULT_255_1_234
10
6.1330761
20
69.0162828
40
0.2967456
50
292.9802137
51
325.2392345
0
ARC
8
DEFAULT_255_1_234
10
6.1056135
20
69.0696863
40
0.3566604
50
292.5402179
51
293.6924929
0
ARC
8
DEFAULT_255_1_234
10
6.144873
20
68.4242091
40
0.3307468
50
57.6435486
51
72.8625112
0
ARC
8
DEFAULT_255_1_234
10
6.180323
20
68.4816549
40
0.2632492
50
36.7248896
51
57.4697979
0
ARC
8
DEFAULT_255_1_234
10
6.1791863
20
68.482922
40
0.2634081
50
8.0545065
51
36.356114
0
ARC
8
DEFAULT_255_1_234
10
6.0929048
20
68.4674174
40
0.3510261
50
359.8320645
51
8.5869982
0
ARC
8
DEFAULT_255_1_234
10
6.0553824
20
68.4626101
40
0.3885653
50
343.9829931
51
0.5571613
0
ARC
8
DEFAULT_255_1_234
10
6.1440022
20
68.4383438
40
0.2966924
50
311.6359546
51
343.7651759
0
ARC
8
DEFAULT_255_1_234
10
6.1061591
20
68.4810102
40
0.3537231
50
279.7829875
51
311.6255694
0
ARC
8
DEFAULT_255_1_234
10
6.0760367
20
68.624728
40
0.5004971
50
269.7286406
51
280.3856417
0
ARC
8
DEFAULT_255_1_234
10
6.0698439
20
68.6205996
40
0.4963778
50
256.6828919
51
270.4412052
0
ARC
8
DEFAULT_255_1_234
10
6.0359735
20
68.4821394
40
0.3538406
50
229.4223008
51
256.8556159
0
ARC
8
DEFAULT_255_1_234
10
5.9945128
20
68.4354736
40
0.2914296
50
181.818294
51
229.6455059
0
ARC
8
DEFAULT_255_1_234
10
6.0985084
20
68.4485496
40
0.3959084
50
179.9755256
51
183.2323064
0
ARC
8
DEFAULT_255_1_234
10
6.081283
20
68.4465037
40
0.2293034
50
179.4465117
51
196.2869258
0
ARC
8
DEFAULT_255_1_234
10
6.0325238
20
68.4331651
40
0.1787621
50
196.5661473
51
227.705904
0
ARC
8
DEFAULT_255_1_234
10
6.0489333
20
68.4515155
40
0.2033784
50
227.7652068
51
257.8762805
0
ARC
8
DEFAULT_255_1_234
10
6.0714303
20
68.5458156
40
0.3003081
50
257.4584385
51
270.426602
0
ARC
8
DEFAULT_255_1_234
10
6.0759869
20
68.5747996
40
0.329292
50
269.5962073
51
280.8789248
0
ARC
8
DEFAULT_255_1_234
10
6.0989398
20
68.4601685
40
0.2123908
50
280.6346389
51
299.8595945
0
ARC
8
DEFAULT_255_1_234
10
6.1180305
20
68.4239212
40
0.171457
50
300.3576302
51
314.5517981
0
ARC
8
DEFAULT_255_1_234
10
6.1097365
20
68.4299919
40
0.1816095
50
315.0728369
51
345.0431014
0
ARC
8
DEFAULT_255_1_234
10
6.0174179
20
68.4568841
40
0.2777492
50
344.5986631
51
357.9269593
0
ARC
8
DEFAULT_255_1_234
10
5.9278506
20
68.4630276
40
0.3674917
50
357.4748886
51
0.0231117
0
ARC
8
DEFAULT_255_1_234
10
6.0301615
20
68.4654679
40
0.2651907
50
359.5047933
51
13.4239635
0
ARC
8
DEFAULT_255_1_234
10
6.1168259
20
68.4876478
40
0.1757509
50
12.9498199
51
48.7551375
0
ARC
8
DEFAULT_255_1_234
10
6.0985993
20
68.46274
40
0.2065134
50
49.5088623
51
72.1836453
0
ARC
8
DEFAULT_255_1_234
10
6.0628145
20
68.3565291
40
0.3185836
50
71.9010081
51
84.3554254
0
ARC
8
DEFAULT_255_1_234
10
6.0466777
20
68.2204326
40
0.4556151
50
84.0193428
51
89.333121
0
LINE
8
DEFAULT_255_1_234
10
4.3082902
20
74.6014211
11
4.3082902
21
73.432
0
LINE
8
DEFAULT_255_1_234
10
4.3082902
20
73.432
11
4.1540808
21
73.432
0
LINE
8
DEFAULT_255_1_234
10
4.1540808
20
73.432
11
4.1540808
21
74.6014211
0
LINE
8
DEFAULT_255_1_234
10
4.1540808
20
74.6014211
11
4.3082902
21
74.6014211
0
LINE
8
DEFAULT_255_1_234
10
5.4889557
20
74.6014211
11
5.4889557
21
73.432
0
LINE
8
DEFAULT_255_1_234
10
5.4889557
20
73.432
11
5.3339432
21
73.432
0
LINE
8
DEFAULT_255_1_234
10
5.3339432
20
73.432
11
4.7452167
21
74.333161
0
LINE
8
DEFAULT_255_1_234
10
4.7452167
20
74.333161
11
4.7452167
21
73.432
0
LINE
8
DEFAULT_255_1_234
10
4.7452167
20
73.432
11
4.5902042
21
73.432
0
LINE
8
DEFAULT_255_1_234
10
4.5902042
20
73.432
11
4.5902042
21
74.6014211
0
LINE
8
DEFAULT_255_1_234
10
4.5902042
20
74.6014211
11
4.7452167
21
74.6014211
0
LINE
8
DEFAULT_255_1_234
10
4.7452167
20
74.6014211
11
5.3355495
21
73.6962442
0
LINE
8
DEFAULT_255_1_234
10
5.3355495
20
73.6962442
11
5.3355495
21
74.6014211
0
LINE
8
DEFAULT_255_1_234
10
5.3355495
20
74.6014211
11
5.4889557
21
74.6014211
0
LINE
8
DEFAULT_255_1_234
10
6.4905135
20
73.5532792
11
6.4905135
21
73.432
0
LINE
8
DEFAULT_255_1_234
10
6.4905135
20
73.432
11
5.7242856
21
73.432
0
LINE
8
DEFAULT_255_1_234
10
5.7242856
20
73.432
11
5.7242856
21
73.5388221
0
LINE
8
DEFAULT_255_1_234
10
5.7242856
20
73.5388221
11
6.1290853
21
73.9885995
0
LINE
8
DEFAULT_255_1_234
10
5.8503839
20
74.2568595
11
5.7017968
21
74.2568595
0
LINE
8
DEFAULT_255_1_234
10
6.2166312
20
73.8930218
11
5.9033934
21
73.5532792
0
LINE
8
DEFAULT_255_1_234
10
5.9033934
20
73.5532792
11
6.4905135
21
73.5532792
0
ARC
8
DEFAULT_255_1_234
10
4.7800686
20
75.1815527
40
1.8008286
50
318.5132453
51
320.7828378
0
ARC
8
DEFAULT_255_1_234
10
5.308766
20
74.7512426
40
1.1191493
50
320.7372736
51
323.9737074
0
ARC
8
DEFAULT_255_1_234
10
5.7007517
20
74.4672361
40
0.6350923
50
323.8961724
51
328.6421089
0
ARC
8
DEFAULT_255_1_234
10
5.9054112
20
74.3410031
40
0.3946393
50
328.8299013
51
331.789948
0
ARC
8
DEFAULT_255_1_234
10
6.0051291
20
74.2895509
40
0.2824501
50
331.4255242
51
352.9364833
0
ARC
8
DEFAULT_255_1_234
10
6.0187791
20
74.2864976
40
0.2685315
50
353.2248685
51
0.0169286
0
ARC
8
DEFAULT_255_1_234
10
6.0397668
20
74.288795
40
0.2475536
50
359.4866256
51
15.9339782
0
ARC
8
DEFAULT_255_1_234
10
6.0904653
20
74.3024286
40
0.1950618
50
16.1714718
51
43.5284424
0
ARC
8
DEFAULT_255_1_234
10
6.0981962
20
74.3101573
40
0.184134
50
43.4415429
51
83.1661404
0
ARC
8
DEFAULT_255_1_234
10
6.084788
20
74.2364771
40
0.258926
50
82.160215
51
90.1505798
0
ARC
8
DEFAULT_255_1_234
10
6.0816308
20
74.1827865
40
0.3126255
50
89.5460705
51
102.5418777
0
ARC
8
DEFAULT_255_1_234
10
6.0573394
20
74.2858665
40
0.2067346
50
102.1739365
51
129.2061916
0
ARC
8
DEFAULT_255_1_234
10
6.0494465
20
74.2983094
40
0.1921118
50
129.7279328
51
135.7542026
0
ARC
8
DEFAULT_255_1_234
10
6.0615993
20
74.2886045
40
0.2075944
50
136.175737
51
166.3674722
0
ARC
8
DEFAULT_255_1_234
10
6.1622912
20
74.2616182
40
0.3118201
50
165.9092917
51
178.8683903
0
ARC
8
DEFAULT_255_1_234
10
6.2487774
20
74.2569179
40
0.3983935
50
178.438168
51
180.0083905
0
ARC
8
DEFAULT_255_1_234
10
6.1086376
20
74.2608231
40
0.4068601
50
163.2878735
51
180.5581814
0
ARC
8
DEFAULT_255_1_234
10
6.0284637
20
74.282884
40
0.3237344
50
133.454115
51
162.9470031
0
ARC
8
DEFAULT_255_1_234
10
6.0463178
20
74.2639
40
0.349795
50
100.7869394
51
133.4384016
0
ARC
8
DEFAULT_255_1_234
10
6.081095
20
74.1090319
40
0.5084616
50
89.6605301
51
101.3704185
0
ARC
8
DEFAULT_255_1_234
10
6.0877289
20
74.1151496
40
0.502348
50
78.2171172
51
90.4130393
0
ARC
8
DEFAULT_255_1_234
10
6.1232367
20
74.2775637
40
0.3361092
50
55.9268222
51
78.4888551
0
ARC
8
DEFAULT_255_1_234
10
6.1428807
20
74.3114324
40
0.2970617
50
47.9292255
51
55.4054003
0
ARC
8
DEFAULT_255_1_234
10
6.1530368
20
74.3217502
40
0.2825983
50
4.3347696
51
48.0560701
0
ARC
8
DEFAULT_255_1_234
10
6.0434761
20
74.3047601
40
0.393225
50
359.925209
51
5.5967654
0
ARC
8
DEFAULT_255_1_234
10
6.0863653
20
74.3103816
40
0.3503892
50
337.8914096
51
358.9967724
0
ARC
8
DEFAULT_255_1_234
10
5.8150065
20
74.4150706
40
0.6412172
50
326.9135351
51
338.3505194
0
ARC
8
DEFAULT_255_1_234
10
5.4164369
20
74.6705284
40
1.1146189
50
319.6472867
51
327.095818
0
ARC
8
DEFAULT_255_1_234
10
5.0331372
20
74.9867
40
1.6114559
50
317.2586784
51
319.9046139
0
LINE
8
DEFAULT_255_1_234
10
4.2991902
20
79.8931211
11
4.2991902
21
78.7237
0
LINE
8
DEFAULT_255_1_234
10
4.2991902
20
78.7237
11
4.1449808
21
78.7237
0
LINE
8
DEFAULT_255_1_234
10
4.1449808
20
78.7237
11
4.1449808
21
79.8931211
0
LINE
8
DEFAULT_255_1_234
10
4.1449808
20
79.8931211
11
4.2991902
21
79.8931211
0
LINE
8
DEFAULT_255_1_234
10
5.4798557
20
79.8931211
11
5.4798557
21
78.7237
0
LINE
8
DEFAULT_255_1_234
10
5.4798557
20
78.7237
11
5.3248432
21
78.7237
0
LINE
8
DEFAULT_255_1_234
10
5.3248432
20
78.7237
11
4.7361167
21
79.624861
0
LINE
8
DEFAULT_255_1_234
10
4.7361167
20
79.624861
11
4.7361167
21
78.7237
0
LINE
8
DEFAULT_255_1_234
10
4.7361167
20
78.7237
11
4.5811042
21
78.7237
0
LINE
8
DEFAULT_255_1_234
10
4.5811042
20
78.7237
11
4.5811042
21
79.8931211
0
LINE
8
DEFAULT_255_1_234
10
4.5811042
20
79.8931211
11
4.7361167
21
79.8931211
0
LINE
8
DEFAULT_255_1_234
10
4.7361167
20
79.8931211
11
5.3264495
21
78.9879442
0
LINE
8
DEFAULT_255_1_234
10
5.3264495
20
78.9879442
11
5.3264495
21
79.8931211
0
LINE
8
DEFAULT_255_1_234
10
5.3264495
20
79.8931211
11
5.4798557
21
79.8931211
0
LINE
8
DEFAULT_255_1_234
10
6.2035153
20
79.8987433
11
6.2035153
21
78.7237
0
LINE
8
DEFAULT_255_1_234
10
6.2035153
20
78.7237
11
6.054125
21
78.7237
0
LINE
8
DEFAULT_255_1_234
10
6.054125
20
78.7237
11
6.054125
21
79.7140133
0
LINE
8
DEFAULT_255_1_234
10
6.054125
20
79.7140133
11
5.7545412
21
79.6039785
0
LINE
8
DEFAULT_255_1_234
10
5.7545412
20
79.6039785
11
5.7545412
21
79.7389117
0
LINE
8
DEFAULT_255_1_234
10
5.7545412
20
79.7389117
11
6.1802233
21
79.8987433
0
LINE
8
DEFAULT_255_1_234
10
6.1802233
20
79.8987433
11
6.2035153
21
79.8987433
0
LINE
8
DEFAULT_255_1_234
10
4.3082902
20
85.1847211
11
4.3082902
21
84.0153
0
LINE
8
DEFAULT_255_1_234
10
4.3082902
20
84.0153
11
4.1540808
21
84.0153
0
LINE
8
DEFAULT_255_1_234
10
4.1540808
20
84.0153
11
4.1540808
21
85.1847211
0
LINE
8
DEFAULT_255_1_234
10
4.1540808
20
85.1847211
11
4.3082902
21
85.1847211
0
LINE
8
DEFAULT_255_1_234
10
5.4889557
20
85.1847211
11
5.4889557
21
84.0153
0
LINE
8
DEFAULT_255_1_234
10
5.4889557
20
84.0153
11
5.3339432
21
84.0153
0
LINE
8
DEFAULT_255_1_234
10
5.3339432
20
84.0153
11
4.7452167
21
84.916461
0
LINE
8
DEFAULT_255_1_234
10
4.7452167
20
84.916461
11
4.7452167
21
84.0153
0
LINE
8
DEFAULT_255_1_234
10
4.7452167
20
84.0153
11
4.5902042
21
84.0153
0
LINE
8
DEFAULT_255_1_234
10
4.5902042
20
84.0153
11
4.5902042
21
85.1847211
0
LINE
8
DEFAULT_255_1_234
10
4.5902042
20
85.1847211
11
4.7452167
21
85.1847211
0
LINE
8
DEFAULT_255_1_234
10
4.7452167
20
85.1847211
11
5.3355495
21
84.2795442
0
LINE
8
DEFAULT_255_1_234
10
5.3355495
20
84.2795442
11
5.3355495
21
85.1847211
0
LINE
8
DEFAULT_255_1_234
10
5.3355495
20
85.1847211
11
5.4889557
21
85.1847211
0
LINE
8
DEFAULT_255_1_234
10
6.4575833
20
84.7068327
11
6.4575833
21
84.5140709
0
LINE
8
DEFAULT_255_1_234
10
5.7194666
20
84.4939916
11
5.7194666
21
84.6923755
0
LINE
8
DEFAULT_255_1_234
10
6.3089962
20
84.4739123
11
6.3089962
21
84.7172739
0
LINE
8
DEFAULT_255_1_234
10
5.8680538
20
84.7285184
11
5.8680538
21
84.4907789
0
ARC
8
DEFAULT_255_1_234
10
5.2328723
20
84.5091805
40
1.2247208
50
353.8441951
51
0.2287902
0
ARC
8
DEFAULT_255_1_234
10
5.6968227
20
84.4573806
40
0.7578929
50
344.4934747
51
353.9765454
0
ARC
8
DEFAULT_255_1_234
10
5.9960817
20
84.3722981
40
0.4467846
50
329.2803592
51
344.7472793
0
ARC
8
DEFAULT_255_1_234
10
6.0953642
20
84.3178018
40
0.3336173
50
324.9352394
51
328.6160465
0
ARC
8
DEFAULT_255_1_234
10
6.1330751
20
84.2914427
40
0.2876076
50
280.580143
51
324.9173126
0
ARC
8
DEFAULT_255_1_234
10
6.0929543
20
84.4585099
40
0.4592847
50
269.5977311
51
281.6734359
0
ARC
8
DEFAULT_255_1_234
10
6.0857449
20
84.4465173
40
0.4472986
50
256.6228859
51
270.51044
0
ARC
8
DEFAULT_255_1_234
10
6.0455427
20
84.2916877
40
0.2873874
50
215.8618325
51
257.2788573
0
ARC
8
DEFAULT_255_1_234
10
6.1476458
20
84.3601977
40
0.4102928
50
197.9693508
51
215.2623606
0
ARC
8
DEFAULT_255_1_234
10
6.3961574
20
84.4440709
40
0.6725652
50
187.8816417
51
198.2346507
0
ARC
8
DEFAULT_255_1_234
10
6.7919782
20
84.5012079
40
1.0724845
50
180.8976217
51
188.0055519
0
ARC
8
DEFAULT_255_1_234
10
7.071997
20
84.5115777
40
1.3526448
50
180.7449369
51
181.1510016
0
ARC
8
DEFAULT_255_1_234
10
6.9142699
20
84.6972042
40
1.1948131
50
173.7675579
51
180.231553
0
ARC
8
DEFAULT_255_1_234
10
6.4624846
20
84.7482666
40
0.7401564
50
164.3058563
51
173.9002247
0
ARC
8
DEFAULT_255_1_234
10
6.1712915
20
84.8321656
40
0.4371288
50
148.7922025
51
164.568378
0
ARC
8
DEFAULT_255_1_234
10
6.0761367
20
84.8852929
40
0.3282386
50
144.5883898
51
148.1176286
0
ARC
8
DEFAULT_255_1_234
10
6.0418265
20
84.9092315
40
0.2864044
50
101.6440918
51
144.514236
0
ARC
8
DEFAULT_255_1_234
10
6.0843332
20
84.7403069
40
0.4604934
50
89.5284041
51
102.5819763
0
ARC
8
DEFAULT_255_1_234
10
6.0922419
20
84.7364018
40
0.464401
50
77.0437873
51
90.5081339
0
ARC
8
DEFAULT_255_1_234
10
6.1324421
20
84.9006615
40
0.2953195
50
48.2778575
51
77.4994676
0
ARC
8
DEFAULT_255_1_234
10
6.1397052
20
84.9135746
40
0.2808655
50
36.3142134
51
47.6305865
0
ARC
8
DEFAULT_255_1_234
10
6.0528359
20
84.8550515
40
0.3855453
50
18.2931786
51
35.6769206
0
ARC
8
DEFAULT_255_1_234
10
5.7985118
20
84.7677593
40
0.654423
50
8.024666
51
18.5605216
0
ARC
8
DEFAULT_255_1_234
10
5.3822038
20
84.7062792
40
1.0752407
50
1.1274072
51
8.1718305
0
ARC
8
DEFAULT_255_1_234
10
5.0586229
20
84.6935885
40
1.3990231
50
0.5424119
51
1.3863029
0
ARC
8
DEFAULT_255_1_234
10
5.2407607
20
84.7208342
40
1.0682415
50
359.8090433
51
4.9407866
0
ARC
8
DEFAULT_255_1_234
10
5.6617621
20
84.7584113
40
0.6455691
50
4.8362157
51
12.2904523
0
ARC
8
DEFAULT_255_1_234
10
5.9372735
20
84.8197965
40
0.3633074
50
12.0805627
51
23.8173984
0
ARC
8
DEFAULT_255_1_234
10
6.0546441
20
84.8694919
40
0.2358723
50
24.2871213
51
31.3935614
0
ARC
8
DEFAULT_255_1_234
10
6.1071138
20
84.9038233
40
0.1732111
50
30.7407893
51
82.4657128
0
ARC
8
DEFAULT_255_1_234
10
6.0891272
20
84.8154691
40
0.263235
50
81.1060089
51
90.2184952
0
ARC
8
DEFAULT_255_1_234
10
6.0855571
20
84.8412924
40
0.2374236
50
89.3806855
51
105.6762551
0
ARC
8
DEFAULT_255_1_234
10
6.0672202
20
84.9079567
40
0.1682847
50
105.7981136
51
149.7388061
0
ARC
8
DEFAULT_255_1_234
10
6.173628
20
84.843995
40
0.2924306
50
149.4208916
51
163.6286378
0
ARC
8
DEFAULT_255_1_234
10
6.3827168
20
84.780225
40
0.5110213
50
163.3763315
51
172.1410975
0
ARC
8
DEFAULT_255_1_234
10
6.7127887
20
84.7329518
40
0.8444586
50
172.0259487
51
178.0703232
0
ARC
8
DEFAULT_255_1_234
10
7.0157977
20
84.7185906
40
1.1477868
50
177.8631668
51
179.5044149
0
ARC
8
DEFAULT_255_1_234
10
6.9085381
20
84.4871389
40
1.0404907
50
179.7995573
51
185.2460446
0
ARC
8
DEFAULT_255_1_234
10
6.504242
20
84.4488513
40
0.6343885
50
185.1411642
51
193.0079639
0
ARC
8
DEFAULT_255_1_234
10
6.2398893
20
84.3863641
40
0.3627568
50
192.7897626
51
205.2507664
0
ARC
8
DEFAULT_255_1_234
10
6.135244
20
84.3396415
40
0.2481908
50
205.8005384
51
211.2537509
0
ARC
8
DEFAULT_255_1_234
10
6.082888
20
84.304558
40
0.1852521
50
210.3789793
51
238.4008143
0
ARC
8
DEFAULT_255_1_234
10
6.0809402
20
84.3092376
40
0.1882621
50
239.6520629
51
265.9793761
0
ARC
8
DEFAULT_255_1_234
10
6.0894602
20
84.3764427
40
0.2559272
50
265.1315437
51
270.060332
0
ARC
8
DEFAULT_255_1_234
10
6.0923381
20
84.3440534
40
0.2235528
50
269.3314664
51
287.2178029
0
ARC
8
DEFAULT_255_1_234
10
6.1061233
20
84.2937279
40
0.1714108
50
287.7958004
51
329.080874
0
ARC
8
DEFAULT_255_1_234
10
6.010369
20
84.353493
40
0.2842745
50
328.6634704
51
343.3325132
0
ARC
8
DEFAULT_255_1_234
10
5.793071
20
84.4211863
40
0.5118644
50
343.0499468
51
351.9393422
0
ARC
8
DEFAULT_255_1_234
10
5.446401
20
84.4722949
40
0.8622784
50
351.8069023
51
357.7959224
0
ARC
8
DEFAULT_255_1_234
10
5.1228566
20
84.4890721
40
1.1862365
50
357.5871873
51
359.2677531
0
LINE
8
DEFAULT_255_1_234
10
4.3652902
20
90.4764211
11
4.3652902
21
89.307
0
LINE
8
DEFAULT_255_1_234
10
4.3652902
20
89.307
11
4.2110808
21
89.307
0
LINE
8
DEFAULT_255_1_234
10
4.2110808
20
89.307
11
4.2110808
21
90.4764211
0
LINE
8
DEFAULT_255_1_234
10
4.2110808
20
90.4764211
11
4.3652902
21
90.4764211
0
LINE
8
DEFAULT_255_1_234
10
5.5459557
20
90.4764211
11
5.5459557
21
89.307
0
LINE
8
DEFAULT_255_1_234
10
5.5459557
20
89.307
11
5.3909432
21
89.307
0
LINE
8
DEFAULT_255_1_234
10
5.3909432
20
89.307
11
4.8022167
21
90.208161
0
LINE
8
DEFAULT_255_1_234
10
4.8022167
20
90.208161
11
4.8022167
21
89.307
0
LINE
8
DEFAULT_255_1_234
10
4.8022167
20
89.307
11
4.6472042
21
89.307
0
LINE
8
DEFAULT_255_1_234
10
4.6472042
20
89.307
11
4.6472042
21
90.4764211
0
LINE
8
DEFAULT_255_1_234
10
4.6472042
20
90.4764211
11
4.8022167
21
90.4764211
0
LINE
8
DEFAULT_255_1_234
10
4.8022167
20
90.4764211
11
5.3925495
21
89.5712442
0
LINE
8
DEFAULT_255_1_234
10
5.3925495
20
89.5712442
11
5.3925495
21
90.4764211
0
LINE
8
DEFAULT_255_1_234
10
5.3925495
20
90.4764211
11
5.5459557
21
90.4764211
0
LINE
8
DEFAULT_255_1_234
10
6.2696153
20
90.4820433
11
6.2696153
21
89.307
0
LINE
8
DEFAULT_255_1_234
10
6.2696153
20
89.307
11
6.120225
21
89.307
0
LINE
8
DEFAULT_255_1_234
10
6.120225
20
89.307
11
6.120225
21
90.2973133
0
LINE
8
DEFAULT_255_1_234
10
6.120225
20
90.2973133
11
5.8206412
21
90.1872785
0
LINE
8
DEFAULT_255_1_234
10
5.8206412
20
90.1872785
11
5.8206412
21
90.3222117
0
LINE
8
DEFAULT_255_1_234
10
5.8206412
20
90.3222117
11
6.2463233
21
90.4820433
0
LINE
8
DEFAULT_255_1_234
10
6.2463233
20
90.4820433
11
6.2696153
21
90.4820433
0
LINE
8
DEFAULT_255_1_234
10
6.892075
20
89.8627963
11
6.7732053
21
89.8933169
0
LINE
8
DEFAULT_255_1_234
10
6.7732053
20
89.8933169
11
6.8326402
21
90.4764211
0
LINE
8
DEFAULT_255_1_234
10
6.8326402
20
90.4764211
11
7.4318079
21
90.4764211
0
LINE
8
DEFAULT_255_1_234
10
7.4318079
20
90.4764211
11
7.4318079
21
90.3390784
0
LINE
8
DEFAULT_255_1_234
10
7.4318079
20
90.3390784
11
6.9587385
21
90.3390784
0
LINE
8
DEFAULT_255_1_234
10
6.9587385
20
90.3390784
11
6.9233988
21
90.0202184
0
LINE
8
DEFAULT_255_1_234
10
6.7314403
20
89.6146156
11
6.8719957
21
89.6146156
0
LINE
8
DEFAULT_255_1_234
10
6.9314306
20
89.8949232
11
6.892075
21
89.8627963
0
ARC
8
DEFAULT_255_1_234
10
7.1088772
20
89.702223
40
0.3681349
50
93.7182161
51
120.2538958
0
ARC
8
DEFAULT_255_1_234
10
7.1183035
20
89.6214394
40
0.449379
50
89.9660152
51
94.2496022
0
ARC
8
DEFAULT_255_1_234
10
7.1223769
20
89.6803549
40
0.390482
50
73.8043271
51
90.5585896
0
ARC
8
DEFAULT_255_1_234
10
7.1458666
20
89.7661602
40
0.3015334
50
41.3071453
51
73.5430202
0
ARC
8
DEFAULT_255_1_234
10
7.1042493
20
89.7303324
40
0.3564457
50
13.5075983
51
41.2174222
0
ARC
8
DEFAULT_255_1_234
10
6.9400697
20
89.6873486
40
0.5261351
50
1.1331335
51
13.8829381
0
ARC
8
DEFAULT_255_1_234
10
6.7989066
20
89.6797665
40
0.6674378
50
359.9919444
51
1.544251
0
ARC
8
DEFAULT_255_1_234
10
6.9265892
20
89.675628
40
0.5397702
50
347.8572367
51
0.4293338
0
ARC
8
DEFAULT_255_1_234
10
7.101621
20
89.6359736
40
0.3603188
50
323.673004
51
348.1672506
0
ARC
8
DEFAULT_255_1_234
10
7.1310718
20
89.6180168
40
0.3259678
50
316.8171152
51
323.1492751
0
ARC
8
DEFAULT_255_1_234
10
7.1371907
20
89.614346
40
0.3189975
50
281.8396411
51
316.5457803
0
ARC
8
DEFAULT_255_1_234
10
7.0996171
20
89.7698762
40
0.4789527
50
269.5770101
51
282.4214771
0
ARC
8
DEFAULT_255_1_234
10
7.0924983
20
89.7485125
40
0.45759
50
256.2427136
51
270.4486331
0
ARC
8
DEFAULT_255_1_234
10
7.0625885
20
89.6285229
40
0.3339303
50
228.9023911
51
256.3314342
0
ARC
8
DEFAULT_255_1_234
10
7.0552117
20
89.6168746
40
0.32031
50
193.753695
51
228.5271154
0
ARC
8
DEFAULT_255_1_234
10
7.1790071
20
89.65318
40
0.4492253
50
184.924711
51
194.497588
0
ARC
8
DEFAULT_255_1_234
10
7.1982638
20
89.6567591
40
0.3289787
50
187.3600538
51
198.6732863
0
ARC
8
DEFAULT_255_1_234
10
7.0932932
20
89.6203674
40
0.217884
50
198.4451669
51
217.794479
0
ARC
8
DEFAULT_255_1_234
10
7.0637107
20
89.5994085
40
0.1816698
50
218.2887171
51
228.5612368
0
ARC
8
DEFAULT_255_1_234
10
7.0734894
20
89.6125963
40
0.1980329
50
228.9654866
51
258.1234728
0
ARC
8
DEFAULT_255_1_234
10
7.0940604
20
89.7006833
40
0.2884748
50
257.7258293
51
270.401361
0
ARC
8
DEFAULT_255_1_234
10
7.0985491
20
89.6561821
40
0.2439788
50
269.4204404
51
286.4209037
0
ARC
8
DEFAULT_255_1_234
10
7.1133978
20
89.6022657
40
0.1880666
50
286.7251356
51
320.600362
0
ARC
8
DEFAULT_255_1_234
10
7.0750803
20
89.6333595
40
0.2374121
50
320.6712579
51
344.5441685
0
ARC
8
DEFAULT_255_1_234
10
6.9594129
20
89.6673045
40
0.3579479
50
344.2412205
51
356.7357071
0
ARC
8
DEFAULT_255_1_234
10
6.8345278
20
89.6776444
40
0.4832297
50
356.3548756
51
0.0500261
0
ARC
8
DEFAULT_255_1_234
10
6.9681787
20
89.680765
40
0.3495889
50
359.5576869
51
12.953486
0
ARC
8
DEFAULT_255_1_234
10
7.0736684
20
89.7063434
40
0.2410532
50
12.6490276
51
41.6081334
0
ARC
8
DEFAULT_255_1_234
10
7.0967055
20
89.7259321
40
0.2108218
50
41.7850273
51
85.9892764
0
ARC
8
DEFAULT_255_1_234
10
7.0843792
20
89.6446462
40
0.2928454
50
84.6957577
51
90.0676183
0
ARC
8
DEFAULT_255_1_234
10
7.0820276
20
89.5777716
40
0.3597255
50
89.6804936
51
99.1614436
0
ARC
8
DEFAULT_255_1_234
10
7.0614907
20
89.7005131
40
0.235281
50
98.9830931
51
113.8908934
0
ARC
8
DEFAULT_255_1_234
10
7.0385317
20
89.7546587
40
0.176479
50
114.1950727
51
127.3641004
0
LINE
8
DEFAULT_255_1_234
10
4.4710902
20
95.7681211
11
4.4710902
21
94.5987
0
LINE
8
DEFAULT_255_1_234
10
4.4710902
20
94.5987
11
4.3168808
21
94.5987
0
LINE
8
DEFAULT_255_1_234
10
4.3168808
20
94.5987
11
4.3168808
21
95.7681211
0
LINE
8
DEFAULT_255_1_234
10
4.3168808
20
95.7681211
11
4.4710902
21
95.7681211
0
LINE
8
DEFAULT_255_1_234
10
5.6517557
20
95.7681211
11
5.6517557
21
94.5987
0
LINE
8
DEFAULT_255_1_234
10
5.6517557
20
94.5987
11
5.4967432
21
94.5987
0
LINE
8
DEFAULT_255_1_234
10
5.4967432
20
94.5987
11
4.9080167
21
95.499861
0
LINE
8
DEFAULT_255_1_234
10
4.9080167
20
95.499861
11
4.9080167
21
94.5987
0
LINE
8
DEFAULT_255_1_234
10
4.9080167
20
94.5987
11
4.7530042
21
94.5987
0
LINE
8
DEFAULT_255_1_234
10
4.7530042
20
94.5987
11
4.7530042
21
95.7681211
0
LINE
8
DEFAULT_255_1_234
10
4.7530042
20
95.7681211
11
4.9080167
21
95.7681211
0
LINE
8
DEFAULT_255_1_234
10
4.9080167
20
95.7681211
11
5.4983495
21
94.8629442
0
LINE
8
DEFAULT_255_1_234
10
5.4983495
20
94.8629442
11
5.4983495
21
95.7681211
0
LINE
8
DEFAULT_255_1_234
10
5.4983495
20
95.7681211
11
5.6517557
21
95.7681211
0
LINE
8
DEFAULT_255_1_234
10
6.3754153
20
95.7737433
11
6.3754153
21
94.5987
0
LINE
8
DEFAULT_255_1_234
10
6.3754153
20
94.5987
11
6.226025
21
94.5987
0
LINE
8
DEFAULT_255_1_234
10
6.226025
20
94.5987
11
6.226025
21
95.5890133
0
LINE
8
DEFAULT_255_1_234
10
6.226025
20
95.5890133
11
5.9264412
21
95.4789785
0
LINE
8
DEFAULT_255_1_234
10
5.9264412
20
95.4789785
11
5.9264412
21
95.6139117
0
LINE
8
DEFAULT_255_1_234
10
5.9264412
20
95.6139117
11
6.3521233
21
95.7737433
0
LINE
8
DEFAULT_255_1_234
10
6.3521233
20
95.7737433
11
6.3754153
21
95.7737433
0
LINE
8
DEFAULT_255_1_234
10
7.4380143
20
95.7681211
11
7.4380143
21
94.991452
0
LINE
8
DEFAULT_255_1_234
10
7.4380143
20
94.991452
11
7.6002554
21
94.991452
0
LINE
8
DEFAULT_255_1_234
10
7.6002554
20
94.991452
11
7.6002554
21
94.8701728
0
LINE
8
DEFAULT_255_1_234
10
7.6002554
20
94.8701728
11
7.4380143
21
94.8701728
0
LINE
8
DEFAULT_255_1_234
10
7.4380143
20
94.8701728
11
7.4380143
21
94.5987
0
LINE
8
DEFAULT_255_1_234
10
7.4380143
20
94.5987
11
7.288624
21
94.5987
0
LINE
8
DEFAULT_255_1_234
10
7.288624
20
94.5987
11
7.288624
21
94.8701728
0
LINE
8
DEFAULT_255_1_234
10
7.288624
20
94.8701728
11
6.7561197
21
94.8701728
0
LINE
8
DEFAULT_255_1_234
10
6.7561197
20
94.8701728
11
6.7561197
21
94.9577187
0
LINE
8
DEFAULT_255_1_234
10
6.7561197
20
94.9577187
11
7.2797891
21
95.7681211
0
LINE
8
DEFAULT_255_1_234
10
7.2797891
20
95.7681211
11
7.4380143
21
95.7681211
0
LINE
8
DEFAULT_255_1_234
10
7.2709542
20
95.5327912
11
6.9247862
21
94.991452
0
LINE
8
DEFAULT_255_1_234
10
6.9247862
20
94.991452
11
7.288624
21
94.991452
0
LINE
8
DEFAULT_255_1_234
10
7.288624
20
94.991452
11
7.288624
21
95.5649181
0
LINE
8
DEFAULT_255_1_234
10
7.288624
20
95.5649181
11
7.2709542
21
95.5327912
0
LINE
8
DEFAULT_255_1_234
10
4.3652902
20
101.0597211
11
4.3652902
21
99.8903
0
LINE
8
DEFAULT_255_1_234
10
4.3652902
20
99.8903
11
4.2110808
21
99.8903
0
LINE
8
DEFAULT_255_1_234
10
4.2110808
20
99.8903
11
4.2110808
21
101.0597211
0
LINE
8
DEFAULT_255_1_234
10
4.2110808
20
101.0597211
11
4.3652902
21
101.0597211
0
LINE
8
DEFAULT_255_1_234
10
5.5459557
20
101.0597211
11
5.5459557
21
99.8903
0
LINE
8
DEFAULT_255_1_234
10
5.5459557
20
99.8903
11
5.3909432
21
99.8903
0
LINE
8
DEFAULT_255_1_234
10
5.3909432
20
99.8903
11
4.8022167
21
100.791461
0
LINE
8
DEFAULT_255_1_234
10
4.8022167
20
100.791461
11
4.8022167
21
99.8903
0
LINE
8
DEFAULT_255_1_234
10
4.8022167
20
99.8903
11
4.6472042
21
99.8903
0
LINE
8
DEFAULT_255_1_234
10
4.6472042
20
99.8903
11
4.6472042
21
101.0597211
0
LINE
8
DEFAULT_255_1_234
10
4.6472042
20
101.0597211
11
4.8022167
21
101.0597211
0
LINE
8
DEFAULT_255_1_234
10
4.8022167
20
101.0597211
11
5.3925495
21
100.1545442
0
LINE
8
DEFAULT_255_1_234
10
5.3925495
20
100.1545442
11
5.3925495
21
101.0597211
0
LINE
8
DEFAULT_255_1_234
10
5.3925495
20
101.0597211
11
5.5459557
21
101.0597211
0
LINE
8
DEFAULT_255_1_234
10
6.2696153
20
101.0653433
11
6.2696153
21
99.8903
0
LINE
8
DEFAULT_255_1_234
10
6.2696153
20
99.8903
11
6.120225
21
99.8903
0
LINE
8
DEFAULT_255_1_234
10
6.120225
20
99.8903
11
6.120225
21
100.8806133
0
LINE
8
DEFAULT_255_1_234
10
6.120225
20
100.8806133
11
5.8206412
21
100.7705785
0
LINE
8
DEFAULT_255_1_234
10
5.8206412
20
100.7705785
11
5.8206412
21
100.9055117
0
LINE
8
DEFAULT_255_1_234
10
5.8206412
20
100.9055117
11
6.2463233
21
101.0653433
0
LINE
8
DEFAULT_255_1_234
10
6.2463233
20
101.0653433
11
6.2696153
21
101.0653433
0
LINE
8
DEFAULT_255_1_234
10
6.9209893
20
100.4260169
11
6.9209893
21
100.5472962
0
LINE
8
DEFAULT_255_1_234
10
6.9209893
20
100.5472962
11
7.0326305
21
100.5472962
0
LINE
8
DEFAULT_255_1_234
10
6.8422783
20
100.7529087
11
6.6936911
21
100.7529087
0
LINE
8
DEFAULT_255_1_234
10
6.6832499
20
100.1987188
11
6.8326402
21
100.1987188
0
LINE
8
DEFAULT_255_1_234
10
7.0326305
20
100.4260169
11
6.9209893
21
100.4260169
0
ARC
8
DEFAULT_255_1_234
10
7.0297171
20
100.8865713
40
0.3392876
50
270.4919872
51
281.8951556
0
ARC
8
DEFAULT_255_1_234
10
7.0538433
20
100.7763702
40
0.2264817
50
281.6691735
51
301.2943132
0
ARC
8
DEFAULT_255_1_234
10
7.0708643
20
100.7452304
40
0.1910381
50
301.7833094
51
311.7545298
0
ARC
8
DEFAULT_255_1_234
10
7.0800219
20
100.7350748
40
0.1773635
50
311.7323931
51
354.2802411
0
ARC
8
DEFAULT_255_1_234
10
7.0073844
20
100.7475722
40
0.2509385
50
353.0937916
51
0.1181479
0
ARC
8
DEFAULT_255_1_234
10
6.9612629
20
100.7523386
40
0.2970898
50
359.1805295
51
15.0453146
0
ARC
8
DEFAULT_255_1_234
10
7.0958466
20
100.7915992
40
0.1569564
50
13.9577229
51
77.6713066
0
ARC
8
DEFAULT_255_1_234
10
7.0571995
20
100.6530949
40
0.3006298
50
76.1116566
51
90.7026153
0
ARC
8
DEFAULT_255_1_234
10
7.0512833
20
100.6804545
40
0.2732568
50
89.5324876
51
103.531937
0
ARC
8
DEFAULT_255_1_234
10
7.0312278
20
100.7603884
40
0.1908508
50
103.2931773
51
133.5619022
0
ARC
8
DEFAULT_255_1_234
10
7.0267766
20
100.7663375
40
0.1834746
50
133.8349307
51
173.5344437
0
ARC
8
DEFAULT_255_1_234
10
7.0990809
20
100.7535213
40
0.2568033
50
172.5096846
51
180.1366907
0
ARC
8
DEFAULT_255_1_234
10
7.0039703
20
100.7569622
40
0.3103056
50
155.3484492
51
180.7484736
0
ARC
8
DEFAULT_255_1_234
10
6.9990792
20
100.7540846
40
0.3070957
50
131.5744599
51
154.4798489
0
ARC
8
DEFAULT_255_1_234
10
7.0303939
20
100.722431
40
0.3515643
50
96.9875458
51
131.9690667
0
ARC
8
DEFAULT_255_1_234
10
7.0523419
20
100.5978636
40
0.4779224
50
89.8596053
51
97.7825159
0
ARC
8
DEFAULT_255_1_234
10
7.0571482
20
100.5716616
40
0.5041361
50
78.3655447
51
90.4131539
0
ARC
8
DEFAULT_255_1_234
10
7.09294
20
100.7375887
40
0.3344039
50
56.6229102
51
78.638727
0
ARC
8
DEFAULT_255_1_234
10
7.1144344
20
100.7751805
40
0.2912001
50
47.0253525
51
56.0854072
0
ARC
8
DEFAULT_255_1_234
10
7.1164124
20
100.7791223
40
0.2869704
50
10.9208013
51
46.7778124
0
ARC
8
DEFAULT_255_1_234
10
6.980019
20
100.7475857
40
0.426899
50
359.6364486
51
11.6087304
0
ARC
8
DEFAULT_255_1_234
10
7.1635035
20
100.7460752
40
0.243409
50
332.3549906
51
359.7179418
0
ARC
8
DEFAULT_255_1_234
10
7.0984636
20
100.7769142
40
0.3153459
50
325.2333722
51
332.8745602
0
ARC
8
DEFAULT_255_1_234
10
7.113726
20
100.7662828
40
0.2967456
50
292.9802137
51
325.2392345
0
ARC
8
DEFAULT_255_1_234
10
7.0862634
20
100.8196863
40
0.3566604
50
292.5402179
51
293.6924929
0
ARC
8
DEFAULT_255_1_234
10
7.1255229
20
100.1742091
40
0.3307468
50
57.6435486
51
72.8625112
0
ARC
8
DEFAULT_255_1_234
10
7.1609729
20
100.2316549
40
0.2632492
50
36.7248896
51
57.4697979
0
ARC
8
DEFAULT_255_1_234
10
7.1598362
20
100.232922
40
0.2634081
50
8.0545065
51
36.356114
0
ARC
8
DEFAULT_255_1_234
10
7.0735547
20
100.2174174
40
0.3510261
50
359.8320645
51
8.5869982
0
ARC
8
DEFAULT_255_1_234
10
7.0360323
20
100.2126101
40
0.3885653
50
343.9829931
51
0.5571613
0
ARC
8
DEFAULT_255_1_234
10
7.1246521
20
100.1883438
40
0.2966924
50
311.6359546
51
343.7651759
0
ARC
8
DEFAULT_255_1_234
10
7.086809
20
100.2310102
40
0.3537231
50
279.7829875
51
311.6255694
0
ARC
8
DEFAULT_255_1_234
10
7.0566866
20
100.374728
40
0.5004971
50
269.7286406
51
280.3856417
0
ARC
8
DEFAULT_255_1_234
10
7.0504939
20
100.3705996
40
0.4963778
50
256.6828919
51
270.4412052
0
ARC
8
DEFAULT_255_1_234
10
7.0166234
20
100.2321394
40
0.3538406
50
229.4223008
51
256.8556159
0
ARC
8
DEFAULT_255_1_234
10
6.9751627
20
100.1854736
40
0.2914296
50
181.818294
51
229.6455059
0
ARC
8
DEFAULT_255_1_234
10
7.0791583
20
100.1985496
40
0.3959084
50
179.9755256
51
183.2323064
0
ARC
8
DEFAULT_255_1_234
10
7.0619329
20
100.1965037
40
0.2293034
50
179.4465117
51
196.2869258
0
ARC
8
DEFAULT_255_1_234
10
7.0131737
20
100.1831651
40
0.1787621
50
196.5661473
51
227.705904
0
ARC
8
DEFAULT_255_1_234
10
7.0295832
20
100.2015155
40
0.2033784
50
227.7652068
51
257.8762805
0
ARC
8
DEFAULT_255_1_234
10
7.0520802
20
100.2958156
40
0.3003081
50
257.4584385
51
270.426602
0
ARC
8
DEFAULT_255_1_234
10
7.0566368
20
100.3247996
40
0.329292
50
269.5962073
51
280.8789248
0
ARC
8
DEFAULT_255_1_234
10
7.0795897
20
100.2101685
40
0.2123908
50
280.6346389
51
299.8595945
0
ARC
8
DEFAULT_255_1_234
10
7.0986804
20
100.1739212
40
0.171457
50
300.3576302
51
314.5517981
0
ARC
8
DEFAULT_255_1_234
10
7.0903864
20
100.1799919
40
0.1816095
50
315.0728369
51
345.0431014
0
ARC
8
DEFAULT_255_1_234
10
6.9980678
20
100.2068841
40
0.2777492
50
344.5986631
51
357.9269593
0
ARC
8
DEFAULT_255_1_234
10
6.9085005
20
100.2130276
40
0.3674917
50
357.4748886
51
0.0231117
0
ARC
8
DEFAULT_255_1_234
10
7.0108114
20
100.2154679
40
0.2651907
50
359.5047933
51
13.4239635
0
ARC
8
DEFAULT_255_1_234
10
7.0974758
20
100.2376478
40
0.1757509
50
12.9498199
51
48.7551375
0
ARC
8
DEFAULT_255_1_234
10
7.0792492
20
100.21274
40
0.2065134
50
49.5088623
51
72.1836453
0
ARC
8
DEFAULT_255_1_234
10
7.0434644
20
100.1065291
40
0.3185836
50
71.9010081
51
84.3554254
0
ARC
8
DEFAULT_255_1_234
10
7.0273276
20
99.9704326
40
0.4556151
50
84.0193428
51
89.333121
0
LINE
8
DEFAULT_255_1_234
10
4.3652902
20
106.3514211
11
4.3652902
21
105.182
0
LINE
8
DEFAULT_255_1_234
10
4.3652902
20
105.182
11
4.2110808
21
105.182
0
LINE
8
DEFAULT_255_1_234
10
4.2110808
20
105.182
11
4.2110808
21
106.3514211
0
LINE
8
DEFAULT_255_1_234
10
4.2110808
20
106.3514211
11
4.3652902
21
106.3514211
0
LINE
8
DEFAULT_255_1_234
10
5.5459557
20
106.3514211
11
5.5459557
21
105.182
0
LINE
8
DEFAULT_255_1_234
10
5.5459557
20
105.182
11
5.3909432
21
105.182
0
LINE
8
DEFAULT_255_1_234
10
5.3909432
20
105.182
11
4.8022167
21
106.083161
0
LINE
8
DEFAULT_255_1_234
10
4.8022167
20
106.083161
11
4.8022167
21
105.182
0
LINE
8
DEFAULT_255_1_234
10
4.8022167
20
105.182
11
4.6472042
21
105.182
0
LINE
8
DEFAULT_255_1_234
10
4.6472042
20
105.182
11
4.6472042
21
106.3514211
0
LINE
8
DEFAULT_255_1_234
10
4.6472042
20
106.3514211
11
4.8022167
21
106.3514211
0
LINE
8
DEFAULT_255_1_234
10
4.8022167
20
106.3514211
11
5.3925495
21
105.4462442
0
LINE
8
DEFAULT_255_1_234
10
5.3925495
20
105.4462442
11
5.3925495
21
106.3514211
0
LINE
8
DEFAULT_255_1_234
10
5.3925495
20
106.3514211
11
5.5459557
21
106.3514211
0
LINE
8
DEFAULT_255_1_234
10
6.2696153
20
106.3570433
11
6.2696153
21
105.182
0
LINE
8
DEFAULT_255_1_234
10
6.2696153
20
105.182
11
6.120225
21
105.182
0
LINE
8
DEFAULT_255_1_234
10
6.120225
20
105.182
11
6.120225
21
106.1723133
0
LINE
8
DEFAULT_255_1_234
10
6.120225
20
106.1723133
11
5.8206412
21
106.0622785
0
LINE
8
DEFAULT_255_1_234
10
5.8206412
20
106.0622785
11
5.8206412
21
106.1972117
0
LINE
8
DEFAULT_255_1_234
10
5.8206412
20
106.1972117
11
6.2463233
21
106.3570433
0
LINE
8
DEFAULT_255_1_234
10
6.2463233
20
106.3570433
11
6.2696153
21
106.3570433
0
LINE
8
DEFAULT_255_1_234
10
7.4711634
20
105.3032792
11
7.4711634
21
105.182
0
LINE
8
DEFAULT_255_1_234
10
7.4711634
20
105.182
11
6.7049355
21
105.182
0
LINE
8
DEFAULT_255_1_234
10
6.7049355
20
105.182
11
6.7049355
21
105.2888221
0
LINE
8
DEFAULT_255_1_234
10
6.7049355
20
105.2888221
11
7.1097352
21
105.7385995
0
LINE
8
DEFAULT_255_1_234
10
6.8310338
20
106.0068595
11
6.6824467
21
106.0068595
0
LINE
8
DEFAULT_255_1_234
10
7.1972811
20
105.6430218
11
6.8840433
21
105.3032792
0
LINE
8
DEFAULT_255_1_234
10
6.8840433
20
105.3032792
11
7.4711634
21
105.3032792
0
ARC
8
DEFAULT_255_1_234
10
5.7607185
20
106.9315527
40
1.8008286
50
318.5132453
51
320.7828378
0
ARC
8
DEFAULT_255_1_234
10
6.2894159
20
106.5012426
40
1.1191493
50
320.7372736
51
323.9737074
0
ARC
8
DEFAULT_255_1_234
10
6.6814016
20
106.2172361
40
0.6350923
50
323.8961724
51
328.6421089
0
ARC
8
DEFAULT_255_1_234
10
6.8860611
20
106.0910031
40
0.3946393
50
328.8299013
51
331.789948
0
ARC
8
DEFAULT_255_1_234
10
6.985779
20
106.0395509
40
0.2824501
50
331.4255242
51
352.9364833
0
ARC
8
DEFAULT_255_1_234
10
6.999429
20
106.0364976
40
0.2685315
50
353.2248685
51
0.0169286
0
ARC
8
DEFAULT_255_1_234
10
7.0204167
20
106.038795
40
0.2475536
50
359.4866256
51
15.9339782
0
ARC
8
DEFAULT_255_1_234
10
7.0711152
20
106.0524286
40
0.1950618
50
16.1714718
51
43.5284424
0
ARC
8
DEFAULT_255_1_234
10
7.0788461
20
106.0601573
40
0.184134
50
43.4415429
51
83.1661404
0
ARC
8
DEFAULT_255_1_234
10
7.0654379
20
105.9864771
40
0.258926
50
82.160215
51
90.1505798
0
ARC
8
DEFAULT_255_1_234
10
7.0622807
20
105.9327865
40
0.3126255
50
89.5460705
51
102.5418777
0
ARC
8
DEFAULT_255_1_234
10
7.0379893
20
106.0358665
40
0.2067346
50
102.1739365
51
129.2061916
0
ARC
8
DEFAULT_255_1_234
10
7.0300964
20
106.0483094
40
0.1921118
50
129.7279328
51
135.7542026
0
ARC
8
DEFAULT_255_1_234
10
7.0422492
20
106.0386045
40
0.2075944
50
136.175737
51
166.3674722
0
ARC
8
DEFAULT_255_1_234
10
7.1429411
20
106.0116182
40
0.3118201
50
165.9092917
51
178.8683903
0
ARC
8
DEFAULT_255_1_234
10
7.2294273
20
106.0069179
40
0.3983935
50
178.438168
51
180.0083905
0
ARC
8
DEFAULT_255_1_234
10
7.0892875
20
106.0108231
40
0.4068601
50
163.2878735
51
180.5581814
0
ARC
8
DEFAULT_255_1_234
10
7.0091136
20
106.032884
40
0.3237344
50
133.454115
51
162.9470031
0
ARC
8
DEFAULT_255_1_234
10
7.0269677
20
106.0139
40
0.349795
50
100.7869394
51
133.4384016
0
ARC
8
DEFAULT_255_1_234
10
7.0617449
20
105.8590319
40
0.5084616
50
89.6605301
51
101.3704185
0
ARC
8
DEFAULT_255_1_234
10
7.0683788
20
105.8651496
40
0.502348
50
78.2171172
51
90.4130393
0
ARC
8
DEFAULT_255_1_234
10
7.1038866
20
106.0275637
40
0.3361092
50
55.9268222
51
78.4888551
0
ARC
8
DEFAULT_255_1_234
10
7.1235306
20
106.0614324
40
0.2970617
50
47.9292255
51
55.4054003
0
ARC
8
DEFAULT_255_1_234
10
7.1336867
20
106.0717502
40
0.2825983
50
4.3347696
51
48.0560701
0
ARC
8
DEFAULT_255_1_234
10
7.024126
20
106.0547601
40
0.393225
50
359.925209
51
5.5967654
0
ARC
8
DEFAULT_255_1_234
10
7.0670152
20
106.0603816
40
0.3503892
50
337.8914096
51
358.9967724
0
ARC
8
DEFAULT_255_1_234
10
6.7956564
20
106.1650706
40
0.6412172
50
326.9135351
51
338.3505194
0
ARC
8
DEFAULT_255_1_234
10
6.3970868
20
106.4205284
40
1.1146189
50
319.6472867
51
327.095818
0
ARC
8
DEFAULT_255_1_234
10
6.0137871
20
106.7367
40
1.6114559
50
317.2586784
51
319.9046139
0
LINE
8
DEFAULT_255_1_234
10
4.3570902
20
111.6431211
11
4.3570902
21
110.4737
0
LINE
8
DEFAULT_255_1_234
10
4.3570902
20
110.4737
11
4.2028808
21
110.4737
0
LINE
8
DEFAULT_255_1_234
10
4.2028808
20
110.4737
11
4.2028808
21
111.6431211
0
LINE
8
DEFAULT_255_1_234
10
4.2028808
20
111.6431211
11
4.3570902
21
111.6431211
0
LINE
8
DEFAULT_255_1_234
10
5.5377557
20
111.6431211
11
5.5377557
21
110.4737
0
LINE
8
DEFAULT_255_1_234
10
5.5377557
20
110.4737
11
5.3827432
21
110.4737
0
LINE
8
DEFAULT_255_1_234
10
5.3827432
20
110.4737
11
4.7940167
21
111.374861
0
LINE
8
DEFAULT_255_1_234
10
4.7940167
20
111.374861
11
4.7940167
21
110.4737
0
LINE
8
DEFAULT_255_1_234
10
4.7940167
20
110.4737
11
4.6390042
21
110.4737
0
LINE
8
DEFAULT_255_1_234
10
4.6390042
20
110.4737
11
4.6390042
21
111.6431211
0
LINE
8
DEFAULT_255_1_234
10
4.6390042
20
111.6431211
11
4.7940167
21
111.6431211
0
LINE
8
DEFAULT_255_1_234
10
4.7940167
20
111.6431211
11
5.3843495
21
110.7379442
0
LINE
8
DEFAULT_255_1_234
10
5.3843495
20
110.7379442
11
5.3843495
21
111.6431211
0
LINE
8
DEFAULT_255_1_234
10
5.3843495
20
111.6431211
11
5.5377557
21
111.6431211
0
LINE
8
DEFAULT_255_1_234
10
6.2614153
20
111.6487433
11
6.2614153
21
110.4737
0
LINE
8
DEFAULT_255_1_234
10
6.2614153
20
110.4737
11
6.112025
21
110.4737
0
LINE
8
DEFAULT_255_1_234
10
6.112025
20
110.4737
11
6.112025
21
111.4640133
0
LINE
8
DEFAULT_255_1_234
10
6.112025
20
111.4640133
11
5.8124412
21
111.3539785
0
LINE
8
DEFAULT_255_1_234
10
5.8124412
20
111.3539785
11
5.8124412
21
111.4889117
0
LINE
8
DEFAULT_255_1_234
10
5.8124412
20
111.4889117
11
6.2381233
21
111.6487433
0
LINE
8
DEFAULT_255_1_234
10
6.2381233
20
111.6487433
11
6.2614153
21
111.6487433
0
LINE
8
DEFAULT_255_1_234
10
7.1850652
20
111.6487433
11
7.1850652
21
110.4737
0
LINE
8
DEFAULT_255_1_234
10
7.1850652
20
110.4737
11
7.0356749
21
110.4737
0
LINE
8
DEFAULT_255_1_234
10
7.0356749
20
110.4737
11
7.0356749
21
111.4640133
0
LINE
8
DEFAULT_255_1_234
10
7.0356749
20
111.4640133
11
6.7360911
21
111.3539785
0
LINE
8
DEFAULT_255_1_234
10
6.7360911
20
111.3539785
11
6.7360911
21
111.4889117
0
LINE
8
DEFAULT_255_1_234
10
6.7360911
20
111.4889117
11
7.1617732
21
111.6487433
0
LINE
8
DEFAULT_255_1_234
10
7.1617732
20
111.6487433
11
7.1850652
21
111.6487433
0
LINE
8
DEFAULT_255_1_234
10
4.3652902
20
116.9347211
11
4.3652902
21
115.7653
0
LINE
8
DEFAULT_255_1_234
10
4.3652902
20
115.7653
11
4.2110808
21
115.7653
0
LINE
8
DEFAULT_255_1_234
10
4.2110808
20
115.7653
11
4.2110808
21
116.9347211
0
LINE
8
DEFAULT_255_1_234
10
4.2110808
20
116.9347211
11
4.3652902
21
116.9347211
0
LINE
8
DEFAULT_255_1_234
10
5.5459557
20
116.9347211
11
5.5459557
21
115.7653
0
LINE
8
DEFAULT_255_1_234
10
5.5459557
20
115.7653
11
5.3909432
21
115.7653
0
LINE
8
DEFAULT_255_1_234
10
5.3909432
20
115.7653
11
4.8022167
21
116.666461
0
LINE
8
DEFAULT_255_1_234
10
4.8022167
20
116.666461
11
4.8022167
21
115.7653
0
LINE
8
DEFAULT_255_1_234
10
4.8022167
20
115.7653
11
4.6472042
21
115.7653
0
LINE
8
DEFAULT_255_1_234
10
4.6472042
20
115.7653
11
4.6472042
21
116.9347211
0
LINE
8
DEFAULT_255_1_234
10
4.6472042
20
116.9347211
11
4.8022167
21
116.9347211
0
LINE
8
DEFAULT_255_1_234
10
4.8022167
20
116.9347211
11
5.3925495
21
116.0295442
0
LINE
8
DEFAULT_255_1_234
10
5.3925495
20
116.0295442
11
5.3925495
21
116.9347211
0
LINE
8
DEFAULT_255_1_234
10
5.3925495
20
116.9347211
11
5.5459557
21
116.9347211
0
LINE
8
DEFAULT_255_1_234
10
6.2696153
20
116.9403433
11
6.2696153
21
115.7653
0
LINE
8
DEFAULT_255_1_234
10
6.2696153
20
115.7653
11
6.120225
21
115.7653
0
LINE
8
DEFAULT_255_1_234
10
6.120225
20
115.7653
11
6.120225
21
116.7556133
0
LINE
8
DEFAULT_255_1_234
10
6.120225
20
116.7556133
11
5.8206412
21
116.6455785
0
LINE
8
DEFAULT_255_1_234
10
5.8206412
20
116.6455785
11
5.8206412
21
116.7805117
0
LINE
8
DEFAULT_255_1_234
10
5.8206412
20
116.7805117
11
6.2463233
21
116.9403433
0
LINE
8
DEFAULT_255_1_234
10
6.2463233
20
116.9403433
11
6.2696153
21
116.9403433
0
LINE
8
DEFAULT_255_1_234
10
7.4382333
20
116.4568327
11
7.4382333
21
116.2640709
0
LINE
8
DEFAULT_255_1_234
10
6.7001165
20
116.2439916
11
6.7001165
21
116.4423755
0
LINE
8
DEFAULT_255_1_234
10
7.2896461
20
116.2239123
11
7.2896461
21
116.4672739
0
LINE
8
DEFAULT_255_1_234
10
6.8487037
20
116.4785184
11
6.8487037
21
116.2407789
0
ARC
8
DEFAULT_255_1_234
10
6.2135222
20
116.2591805
40
1.2247208
50
353.8441951
51
0.2287902
0
ARC
8
DEFAULT_255_1_234
10
6.6774726
20
116.2073806
40
0.7578929
50
344.4934747
51
353.9765454
0
ARC
8
DEFAULT_255_1_234
10
6.9767316
20
116.1222981
40
0.4467846
50
329.2803592
51
344.7472793
0
ARC
8
DEFAULT_255_1_234
10
7.0760141
20
116.0678018
40
0.3336173
50
324.9352394
51
328.6160465
0
ARC
8
DEFAULT_255_1_234
10
7.113725
20
116.0414427
40
0.2876076
50
280.580143
51
324.9173126
0
ARC
8
DEFAULT_255_1_234
10
7.0736042
20
116.2085099
40
0.4592847
50
269.5977311
51
281.6734359
0
ARC
8
DEFAULT_255_1_234
10
7.0663948
20
116.1965173
40
0.4472986
50
256.6228859
51
270.51044
0
ARC
8
DEFAULT_255_1_234
10
7.0261926
20
116.0416877
40
0.2873874
50
215.8618325
51
257.2788573
0
ARC
8
DEFAULT_255_1_234
10
7.1282957
20
116.1101977
40
0.4102928
50
197.9693508
51
215.2623606
0
ARC
8
DEFAULT_255_1_234
10
7.3768073
20
116.1940709
40
0.6725652
50
187.8816417
51
198.2346507
0
ARC
8
DEFAULT_255_1_234
10
7.7726281
20
116.2512079
40
1.0724845
50
180.8976217
51
188.0055519
0
ARC
8
DEFAULT_255_1_234
10
8.0526469
20
116.2615777
40
1.3526448
50
180.7449369
51
181.1510016
0
ARC
8
DEFAULT_255_1_234
10
7.8949198
20
116.4472042
40
1.1948131
50
173.7675579
51
180.231553
0
ARC
8
DEFAULT_255_1_234
10
7.4431345
20
116.4982666
40
0.7401564
50
164.3058563
51
173.9002247
0
ARC
8
DEFAULT_255_1_234
10
7.1519414
20
116.5821656
40
0.4371288
50
148.7922025
51
164.568378
0
ARC
8
DEFAULT_255_1_234
10
7.0567866
20
116.6352929
40
0.3282386
50
144.5883898
51
148.1176286
0
ARC
8
DEFAULT_255_1_234
10
7.0224764
20
116.6592315
40
0.2864044
50
101.6440918
51
144.514236
0
ARC
8
DEFAULT_255_1_234
10
7.0649831
20
116.4903069
40
0.4604934
50
89.5284041
51
102.5819763
0
ARC
8
DEFAULT_255_1_234
10
7.0728918
20
116.4864018
40
0.464401
50
77.0437873
51
90.5081339
0
ARC
8
DEFAULT_255_1_234
10
7.113092
20
116.6506615
40
0.2953195
50
48.2778575
51
77.4994676
0
ARC
8
DEFAULT_255_1_234
10
7.1203551
20
116.6635746
40
0.2808655
50
36.3142134
51
47.6305865
0
ARC
8
DEFAULT_255_1_234
10
7.0334858
20
116.6050515
40
0.3855453
50
18.2931786
51
35.6769206
0
ARC
8
DEFAULT_255_1_234
10
6.7791617
20
116.5177593
40
0.654423
50
8.024666
51
18.5605216
0
ARC
8
DEFAULT_255_1_234
10
6.3628537
20
116.4562792
40
1.0752407
50
1.1274072
51
8.1718305
0
ARC
8
DEFAULT_255_1_234
10
6.0392728
20
116.4435885
40
1.3990231
50
0.5424119
51
1.3863029
0
ARC
8
DEFAULT_255_1_234
10
6.2214106
20
116.4708342
40
1.0682415
50
359.8090433
51
4.9407866
0
ARC
8
DEFAULT_255_1_234
10
6.642412
20
116.5084113
40
0.6455691
50
4.8362157
51
12.2904523
0
ARC
8
DEFAULT_255_1_234
10
6.9179234
20
116.5697965
40
0.3633074
50
12.0805627
51
23.8173984
0
ARC
8
DEFAULT_255_1_234
10
7.035294
20
116.6194919
40
0.2358723
50
24.2871213
51
31.3935614
0
ARC
8
DEFAULT_255_1_234
10
7.0877637
20
116.6538233
40
0.1732111
50
30.7407893
51
82.4657128
0
ARC
8
DEFAULT_255_1_234
10
7.0697771
20
116.5654691
40
0.263235
50
81.1060089
51
90.2184952
0
ARC
8
DEFAULT_255_1_234
10
7.066207
20
116.5912924
40
0.2374236
50
89.3806855
51
105.6762551
0
ARC
8
DEFAULT_255_1_234
10
7.0478701
20
116.6579567
40
0.1682847
50
105.7981136
51
149.7388061
0
ARC
8
DEFAULT_255_1_234
10
7.1542779
20
116.593995
40
0.2924306
50
149.4208916
51
163.6286378
0
ARC
8
DEFAULT_255_1_234
10
7.3633667
20
116.530225
40
0.5110213
50
163.3763315
51
172.1410975
0
ARC
8
DEFAULT_255_1_234
10
7.6934386
20
116.4829518
40
0.8444586
50
172.0259487
51
178.0703232
0
ARC
8
DEFAULT_255_1_234
10
7.9964476
20
116.4685906
40
1.1477868
50
177.8631668
51
179.5044149
0
ARC
8
DEFAULT_255_1_234
10
7.889188
20
116.2371389
40
1.0404907
50
179.7995573
51
185.2460446
0
ARC
8
DEFAULT_255_1_234
10
7.4848919
20
116.1988513
40
0.6343885
50
185.1411642
51
193.0079639
0
ARC
8
DEFAULT_255_1_234
10
7.2205392
20
116.1363641
40
0.3627568
50
192.7897626
51
205.2507664
0
ARC
8
DEFAULT_255_1_234
10
7.1158939
20
116.0896415
40
0.2481908
50
205.8005384
51
211.2537509
0
ARC
8
DEFAULT_255_1_234
10
7.0635379
20
116.054558
40
0.1852521
50
210.3789793
51
238.4008143
0
ARC
8
DEFAULT_255_1_234
10
7.0615901
20
116.0592376
40
0.1882621
50
239.6520629
51
265.9793761
0
ARC
8
DEFAULT_255_1_234
10
7.0701101
20
116.1264427
40
0.2559272
50
265.1315437
51
270.060332
0
ARC
8
DEFAULT_255_1_234
10
7.072988
20
116.0940534
40
0.2235528
50
269.3314664
51
287.2178029
0
ARC
8
DEFAULT_255_1_234
10
7.0867732
20
116.0437279
40
0.1714108
50
287.7958004
51
329.080874
0
ARC
8
DEFAULT_255_1_234
10
6.9910189
20
116.103493
40
0.2842745
50
328.6634704
51
343.3325132
0
ARC
8
DEFAULT_255_1_234
10
6.7737209
20
116.1711863
40
0.5118644
50
343.0499468
51
351.9393422
0
ARC
8
DEFAULT_255_1_234
10
6.4270509
20
116.2222949
40
0.8622784
50
351.8069023
51
357.7959224
0
ARC
8
DEFAULT_255_1_234
10
6.1035065
20
116.2390721
40
1.1862365
50
357.5871873
51
359.2677531
0
LINE
8
DEFAULT_255_1_234
10
4.3082902
20
122.2264211
11
4.3082902
21
121.057
0
LINE
8
DEFAULT_255_1_234
10
4.3082902
20
121.057
11
4.1540808
21
121.057
0
LINE
8
DEFAULT_255_1_234
10
4.1540808
20
121.057
11
4.1540808
21
122.2264211
0
LINE
8
DEFAULT_255_1_234
10
4.1540808
20
122.2264211
11
4.3082902
21
122.2264211
0
LINE
8
DEFAULT_255_1_234
10
5.4889557
20
122.2264211
11
5.4889557
21
121.057
0
LINE
8
DEFAULT_255_1_234
10
5.4889557
20
121.057
11
5.3339432
21
121.057
0
LINE
8
DEFAULT_255_1_234
10
5.3339432
20
121.057
11
4.7452167
21
121.958161
0
LINE
8
DEFAULT_255_1_234
10
4.7452167
20
121.958161
11
4.7452167
21
121.057
0
LINE
8
DEFAULT_255_1_234
10
4.7452167
20
121.057
11
4.5902042
21
121.057
0
LINE
8
DEFAULT_255_1_234
10
4.5902042
20
121.057
11
4.5902042
21
122.2264211
0
LINE
8
DEFAULT_255_1_234
10
4.5902042
20
122.2264211
11
4.7452167
21
122.2264211
0
LINE
8
DEFAULT_255_1_234
10
4.7452167
20
122.2264211
11
5.3355495
21
121.3212442
0
LINE
8
DEFAULT_255_1_234
10
5.3355495
20
121.3212442
11
5.3355495
21
122.2264211
0
LINE
8
DEFAULT_255_1_234
10
5.3355495
20
122.2264211
11
5.4889557
21
122.2264211
0
LINE
8
DEFAULT_255_1_234
10
6.4431262
20
121.7589739
11
6.4431262
21
121.7156025
0
LINE
8
DEFAULT_255_1_234
10
5.9009839
20
121.0561968
11
5.8720696
21
121.0561968
0
LINE
8
DEFAULT_255_1_234
10
5.8720696
20
121.0561968
11
5.8720696
21
121.1814919
0
LINE
8
DEFAULT_255_1_234
10
5.8720696
20
121.1814919
11
5.9033934
21
121.1814919
0
LINE
8
DEFAULT_255_1_234
10
6.2945391
20
121.7300597
11
6.2945391
21
121.7894945
0
ARC
8
DEFAULT_255_1_234
10
6.015166
20
121.8046403
40
0.3635579
50
297.4037347
51
320.016758
0
ARC
8
DEFAULT_255_1_234
10
6.0441609
20
121.748924
40
0.3007486
50
270.2633101
51
297.3851877
0
ARC
8
DEFAULT_255_1_234
10
6.0407565
20
121.7952904
40
0.3471448
50
269.9966443
51
270.7900392
0
ARC
8
DEFAULT_255_1_234
10
6.0382046
20
121.7951143
40
0.3469779
50
254.5999133
51
270.4180344
0
ARC
8
DEFAULT_255_1_234
10
6.0239406
20
121.7386647
40
0.2887697
50
236.4717942
51
254.3541279
0
ARC
8
DEFAULT_255_1_234
10
6.0395623
20
121.7596711
40
0.3149125
50
208.4727207
51
236.2134933
0
ARC
8
DEFAULT_255_1_234
10
6.1034398
20
121.7987455
40
0.3897115
50
204.3447514
51
209.0453999
0
ARC
8
DEFAULT_255_1_234
10
6.1713974
20
121.8275656
40
0.4635101
50
183.9375985
51
204.1276318
0
ARC
8
DEFAULT_255_1_234
10
6.2622225
20
121.8373482
40
0.5548037
50
179.9652252
51
184.3013875
0
ARC
8
DEFAULT_255_1_234
10
6.2382272
20
121.8406507
40
0.5308164
50
166.7585989
51
180.3201225
0
ARC
8
DEFAULT_255_1_234
10
6.1535885
20
121.8590488
40
0.4442163
50
154.6955053
51
166.5679793
0
ARC
8
DEFAULT_255_1_234
10
6.0682755
20
121.902021
40
0.3487299
50
136.3324195
51
155.0871442
0
ARC
8
DEFAULT_255_1_234
10
6.0401828
20
121.9260954
40
0.3117924
50
121.236733
51
135.9680508
0
ARC
8
DEFAULT_255_1_234
10
6.0542326
20
121.9000743
40
0.3413302
50
96.845628
51
120.9881519
0
ARC
8
DEFAULT_255_1_234
10
6.0687908
20
121.8065515
40
0.4359341
50
89.8870174
51
97.2802754
0
ARC
8
DEFAULT_255_1_234
10
6.0740346
20
121.8703095
40
0.3722009
50
70.6505584
51
90.6749113
0
ARC
8
DEFAULT_255_1_234
10
6.0871625
20
121.9216361
40
0.3194571
50
36.7492984
51
69.8219918
0
ARC
8
DEFAULT_255_1_234
10
5.987279
20
121.8437993
40
0.4460685
50
15.39587
51
37.0840084
0
ARC
8
DEFAULT_255_1_234
10
5.7743223
20
121.7817242
40
0.6678714
50
3.9488873
51
15.6798563
0
ARC
8
DEFAULT_255_1_234
10
5.5341851
20
121.7600964
40
0.9089418
50
359.929245
51
4.2665314
0
ARC
8
DEFAULT_255_1_234
10
5.0736288
20
121.7089513
40
1.3695135
50
352.8366322
51
0.2782669
0
ARC
8
DEFAULT_255_1_234
10
5.6023967
20
121.6402629
40
0.8363105
50
341.8359505
51
352.9884176
0
ARC
8
DEFAULT_255_1_234
10
5.9242686
20
121.53177
40
0.4966642
50
322.8578092
51
342.1527901
0
ARC
8
DEFAULT_255_1_234
10
6.0106642
20
121.4728384
40
0.3922466
50
319.334325
51
322.0998941
0
ARC
8
DEFAULT_255_1_234
10
5.9796979
20
121.5039209
40
0.4360033
50
285.9541367
51
318.8878087
0
ARC
8
DEFAULT_255_1_234
10
5.907024
20
121.73496
40
0.678149
50
272.9281676
51
286.4922826
0
ARC
8
DEFAULT_255_1_234
10
5.8880358
20
121.9600587
40
0.9039547
50
270.8207226
51
273.4012994
0
ARC
8
DEFAULT_255_1_234
10
5.8969209
20
121.7781666
40
0.5967098
50
270.6214993
51
281.4062806
0
ARC
8
DEFAULT_255_1_234
10
5.939919
20
121.5725833
40
0.3866861
50
281.1852553
51
299.0621114
0
ARC
8
DEFAULT_255_1_234
10
5.9772761
20
121.5004798
40
0.3055236
50
299.5067782
51
313.1200873
0
ARC
8
DEFAULT_255_1_234
10
5.9794728
20
121.4925554
40
0.2982623
50
313.8526205
51
338.5989322
0
ARC
8
DEFAULT_255_1_234
10
5.8170802
20
121.5592781
40
0.4738131
50
338.2523585
51
351.2430902
0
ARC
8
DEFAULT_255_1_234
10
5.5760098
20
121.6002447
40
0.7183203
50
350.9409515
51
357.6691871
0
ARC
8
DEFAULT_255_1_234
10
6.0650528
20
121.8004764
40
0.2294452
50
269.9447023
51
306.8248917
0
ARC
8
DEFAULT_255_1_234
10
6.0413443
20
121.8427898
40
0.2775994
50
305.5072438
51
327.0773448
0
ARC
8
DEFAULT_255_1_234
10
6.0531884
20
121.8333025
40
0.2625056
50
327.4104943
51
336.840169
0
ARC
8
DEFAULT_255_1_234
10
5.7437949
20
121.7927302
40
0.5507537
50
359.6633817
51
10.117533
0
ARC
8
DEFAULT_255_1_234
10
5.9191747
20
121.8251777
40
0.372403
50
9.9430141
51
26.7700076
0
ARC
8
DEFAULT_255_1_234
10
5.9788959
20
121.8527187
40
0.3066865
50
27.2015464
51
34.6829435
0
ARC
8
DEFAULT_255_1_234
10
6.027844
20
121.8894977
40
0.245519
50
34.1250343
51
50.3070065
0
ARC
8
DEFAULT_255_1_234
10
6.0725119
20
121.9429385
40
0.1758693
50
50.3851167
51
90.6705993
0
ARC
8
DEFAULT_255_1_234
10
6.0678352
20
121.9124799
40
0.2063326
50
89.272901
51
111.9140407
0
ARC
8
DEFAULT_255_1_234
10
6.065888
20
121.926544
40
0.1925887
50
112.9382311
51
142.5320782
0
ARC
8
DEFAULT_255_1_234
10
6.120506
20
121.8821969
40
0.2629232
50
142.1021256
51
166.3835592
0
ARC
8
DEFAULT_255_1_234
10
6.2386365
20
121.8516915
40
0.3849193
50
166.1100289
51
178.665427
0
ARC
8
DEFAULT_255_1_234
10
6.3433955
20
121.8458117
40
0.4897989
50
178.2632126
51
180.0111093
0
ARC
8
DEFAULT_255_1_234
10
6.2632075
20
121.8429728
40
0.40962
50
179.6161962
51
191.8787166
0
ARC
8
DEFAULT_255_1_234
10
6.1411914
20
121.8159896
40
0.2846655
50
191.6191692
51
215.2972286
0
ARC
8
DEFAULT_255_1_234
10
6.1215105
20
121.8044918
40
0.2619665
50
215.7320102
51
216.5355409
0
ARC
8
DEFAULT_255_1_234
10
6.0676191
20
121.7612647
40
0.1929497
50
215.7486685
51
239.9727502
0
ARC
8
DEFAULT_255_1_234
10
6.0606107
20
121.7561894
40
0.1850822
50
241.0650169
51
269.2810483
0
ARC
8
DEFAULT_255_1_234
10
6.0648022
20
121.8052371
40
0.2342059
50
268.4062526
51
270.0071348
0
LINE
8
DEFAULT_255_1_234
10
4.3082902
20
127.5181211
11
4.3082902
21
126.3487
0
LINE
8
DEFAULT_255_1_234
10
4.3082902
20
126.3487
11
4.1540808
21
126.3487
0
LINE
8
DEFAULT_255_1_234
10
4.1540808
20
126.3487
11
4.1540808
21
127.5181211
0
LINE
8
DEFAULT_255_1_234
10
4.1540808
20
127.5181211
11
4.3082902
21
127.5181211
0
LINE
8
DEFAULT_255_1_234
10
5.4889557
20
127.5181211
11
5.4889557
21
126.3487
0
LINE
8
DEFAULT_255_1_234
10
5.4889557
20
126.3487
11
5.3339432
21
126.3487
0
LINE
8
DEFAULT_255_1_234
10
5.3339432
20
126.3487
11
4.7452167
21
127.249861
0
LINE
8
DEFAULT_255_1_234
10
4.7452167
20
127.249861
11
4.7452167
21
126.3487
0
LINE
8
DEFAULT_255_1_234
10
4.7452167
20
126.3487
11
4.5902042
21
126.3487
0
LINE
8
DEFAULT_255_1_234
10
4.5902042
20
126.3487
11
4.5902042
21
127.5181211
0
LINE
8
DEFAULT_255_1_234
10
4.5902042
20
127.5181211
11
4.7452167
21
127.5181211
0
LINE
8
DEFAULT_255_1_234
10
4.7452167
20
127.5181211
11
5.3355495
21
126.6129442
0
LINE
8
DEFAULT_255_1_234
10
5.3355495
20
126.6129442
11
5.3355495
21
127.5181211
0
LINE
8
DEFAULT_255_1_234
10
5.3355495
20
127.5181211
11
5.4889557
21
127.5181211
0
ARC
8
DEFAULT_255_1_234
10
6.151264
20
127.2103703
40
0.2822356
50
338.8763615
51
0.5166041
0
ARC
8
DEFAULT_255_1_234
10
6.1681294
20
127.2058208
40
0.2648703
50
325.8412414
51
338.4795939
0
ARC
8
DEFAULT_255_1_234
10
6.1290662
20
127.2329042
40
0.3124019
50
296.7586019
51
325.753654
0
ARC
8
DEFAULT_255_1_234
10
6.100277
20
127.2813789
40
0.368668
50
296.0902311
51
297.3618122
0
ARC
8
DEFAULT_255_1_234
10
6.1260228
20
126.6259041
40
0.3518806
50
47.9009248
51
67.1946869
0
ARC
8
DEFAULT_255_1_234
10
6.145647
20
126.6505395
40
0.320451
50
35.236241
51
47.551371
0
ARC
8
DEFAULT_255_1_234
10
6.1718088
20
126.6679993
40
0.2890103
50
359.2759738
51
35.4014081
0
ARC
8
DEFAULT_255_1_234
10
6.0973119
20
126.6606826
40
0.3635026
50
343.1294516
51
0.5776525
0
ARC
8
DEFAULT_255_1_234
10
6.1697664
20
126.640733
40
0.2883832
50
310.8497458
51
342.744803
0
ARC
8
DEFAULT_255_1_234
10
6.1279777
20
126.6884294
40
0.3517954
50
281.5473923
51
310.9169905
0
ARC
8
DEFAULT_255_1_234
10
6.0923227
20
126.8437084
40
0.5110832
50
269.6192722
51
281.9789957
0
ARC
8
DEFAULT_255_1_234
10
6.0851016
20
126.8437828
40
0.5111606
50
257.4584469
51
270.4287458
0
ARC
8
DEFAULT_255_1_234
10
6.0470159
20
126.6834344
40
0.3463762
50
228.7553743
51
257.8484423
0
ARC
8
DEFAULT_255_1_234
10
6.0160357
20
126.6461442
40
0.297916
50
184.0104442
51
228.5071787
0
ARC
8
DEFAULT_255_1_234
10
6.1323301
20
126.6638512
40
0.4152734
50
179.9315461
51
185.3254504
0
ARC
8
DEFAULT_255_1_234
10
6.0146947
20
126.6675992
40
0.2976554
50
145.6795913
51
180.6259649
0
ARC
8
DEFAULT_255_1_234
10
6.0310296
20
126.6561929
40
0.3175776
50
115.5537925
51
145.6416199
0
ARC
8
DEFAULT_255_1_234
10
6.0651227
20
126.5951028
40
0.3874232
50
113.2437915
51
116.2054627
0
ARC
8
DEFAULT_255_1_234
10
6.0498439
20
127.234958
40
0.3154751
50
222.9548379
51
244.1372485
0
ARC
8
DEFAULT_255_1_234
10
6.0376514
20
127.2212834
40
0.2972382
50
213.3439227
51
222.6271327
0
ARC
8
DEFAULT_255_1_234
10
6.0184449
20
127.2082308
40
0.274019
50
180.4316517
51
213.2713999
0
ARC
8
DEFAULT_255_1_234
10
6.075945
20
127.212911
40
0.33158
50
179.9992944
51
181.1655061
0
ARC
8
DEFAULT_255_1_234
10
6.1168867
20
127.2163561
40
0.3725376
50
164.6186108
51
180.5292368
0
ARC
8
DEFAULT_255_1_234
10
6.027073
20
127.2405101
40
0.2795349
50
132.2454369
51
164.5092287
0
ARC
8
DEFAULT_255_1_234
10
6.0557834
20
127.2080028
40
0.3229019
50
100.7052766
51
132.1387266
0
ARC
8
DEFAULT_255_1_234
10
6.0862806
20
127.0702086
40
0.4639835
50
89.6732617
51
101.2449487
0
ARC
8
DEFAULT_255_1_234
10
6.0925004
20
127.087699
40
0.4464999
50
76.2876631
51
90.4586123
0
ARC
8
DEFAULT_255_1_234
10
6.1231236
20
127.209922
40
0.3205023
50
47.8240157
51
76.4266918
0
ARC
8
DEFAULT_255_1_234
10
6.1453786
20
127.235959
40
0.2862661
50
6.9168658
51
47.6261438
0
ARC
8
DEFAULT_255_1_234
10
6.0267189
20
127.214037
40
0.4067708
50
359.8419705
51
7.9694496
0
ARC
8
DEFAULT_255_1_234
10
6.0609086
20
126.6699925
40
0.2513121
50
359.4454068
51
16.9256425
0
ARC
8
DEFAULT_255_1_234
10
6.1077897
20
126.6829033
40
0.2027071
50
17.292259
51
45.462717
0
ARC
8
DEFAULT_255_1_234
10
6.1023833
20
126.6782434
40
0.2098212
50
45.3028762
51
83.1921472
0
ARC
8
DEFAULT_255_1_234
10
6.0880517
20
126.5980895
40
0.2911472
50
82.2614531
51
90.143954
0
ARC
8
DEFAULT_255_1_234
10
6.0849637
20
126.621395
40
0.2678513
50
89.4959189
51
104.8579811
0
ARC
8
DEFAULT_255_1_234
10
6.0672896
20
126.688389
40
0.1985654
50
104.8855873
51
135.2448349
0
ARC
8
DEFAULT_255_1_234
10
6.0722669
20
126.6839336
40
0.2052373
50
135.3398955
51
172.104394
0
ARC
8
DEFAULT_255_1_234
10
6.1529727
20
126.6684925
40
0.2873299
50
171.2651929
51
180.1859362
0
ARC
8
DEFAULT_255_1_234
10
6.1360428
20
126.6652733
40
0.2704083
50
179.515471
51
193.6466734
0
ARC
8
DEFAULT_255_1_234
10
6.0544197
20
126.6444777
40
0.1861855
50
193.3540587
51
225.8256931
0
ARC
8
DEFAULT_255_1_234
10
6.0584955
20
126.6515524
40
0.1941102
50
226.418029
51
255.8553723
0
ARC
8
DEFAULT_255_1_234
10
6.0841387
20
126.7451998
40
0.2911917
50
255.4655572
51
268.7985967
0
ARC
8
DEFAULT_255_1_234
10
6.0888579
20
126.8290491
40
0.3751331
50
268.3464808
51
270.0104874
0
ARC
8
DEFAULT_255_1_234
10
6.0911967
20
126.7606138
40
0.3067064
50
269.575914
51
282.0823146
0
ARC
8
DEFAULT_255_1_234
10
6.1136876
20
126.6611803
40
0.2047712
50
281.7522535
51
306.6056425
0
ARC
8
DEFAULT_255_1_234
10
6.1235302
20
126.6450487
40
0.1859604
50
307.1350025
51
314.0277951
0
ARC
8
DEFAULT_255_1_234
10
6.1199386
20
126.6476766
40
0.1903475
50
314.2553419
51
350.169324
0
ARC
8
DEFAULT_255_1_234
10
6.0347855
20
126.6661409
40
0.2774269
50
349.4145679
51
0.2930737
0
ARC
8
DEFAULT_255_1_234
10
6.0868288
20
127.1820353
40
0.2300764
50
89.477591
51
105.729794
0
ARC
8
DEFAULT_255_1_234
10
6.0732202
20
127.2325637
40
0.1777519
50
105.922966
51
135.1662921
0
ARC
8
DEFAULT_255_1_234
10
6.0752704
20
127.2311419
40
0.1802087
50
135.3053131
51
168.9882338
0
ARC
8
DEFAULT_255_1_234
10
6.1580277
20
127.2121721
40
0.2650806
50
168.3802067
51
180.3602358
0
ARC
8
DEFAULT_255_1_234
10
6.1351856
20
127.2084041
40
0.2422425
50
179.5029707
51
194.9126783
0
ARC
8
DEFAULT_255_1_234
10
6.0766517
20
127.193011
40
0.1817188
50
194.9722181
51
224.1943972
0
ARC
8
DEFAULT_255_1_234
10
6.0738384
20
127.1907169
40
0.1781027
50
224.2961434
51
262.0157375
0
ARC
8
DEFAULT_255_1_234
10
6.0880627
20
127.2638661
40
0.2525492
50
261.1250369
51
270.1959853
0
ARC
8
DEFAULT_255_1_234
10
6.0910382
20
127.2451339
40
0.233825
50
269.4825617
51
285.0988277
0
ARC
8
DEFAULT_255_1_234
10
6.1064541
20
127.187299
40
0.1739712
50
285.1585659
51
315.9484648
0
ARC
8
DEFAULT_255_1_234
10
6.0975553
20
127.1954886
40
0.1860616
50
316.0412958
51
351.9162715
0
ARC
8
DEFAULT_255_1_234
10
6.0242508
20
127.2096245
40
0.2606517
50
351.1056823
51
0.1936567
0
ARC
8
DEFAULT_255_1_234
10
6.0505337
20
127.2126369
40
0.234377
50
359.4789506
51
16.0679113
0
ARC
8
DEFAULT_255_1_234
10
6.0981296
20
127.225481
40
0.1850875
50
16.3251951
51
44.791304
0
ARC
8
DEFAULT_255_1_234
10
6.0963577
20
127.2255339
40
0.186312
50
44.3958661
51
88.2498933
0
ARC
8
DEFAULT_255_1_234
10
6.0890131
20
127.1644154
40
0.2476868
50
86.9833827
51
90.0200148
0
LINE
8
DEFAULT_255_1_234
10
4.3082902
20
132.8097211
11
4.3082902
21
131.6403
0
LINE
8
DEFAULT_255_1_234
10
4.3082902
20
131.6403
11
4.1540808
21
131.6403
0
LINE
8
DEFAULT_255_1_234
10
4.1540808
20
131.6403
11
4.1540808
21
132.8097211
0
LINE
8
DEFAULT_255_1_234
10
4.1540808
20
132.8097211
11
4.3082902
21
132.8097211
0
LINE
8
DEFAULT_255_1_234
10
5.4889557
20
132.8097211
11
5.4889557
21
131.6403
0
LINE
8
DEFAULT_255_1_234
10
5.4889557
20
131.6403
11
5.3339432
21
131.6403
0
LINE
8
DEFAULT_255_1_234
10
5.3339432
20
131.6403
11
4.7452167
21
132.541461
0
LINE
8
DEFAULT_255_1_234
10
4.7452167
20
132.541461
11
4.7452167
21
131.6403
0
LINE
8
DEFAULT_255_1_234
10
4.7452167
20
131.6403
11
4.5902042
21
131.6403
0
LINE
8
DEFAULT_255_1_234
10
4.5902042
20
131.6403
11
4.5902042
21
132.8097211
0
LINE
8
DEFAULT_255_1_234
10
4.5902042
20
132.8097211
11
4.7452167
21
132.8097211
0
LINE
8
DEFAULT_255_1_234
10
4.7452167
20
132.8097211
11
5.3355495
21
131.9045442
0
LINE
8
DEFAULT_255_1_234
10
5.3355495
20
131.9045442
11
5.3355495
21
132.8097211
0
LINE
8
DEFAULT_255_1_234
10
5.3355495
20
132.8097211
11
5.4889557
21
132.8097211
0
LINE
8
DEFAULT_255_1_234
10
6.479269
20
132.8097211
11
6.479269
21
132.726191
0
LINE
8
DEFAULT_255_1_234
10
6.479269
20
132.726191
11
5.9949552
21
131.6403
0
LINE
8
DEFAULT_255_1_234
10
5.9949552
20
131.6403
11
5.8391395
21
131.6403
0
LINE
8
DEFAULT_255_1_234
10
5.8391395
20
131.6403
11
6.321847
21
132.6876387
0
LINE
8
DEFAULT_255_1_234
10
6.321847
20
132.6876387
11
5.688946
21
132.6876387
0
LINE
8
DEFAULT_255_1_234
10
5.688946
20
132.6876387
11
5.688946
21
132.8097211
0
LINE
8
DEFAULT_255_1_234
10
5.688946
20
132.8097211
11
6.479269
21
132.8097211
0
LINE
8
DEFAULT_255_1_234
10
4.3082902
20
138.1014211
11
4.3082902
21
136.932
0
LINE
8
DEFAULT_255_1_234
10
4.3082902
20
136.932
11
4.1540808
21
136.932
0
LINE
8
DEFAULT_255_1_234
10
4.1540808
20
136.932
11
4.1540808
21
138.1014211
0
LINE
8
DEFAULT_255_1_234
10
4.1540808
20
138.1014211
11
4.3082902
21
138.1014211
0
LINE
8
DEFAULT_255_1_234
10
5.4889557
20
138.1014211
11
5.4889557
21
136.932
0
LINE
8
DEFAULT_255_1_234
10
5.4889557
20
136.932
11
5.3339432
21
136.932
0
LINE
8
DEFAULT_255_1_234
10
5.3339432
20
136.932
11
4.7452167
21
137.833161
0
LINE
8
DEFAULT_255_1_234
10
4.7452167
20
137.833161
11
4.7452167
21
136.932
0
LINE
8
DEFAULT_255_1_234
10
4.7452167
20
136.932
11
4.5902042
21
136.932
0
LINE
8
DEFAULT_255_1_234
10
4.5902042
20
136.932
11
4.5902042
21
138.1014211
0
LINE
8
DEFAULT_255_1_234
10
4.5902042
20
138.1014211
11
4.7452167
21
138.1014211
0
LINE
8
DEFAULT_255_1_234
10
4.7452167
20
138.1014211
11
5.3355495
21
137.1962442
0
LINE
8
DEFAULT_255_1_234
10
5.3355495
20
137.1962442
11
5.3355495
21
138.1014211
0
LINE
8
DEFAULT_255_1_234
10
5.3355495
20
138.1014211
11
5.4889557
21
138.1014211
0
LINE
8
DEFAULT_255_1_234
10
6.2808851
20
138.1022243
11
6.3073898
21
138.1022243
0
LINE
8
DEFAULT_255_1_234
10
6.3073898
20
138.1022243
11
6.3073898
21
137.976126
0
LINE
8
DEFAULT_255_1_234
10
6.3073898
20
137.976126
11
6.2800819
21
137.976126
0
LINE
8
DEFAULT_255_1_234
10
5.7331206
20
137.3769583
11
5.7331206
21
137.4339836
0
LINE
8
DEFAULT_255_1_234
10
5.8825109
20
137.4147075
11
5.8825109
21
137.3600917
0
ARC
8
DEFAULT_255_1_234
10
6.2853167
20
137.4763455
40
0.4998079
50
90.6001036
51
104.514704
0
ARC
8
DEFAULT_255_1_234
10
6.2464683
20
137.6208131
40
0.3502176
50
104.2855254
51
133.862935
0
ARC
8
DEFAULT_255_1_234
10
6.262844
20
137.609983
40
0.3693984
50
134.5302688
51
161.6210873
0
ARC
8
DEFAULT_255_1_234
10
6.4281629
20
137.5516895
40
0.5446739
50
161.2849839
51
174.2076652
0
ARC
8
DEFAULT_255_1_234
10
6.5688566
20
137.5322787
40
0.6866274
50
173.7810589
51
174.9254635
0
ARC
8
DEFAULT_255_1_234
10
6.1138398
20
137.3939839
40
0.3033419
50
95.8330959
51
138.9954921
0
ARC
8
DEFAULT_255_1_234
10
6.1361754
20
137.2661375
40
0.4328947
50
89.8753725
51
97.0544009
0
ARC
8
DEFAULT_255_1_234
10
6.140922
20
137.3496748
40
0.3493769
50
71.6407809
51
90.6240094
0
ARC
8
DEFAULT_255_1_234
10
6.1559793
20
137.4051082
40
0.2920396
50
39.6367836
51
71.019018
0
ARC
8
DEFAULT_255_1_234
10
6.0923266
20
137.3500998
40
0.3761538
50
10.658731
51
39.9043955
0
ARC
8
DEFAULT_255_1_234
10
5.9375349
20
137.3164686
40
0.5345136
50
359.682601
51
11.132623
0
ARC
8
DEFAULT_255_1_234
10
5.933548
20
137.309401
40
0.5385081
50
347.2486944
51
0.4369317
0
ARC
8
DEFAULT_255_1_234
10
6.1002957
20
137.2692807
40
0.3670249
50
318.1409698
51
347.6118597
0
ARC
8
DEFAULT_255_1_234
10
6.132795
20
137.2425702
40
0.3250007
50
275.6342139
51
317.8248465
0
ARC
8
DEFAULT_255_1_234
10
6.1107062
20
137.3725219
40
0.4565864
50
269.8874292
51
276.7917694
0
ARC
8
DEFAULT_255_1_234
10
6.1052132
20
137.2699743
40
0.3540676
50
246.9140195
51
270.7437342
0
ARC
8
DEFAULT_255_1_234
10
6.1058522
20
137.2557384
40
0.3412781
50
218.1665114
51
245.878116
0
ARC
8
DEFAULT_255_1_234
10
6.1937983
20
137.3293279
40
0.455911
50
191.4115814
51
218.6077802
0
ARC
8
DEFAULT_255_1_234
10
6.3876072
20
137.3727833
40
0.6545001
50
179.6345085
51
191.7836486
0
ARC
8
DEFAULT_255_1_234
10
6.9458409
20
137.4406697
40
1.2127388
50
171.4525249
51
180.3158839
0
ARC
8
DEFAULT_255_1_234
10
6.5063285
20
137.5090608
40
0.7679464
50
157.9802646
51
171.6246686
0
ARC
8
DEFAULT_255_1_234
10
6.2849306
20
137.5973421
40
0.5296008
50
141.4298019
51
157.854097
0
ARC
8
DEFAULT_255_1_234
10
6.2207627
20
137.6427381
40
0.4511509
50
102.8715806
51
140.8564722
0
ARC
8
DEFAULT_255_1_234
10
6.2855242
20
137.3987552
40
0.7034845
50
90.3778349
51
103.5869322
0
ARC
8
DEFAULT_255_1_234
10
6.1117018
20
137.338273
40
0.2370698
50
89.8751008
51
126.2071704
0
ARC
8
DEFAULT_255_1_234
10
6.1162808
20
137.3228303
40
0.2522934
50
124.9745049
51
144.895901
0
ARC
8
DEFAULT_255_1_234
10
6.0986999
20
137.337156
40
0.2296779
50
145.2974905
51
160.2660252
0
ARC
8
DEFAULT_255_1_234
10
6.4059537
20
137.3569071
40
0.5234525
50
179.6514266
51
190.2855912
0
ARC
8
DEFAULT_255_1_234
10
6.2365675
20
137.3249786
40
0.3510893
50
190.0945431
51
207.5098196
0
ARC
8
DEFAULT_255_1_234
10
6.1799944
20
137.2980623
40
0.288489
50
207.9583163
51
216.3251085
0
ARC
8
DEFAULT_255_1_234
10
6.1460052
20
137.2701105
40
0.2445587
50
215.7661442
51
232.5456785
0
ARC
8
DEFAULT_255_1_234
10
6.1077035
20
137.2214482
40
0.1826382
50
232.8005391
51
270.6605633
0
ARC
8
DEFAULT_255_1_234
10
6.1122736
20
137.2578612
40
0.2190529
50
269.35537
51
288.4744281
0
ARC
8
DEFAULT_255_1_234
10
6.1215633
20
137.2229118
40
0.1829749
50
289.1833337
51
322.9683818
0
ARC
8
DEFAULT_255_1_234
10
6.0604155
20
137.2711391
40
0.2608399
50
322.6007884
51
346.5182367
0
ARC
8
DEFAULT_255_1_234
10
5.9446751
20
137.3006616
40
0.3802777
50
346.2582162
51
358.7741648
0
ARC
8
DEFAULT_255_1_234
10
5.842842
20
137.3061965
40
0.4822176
50
358.3755224
51
0.0098023
0
ARC
8
DEFAULT_255_1_234
10
5.9184607
20
137.3089657
40
0.4066078
50
359.6214041
51
11.2839074
0
ARC
8
DEFAULT_255_1_234
10
6.0461754
20
137.3356066
40
0.2761514
50
11.0482309
51
31.8146458
0
ARC
8
DEFAULT_255_1_234
10
6.0770797
20
137.3523584
40
0.2410679
50
32.3035391
51
38.082671
0
ARC
8
DEFAULT_255_1_234
10
6.1191457
20
137.3904662
40
0.1844966
50
36.825067
51
85.7415724
0
ARC
8
DEFAULT_255_1_234
10
6.112429
20
137.3404301
40
0.2349122
50
85.0140713
51
90.0513278
0
LINE
8
DEFAULT_255_1_234
10
4.3082902
20
143.3931211
11
4.3082902
21
142.2237
0
LINE
8
DEFAULT_255_1_234
10
4.3082902
20
142.2237
11
4.1540808
21
142.2237
0
LINE
8
DEFAULT_255_1_234
10
4.1540808
20
142.2237
11
4.1540808
21
143.3931211
0
LINE
8
DEFAULT_255_1_234
10
4.1540808
20
143.3931211
11
4.3082902
21
143.3931211
0
LINE
8
DEFAULT_255_1_234
10
5.4889557
20
143.3931211
11
5.4889557
21
142.2237
0
LINE
8
DEFAULT_255_1_234
10
5.4889557
20
142.2237
11
5.3339432
21
142.2237
0
LINE
8
DEFAULT_255_1_234
10
5.3339432
20
142.2237
11
4.7452167
21
143.124861
0
LINE
8
DEFAULT_255_1_234
10
4.7452167
20
143.124861
11
4.7452167
21
142.2237
0
LINE
8
DEFAULT_255_1_234
10
4.7452167
20
142.2237
11
4.5902042
21
142.2237
0
LINE
8
DEFAULT_255_1_234
10
4.5902042
20
142.2237
11
4.5902042
21
143.3931211
0
LINE
8
DEFAULT_255_1_234
10
4.5902042
20
143.3931211
11
4.7452167
21
143.3931211
0
LINE
8
DEFAULT_255_1_234
10
4.7452167
20
143.3931211
11
5.3355495
21
142.4879442
0
LINE
8
DEFAULT_255_1_234
10
5.3355495
20
142.4879442
11
5.3355495
21
143.3931211
0
LINE
8
DEFAULT_255_1_234
10
5.3355495
20
143.3931211
11
5.4889557
21
143.3931211
0
LINE
8
DEFAULT_255_1_234
10
5.9114251
20
142.7794963
11
5.7925554
21
142.8100169
0
LINE
8
DEFAULT_255_1_234
10
5.7925554
20
142.8100169
11
5.8519903
21
143.3931211
0
LINE
8
DEFAULT_255_1_234
10
5.8519903
20
143.3931211
11
6.451158
21
143.3931211
0
LINE
8
DEFAULT_255_1_234
10
6.451158
20
143.3931211
11
6.451158
21
143.2557784
0
LINE
8
DEFAULT_255_1_234
10
6.451158
20
143.2557784
11
5.9780886
21
143.2557784
0
LINE
8
DEFAULT_255_1_234
10
5.9780886
20
143.2557784
11
5.9427489
21
142.9369184
0
LINE
8
DEFAULT_255_1_234
10
5.7507904
20
142.5313156
11
5.8913458
21
142.5313156
0
LINE
8
DEFAULT_255_1_234
10
5.9507807
20
142.8116232
11
5.9114251
21
142.7794963
0
ARC
8
DEFAULT_255_1_234
10
6.1282273
20
142.618923
40
0.3681349
50
93.7182161
51
120.2538958
0
ARC
8
DEFAULT_255_1_234
10
6.1376536
20
142.5381394
40
0.449379
50
89.9660152
51
94.2496022
0
ARC
8
DEFAULT_255_1_234
10
6.141727
20
142.5970549
40
0.390482
50
73.8043271
51
90.5585896
0
ARC
8
DEFAULT_255_1_234
10
6.1652167
20
142.6828602
40
0.3015334
50
41.3071453
51
73.5430202
0
ARC
8
DEFAULT_255_1_234
10
6.1235994
20
142.6470324
40
0.3564457
50
13.5075983
51
41.2174222
0
ARC
8
DEFAULT_255_1_234
10
5.9594198
20
142.6040486
40
0.5261351
50
1.1331335
51
13.8829381
0
ARC
8
DEFAULT_255_1_234
10
5.8182567
20
142.5964665
40
0.6674378
50
359.9919444
51
1.544251
0
ARC
8
DEFAULT_255_1_234
10
5.9459393
20
142.592328
40
0.5397702
50
347.8572367
51
0.4293338
0
ARC
8
DEFAULT_255_1_234
10
6.1209711
20
142.5526736
40
0.3603188
50
323.673004
51
348.1672506
0
ARC
8
DEFAULT_255_1_234
10
6.1504219
20
142.5347168
40
0.3259678
50
316.8171152
51
323.1492751
0
ARC
8
DEFAULT_255_1_234
10
6.1565408
20
142.531046
40
0.3189975
50
281.8396411
51
316.5457803
0
ARC
8
DEFAULT_255_1_234
10
6.1189672
20
142.6865762
40
0.4789527
50
269.5770101
51
282.4214771
0
ARC
8
DEFAULT_255_1_234
10
6.1118483
20
142.6652125
40
0.45759
50
256.2427136
51
270.4486331
0
ARC
8
DEFAULT_255_1_234
10
6.0819386
20
142.5452229
40
0.3339303
50
228.9023911
51
256.3314342
0
ARC
8
DEFAULT_255_1_234
10
6.0745618
20
142.5335746
40
0.32031
50
193.753695
51
228.5271154
0
ARC
8
DEFAULT_255_1_234
10
6.1983572
20
142.56988
40
0.4492253
50
184.924711
51
194.497588
0
ARC
8
DEFAULT_255_1_234
10
6.2176139
20
142.5734591
40
0.3289787
50
187.3600538
51
198.6732863
0
ARC
8
DEFAULT_255_1_234
10
6.1126433
20
142.5370674
40
0.217884
50
198.4451669
51
217.794479
0
ARC
8
DEFAULT_255_1_234
10
6.0830608
20
142.5161085
40
0.1816698
50
218.2887171
51
228.5612368
0
ARC
8
DEFAULT_255_1_234
10
6.0928395
20
142.5292963
40
0.1980329
50
228.9654866
51
258.1234728
0
ARC
8
DEFAULT_255_1_234
10
6.1134105
20
142.6173833
40
0.2884748
50
257.7258293
51
270.401361
0
ARC
8
DEFAULT_255_1_234
10
6.1178992
20
142.5728821
40
0.2439788
50
269.4204404
51
286.4209037
0
ARC
8
DEFAULT_255_1_234
10
6.1327479
20
142.5189657
40
0.1880666
50
286.7251356
51
320.600362
0
ARC
8
DEFAULT_255_1_234
10
6.0944304
20
142.5500595
40
0.2374121
50
320.6712579
51
344.5441685
0
ARC
8
DEFAULT_255_1_234
10
5.978763
20
142.5840045
40
0.3579479
50
344.2412205
51
356.7357071
0
ARC
8
DEFAULT_255_1_234
10
5.8538779
20
142.5943444
40
0.4832297
50
356.3548756
51
0.0500261
0
ARC
8
DEFAULT_255_1_234
10
5.9875288
20
142.597465
40
0.3495889
50
359.5576869
51
12.953486
0
ARC
8
DEFAULT_255_1_234
10
6.0930185
20
142.6230434
40
0.2410532
50
12.6490276
51
41.6081334
0
ARC
8
DEFAULT_255_1_234
10
6.1160556
20
142.6426321
40
0.2108218
50
41.7850273
51
85.9892764
0
ARC
8
DEFAULT_255_1_234
10
6.1037293
20
142.5613462
40
0.2928454
50
84.6957577
51
90.0676183
0
ARC
8
DEFAULT_255_1_234
10
6.1013777
20
142.4944716
40
0.3597255
50
89.6804936
51
99.1614436
0
ARC
8
DEFAULT_255_1_234
10
6.0808408
20
142.6172131
40
0.235281
50
98.9830931
51
113.8908934
0
ARC
8
DEFAULT_255_1_234
10
6.0578818
20
142.6713587
40
0.176479
50
114.1950727
51
127.3641004
0
LINE
8
DEFAULT_255_1_234
10
4.4140902
20
148.6847211
11
4.4140902
21
147.5153
0
LINE
8
DEFAULT_255_1_234
10
4.4140902
20
147.5153
11
4.2598808
21
147.5153
0
LINE
8
DEFAULT_255_1_234
10
4.2598808
20
147.5153
11
4.2598808
21
148.6847211
0
LINE
8
DEFAULT_255_1_234
10
4.2598808
20
148.6847211
11
4.4140902
21
148.6847211
0
LINE
8
DEFAULT_255_1_234
10
5.5947557
20
148.6847211
11
5.5947557
21
147.5153
0
LINE
8
DEFAULT_255_1_234
10
5.5947557
20
147.5153
11
5.4397432
21
147.5153
0
LINE
8
DEFAULT_255_1_234
10
5.4397432
20
147.5153
11
4.8510167
21
148.416461
0
LINE
8
DEFAULT_255_1_234
10
4.8510167
20
148.416461
11
4.8510167
21
147.5153
0
LINE
8
DEFAULT_255_1_234
10
4.8510167
20
147.5153
11
4.6960042
21
147.5153
0
LINE
8
DEFAULT_255_1_234
10
4.6960042
20
147.5153
11
4.6960042
21
148.6847211
0
LINE
8
DEFAULT_255_1_234
10
4.6960042
20
148.6847211
11
4.8510167
21
148.6847211
0
LINE
8
DEFAULT_255_1_234
10
4.8510167
20
148.6847211
11
5.4413495
21
147.7795442
0
LINE
8
DEFAULT_255_1_234
10
5.4413495
20
147.7795442
11
5.4413495
21
148.6847211
0
LINE
8
DEFAULT_255_1_234
10
5.4413495
20
148.6847211
11
5.5947557
21
148.6847211
0
LINE
8
DEFAULT_255_1_234
10
6.4573644
20
148.6847211
11
6.4573644
21
147.908052
0
LINE
8
DEFAULT_255_1_234
10
6.4573644
20
147.908052
11
6.6196055
21
147.908052
0
LINE
8
DEFAULT_255_1_234
10
6.6196055
20
147.908052
11
6.6196055
21
147.7867728
0
LINE
8
DEFAULT_255_1_234
10
6.6196055
20
147.7867728
11
6.4573644
21
147.7867728
0
LINE
8
DEFAULT_255_1_234
10
6.4573644
20
147.7867728
11
6.4573644
21
147.5153
0
LINE
8
DEFAULT_255_1_234
10
6.4573644
20
147.5153
11
6.3079741
21
147.5153
0
LINE
8
DEFAULT_255_1_234
10
6.3079741
20
147.5153
11
6.3079741
21
147.7867728
0
LINE
8
DEFAULT_255_1_234
10
6.3079741
20
147.7867728
11
5.7754698
21
147.7867728
0
LINE
8
DEFAULT_255_1_234
10
5.7754698
20
147.7867728
11
5.7754698
21
147.8743187
0
LINE
8
DEFAULT_255_1_234
10
5.7754698
20
147.8743187
11
6.2991392
21
148.6847211
0
LINE
8
DEFAULT_255_1_234
10
6.2991392
20
148.6847211
11
6.4573644
21
148.6847211
0
LINE
8
DEFAULT_255_1_234
10
6.2903042
20
148.4493912
11
5.9441363
21
147.908052
0
LINE
8
DEFAULT_255_1_234
10
5.9441363
20
147.908052
11
6.3079741
21
147.908052
0
LINE
8
DEFAULT_255_1_234
10
6.3079741
20
147.908052
11
6.3079741
21
148.4815181
0
LINE
8
DEFAULT_255_1_234
10
6.3079741
20
148.4815181
11
6.2903042
21
148.4493912
0
LINE
8
DEFAULT_255_1_234
10
4.3082902
20
153.9764211
11
4.3082902
21
152.807
0
LINE
8
DEFAULT_255_1_234
10
4.3082902
20
152.807
11
4.1540808
21
152.807
0
LINE
8
DEFAULT_255_1_234
10
4.1540808
20
152.807
11
4.1540808
21
153.9764211
0
LINE
8
DEFAULT_255_1_234
10
4.1540808
20
153.9764211
11
4.3082902
21
153.9764211
0
LINE
8
DEFAULT_255_1_234
10
5.4889557
20
153.9764211
11
5.4889557
21
152.807
0
LINE
8
DEFAULT_255_1_234
10
5.4889557
20
152.807
11
5.3339432
21
152.807
0
LINE
8
DEFAULT_255_1_234
10
5.3339432
20
152.807
11
4.7452167
21
153.708161
0
LINE
8
DEFAULT_255_1_234
10
4.7452167
20
153.708161
11
4.7452167
21
152.807
0
LINE
8
DEFAULT_255_1_234
10
4.7452167
20
152.807
11
4.5902042
21
152.807
0
LINE
8
DEFAULT_255_1_234
10
4.5902042
20
152.807
11
4.5902042
21
153.9764211
0
LINE
8
DEFAULT_255_1_234
10
4.5902042
20
153.9764211
11
4.7452167
21
153.9764211
0
LINE
8
DEFAULT_255_1_234
10
4.7452167
20
153.9764211
11
5.3355495
21
153.0712442
0
LINE
8
DEFAULT_255_1_234
10
5.3355495
20
153.0712442
11
5.3355495
21
153.9764211
0
LINE
8
DEFAULT_255_1_234
10
5.3355495
20
153.9764211
11
5.4889557
21
153.9764211
0
LINE
8
DEFAULT_255_1_234
10
5.9403394
20
153.3427169
11
5.9403394
21
153.4639962
0
LINE
8
DEFAULT_255_1_234
10
5.9403394
20
153.4639962
11
6.0519806
21
153.4639962
0
LINE
8
DEFAULT_255_1_234
10
5.8616284
20
153.6696087
11
5.7130412
21
153.6696087
0
LINE
8
DEFAULT_255_1_234
10
5.7026
20
153.1154188
11
5.8519903
21
153.1154188
0
LINE
8
DEFAULT_255_1_234
10
6.0519806
20
153.3427169
11
5.9403394
21
153.3427169
0
ARC
8
DEFAULT_255_1_234
10
6.0490672
20
153.8032713
40
0.3392876
50
270.4919872
51
281.8951556
0
ARC
8
DEFAULT_255_1_234
10
6.0731934
20
153.6930702
40
0.2264817
50
281.6691735
51
301.2943132
0
ARC
8
DEFAULT_255_1_234
10
6.0902144
20
153.6619304
40
0.1910381
50
301.7833094
51
311.7545298
0
ARC
8
DEFAULT_255_1_234
10
6.099372
20
153.6517748
40
0.1773635
50
311.7323931
51
354.2802411
0
ARC
8
DEFAULT_255_1_234
10
6.0267345
20
153.6642722
40
0.2509385
50
353.0937916
51
0.1181479
0
ARC
8
DEFAULT_255_1_234
10
5.980613
20
153.6690386
40
0.2970898
50
359.1805295
51
15.0453146
0
ARC
8
DEFAULT_255_1_234
10
6.1151967
20
153.7082992
40
0.1569564
50
13.9577229
51
77.6713066
0
ARC
8
DEFAULT_255_1_234
10
6.0765496
20
153.5697949
40
0.3006298
50
76.1116566
51
90.7026153
0
ARC
8
DEFAULT_255_1_234
10
6.0706334
20
153.5971545
40
0.2732568
50
89.5324876
51
103.531937
0
ARC
8
DEFAULT_255_1_234
10
6.0505779
20
153.6770884
40
0.1908508
50
103.2931773
51
133.5619022
0
ARC
8
DEFAULT_255_1_234
10
6.0461267
20
153.6830375
40
0.1834746
50
133.8349307
51
173.5344437
0
ARC
8
DEFAULT_255_1_234
10
6.118431
20
153.6702213
40
0.2568033
50
172.5096846
51
180.1366907
0
ARC
8
DEFAULT_255_1_234
10
6.0233204
20
153.6736622
40
0.3103056
50
155.3484492
51
180.7484736
0
ARC
8
DEFAULT_255_1_234
10
6.0184293
20
153.6707846
40
0.3070957
50
131.5744599
51
154.4798489
0
ARC
8
DEFAULT_255_1_234
10
6.049744
20
153.639131
40
0.3515643
50
96.9875458
51
131.9690667
0
ARC
8
DEFAULT_255_1_234
10
6.071692
20
153.5145636
40
0.4779224
50
89.8596053
51
97.7825159
0
ARC
8
DEFAULT_255_1_234
10
6.0764983
20
153.4883616
40
0.5041361
50
78.3655447
51
90.4131539
0
ARC
8
DEFAULT_255_1_234
10
6.1122901
20
153.6542887
40
0.3344039
50
56.6229102
51
78.638727
0
ARC
8
DEFAULT_255_1_234
10
6.1337845
20
153.6918805
40
0.2912001
50
47.0253525
51
56.0854072
0
ARC
8
DEFAULT_255_1_234
10
6.1357625
20
153.6958223
40
0.2869704
50
10.9208013
51
46.7778124
0
ARC
8
DEFAULT_255_1_234
10
5.9993691
20
153.6642857
40
0.426899
50
359.6364486
51
11.6087304
0
ARC
8
DEFAULT_255_1_234
10
6.1828536
20
153.6627752
40
0.243409
50
332.3549906
51
359.7179418
0
ARC
8
DEFAULT_255_1_234
10
6.1178137
20
153.6936142
40
0.3153459
50
325.2333722
51
332.8745602
0
ARC
8
DEFAULT_255_1_234
10
6.1330761
20
153.6829828
40
0.2967456
50
292.9802137
51
325.2392345
0
ARC
8
DEFAULT_255_1_234
10
6.1056135
20
153.7363863
40
0.3566604
50
292.5402179
51
293.6924929
0
ARC
8
DEFAULT_255_1_234
10
6.144873
20
153.0909091
40
0.3307468
50
57.6435486
51
72.8625112
0
ARC
8
DEFAULT_255_1_234
10
6.180323
20
153.1483549
40
0.2632492
50
36.7248896
51
57.4697979
0
ARC
8
DEFAULT_255_1_234
10
6.1791863
20
153.149622
40
0.2634081
50
8.0545065
51
36.356114
0
ARC
8
DEFAULT_255_1_234
10
6.0929048
20
153.1341174
40
0.3510261
50
359.8320645
51
8.5869982
0
ARC
8
DEFAULT_255_1_234
10
6.0553824
20
153.1293101
40
0.3885653
50
343.9829931
51
0.5571613
0
ARC
8
DEFAULT_255_1_234
10
6.1440022
20
153.1050438
40
0.2966924
50
311.6359546
51
343.7651759
0
ARC
8
DEFAULT_255_1_234
10
6.1061591
20
153.1477102
40
0.3537231
50
279.7829875
51
311.6255694
0
ARC
8
DEFAULT_255_1_234
10
6.0760367
20
153.291428
40
0.5004971
50
269.7286406
51
280.3856417
0
ARC
8
DEFAULT_255_1_234
10
6.0698439
20
153.2872996
40
0.4963778
50
256.6828919
51
270.4412052
0
ARC
8
DEFAULT_255_1_234
10
6.0359735
20
153.1488394
40
0.3538406
50
229.4223008
51
256.8556159
0
ARC
8
DEFAULT_255_1_234
10
5.9945128
20
153.1021736
40
0.2914296
50
181.818294
51
229.6455059
0
ARC
8
DEFAULT_255_1_234
10
6.0985084
20
153.1152496
40
0.3959084
50
179.9755256
51
183.2323064
0
ARC
8
DEFAULT_255_1_234
10
6.081283
20
153.1132037
40
0.2293034
50
179.4465117
51
196.2869258
0
ARC
8
DEFAULT_255_1_234
10
6.0325238
20
153.0998651
40
0.1787621
50
196.5661473
51
227.705904
0
ARC
8
DEFAULT_255_1_234
10
6.0489333
20
153.1182155
40
0.2033784
50
227.7652068
51
257.8762805
0
ARC
8
DEFAULT_255_1_234
10
6.0714303
20
153.2125156
40
0.3003081
50
257.4584385
51
270.426602
0
ARC
8
DEFAULT_255_1_234
10
6.0759869
20
153.2414996
40
0.329292
50
269.5962073
51
280.8789248
0
ARC
8
DEFAULT_255_1_234
10
6.0989398
20
153.1268685
40
0.2123908
50
280.6346389
51
299.8595945
0
ARC
8
DEFAULT_255_1_234
10
6.1180305
20
153.0906212
40
0.171457
50
300.3576302
51
314.5517981
0
ARC
8
DEFAULT_255_1_234
10
6.1097365
20
153.0966919
40
0.1816095
50
315.0728369
51
345.0431014
0
ARC
8
DEFAULT_255_1_234
10
6.0174179
20
153.1235841
40
0.2777492
50
344.5986631
51
357.9269593
0
ARC
8
DEFAULT_255_1_234
10
5.9278506
20
153.1297276
40
0.3674917
50
357.4748886
51
0.0231117
0
ARC
8
DEFAULT_255_1_234
10
6.0301615
20
153.1321679
40
0.2651907
50
359.5047933
51
13.4239635
0
ARC
8
DEFAULT_255_1_234
10
6.1168259
20
153.1543478
40
0.1757509
50
12.9498199
51
48.7551375
0
ARC
8
DEFAULT_255_1_234
10
6.0985993
20
153.12944
40
0.2065134
50
49.5088623
51
72.1836453
0
ARC
8
DEFAULT_255_1_234
10
6.0628145
20
153.0232291
40
0.3185836
50
71.9010081
51
84.3554254
0
ARC
8
DEFAULT_255_1_234
10
6.0466777
20
152.8871326
40
0.4556151
50
84.0193428
51
89.333121
0
LINE
8
DEFAULT_255_1_234
10
4.3082902
20
159.2681211
11
4.3082902
21
158.0987
0
LINE
8
DEFAULT_255_1_234
10
4.3082902
20
158.0987
11
4.1540808
21
158.0987
0
LINE
8
DEFAULT_255_1_234
10
4.1540808
20
158.0987
11
4.1540808
21
159.2681211
0
LINE
8
DEFAULT_255_1_234
10
4.1540808
20
159.2681211
11
4.3082902
21
159.2681211
0
LINE
8
DEFAULT_255_1_234
10
5.4889557
20
159.2681211
11
5.4889557
21
158.0987
0
LINE
8
DEFAULT_255_1_234
10
5.4889557
20
158.0987
11
5.3339432
21
158.0987
0
LINE
8
DEFAULT_255_1_234
10
5.3339432
20
158.0987
11
4.7452167
21
158.999861
0
LINE
8
DEFAULT_255_1_234
10
4.7452167
20
158.999861
11
4.7452167
21
158.0987
0
LINE
8
DEFAULT_255_1_234
10
4.7452167
20
158.0987
11
4.5902042
21
158.0987
0
LINE
8
DEFAULT_255_1_234
10
4.5902042
20
158.0987
11
4.5902042
21
159.2681211
0
LINE
8
DEFAULT_255_1_234
10
4.5902042
20
159.2681211
11
4.7452167
21
159.2681211
0
LINE
8
DEFAULT_255_1_234
10
4.7452167
20
159.2681211
11
5.3355495
21
158.3629442
0
LINE
8
DEFAULT_255_1_234
10
5.3355495
20
158.3629442
11
5.3355495
21
159.2681211
0
LINE
8
DEFAULT_255_1_234
10
5.3355495
20
159.2681211
11
5.4889557
21
159.2681211
0
LINE
8
DEFAULT_255_1_234
10
6.4905135
20
158.2199792
11
6.4905135
21
158.0987
0
LINE
8
DEFAULT_255_1_234
10
6.4905135
20
158.0987
11
5.7242856
21
158.0987
0
LINE
8
DEFAULT_255_1_234
10
5.7242856
20
158.0987
11
5.7242856
21
158.2055221
0
LINE
8
DEFAULT_255_1_234
10
5.7242856
20
158.2055221
11
6.1290853
21
158.6552995
0
LINE
8
DEFAULT_255_1_234
10
5.8503839
20
158.9235595
11
5.7017968
21
158.9235595
0
LINE
8
DEFAULT_255_1_234
10
6.2166312
20
158.5597218
11
5.9033934
21
158.2199792
0
LINE
8
DEFAULT_255_1_234
10
5.9033934
20
158.2199792
11
6.4905135
21
158.2199792
0
ARC
8
DEFAULT_255_1_234
10
4.7800686
20
159.8482527
40
1.8008286
50
318.5132453
51
320.7828378
0
ARC
8
DEFAULT_255_1_234
10
5.308766
20
159.4179426
40
1.1191493
50
320.7372736
51
323.9737074
0
ARC
8
DEFAULT_255_1_234
10
5.7007517
20
159.1339361
40
0.6350923
50
323.8961724
51
328.6421089
0
ARC
8
DEFAULT_255_1_234
10
5.9054112
20
159.0077031
40
0.3946393
50
328.8299013
51
331.789948
0
ARC
8
DEFAULT_255_1_234
10
6.0051291
20
158.9562509
40
0.2824501
50
331.4255242
51
352.9364833
0
ARC
8
DEFAULT_255_1_234
10
6.0187791
20
158.9531976
40
0.2685315
50
353.2248685
51
0.0169286
0
ARC
8
DEFAULT_255_1_234
10
6.0397668
20
158.955495
40
0.2475536
50
359.4866256
51
15.9339782
0
ARC
8
DEFAULT_255_1_234
10
6.0904653
20
158.9691286
40
0.1950618
50
16.1714718
51
43.5284424
0
ARC
8
DEFAULT_255_1_234
10
6.0981962
20
158.9768573
40
0.184134
50
43.4415429
51
83.1661404
0
ARC
8
DEFAULT_255_1_234
10
6.084788
20
158.9031771
40
0.258926
50
82.160215
51
90.1505798
0
ARC
8
DEFAULT_255_1_234
10
6.0816308
20
158.8494865
40
0.3126255
50
89.5460705
51
102.5418777
0
ARC
8
DEFAULT_255_1_234
10
6.0573394
20
158.9525665
40
0.2067346
50
102.1739365
51
129.2061916
0
ARC
8
DEFAULT_255_1_234
10
6.0494465
20
158.9650094
40
0.1921118
50
129.7279328
51
135.7542026
0
ARC
8
DEFAULT_255_1_234
10
6.0615993
20
158.9553045
40
0.2075944
50
136.175737
51
166.3674722
0
ARC
8
DEFAULT_255_1_234
10
6.1622912
20
158.9283182
40
0.3118201
50
165.9092917
51
178.8683903
0
ARC
8
DEFAULT_255_1_234
10
6.2487774
20
158.9236179
40
0.3983935
50
178.438168
51
180.0083905
0
ARC
8
DEFAULT_255_1_234
10
6.1086376
20
158.9275231
40
0.4068601
50
163.2878735
51
180.5581814
0
ARC
8
DEFAULT_255_1_234
10
6.0284637
20
158.949584
40
0.3237344
50
133.454115
51
162.9470031
0
ARC
8
DEFAULT_255_1_234
10
6.0463178
20
158.9306
40
0.349795
50
100.7869394
51
133.4384016
0
ARC
8
DEFAULT_255_1_234
10
6.081095
20
158.7757319
40
0.5084616
50
89.6605301
51
101.3704185
0
ARC
8
DEFAULT_255_1_234
10
6.0877289
20
158.7818496
40
0.502348
50
78.2171172
51
90.4130393
0
ARC
8
DEFAULT_255_1_234
10
6.1232367
20
158.9442637
40
0.3361092
50
55.9268222
51
78.4888551
0
ARC
8
DEFAULT_255_1_234
10
6.1428807
20
158.9781324
40
0.2970617
50
47.9292255
51
55.4054003
0
ARC
8
DEFAULT_255_1_234
10
6.1530368
20
158.9884502
40
0.2825983
50
4.3347696
51
48.0560701
0
ARC
8
DEFAULT_255_1_234
10
6.0434761
20
158.9714601
40
0.393225
50
359.925209
51
5.5967654
0
ARC
8
DEFAULT_255_1_234
10
6.0863653
20
158.9770816
40
0.3503892
50
337.8914096
51
358.9967724
0
ARC
8
DEFAULT_255_1_234
10
5.8150065
20
159.0817706
40
0.6412172
50
326.9135351
51
338.3505194
0
ARC
8
DEFAULT_255_1_234
10
5.4164369
20
159.3372284
40
1.1146189
50
319.6472867
51
327.095818
0
ARC
8
DEFAULT_255_1_234
10
5.0331372
20
159.6534
40
1.6114559
50
317.2586784
51
319.9046139
0
LINE
8
DEFAULT_255_1_234
10
4.2991902
20
164.5597211
11
4.2991902
21
163.3903
0
LINE
8
DEFAULT_255_1_234
10
4.2991902
20
163.3903
11
4.1449808
21
163.3903
0
LINE
8
DEFAULT_255_1_234
10
4.1449808
20
163.3903
11
4.1449808
21
164.5597211
0
LINE
8
DEFAULT_255_1_234
10
4.1449808
20
164.5597211
11
4.2991902
21
164.5597211
0
LINE
8
DEFAULT_255_1_234
10
5.4798557
20
164.5597211
11
5.4798557
21
163.3903
0
LINE
8
DEFAULT_255_1_234
10
5.4798557
20
163.3903
11
5.3248432
21
163.3903
0
LINE
8
DEFAULT_255_1_234
10
5.3248432
20
163.3903
11
4.7361167
21
164.291461
0
LINE
8
DEFAULT_255_1_234
10
4.7361167
20
164.291461
11
4.7361167
21
163.3903
0
LINE
8
DEFAULT_255_1_234
10
4.7361167
20
163.3903
11
4.5811042
21
163.3903
0
LINE
8
DEFAULT_255_1_234
10
4.5811042
20
163.3903
11
4.5811042
21
164.5597211
0
LINE
8
DEFAULT_255_1_234
10
4.5811042
20
164.5597211
11
4.7361167
21
164.5597211
0
LINE
8
DEFAULT_255_1_234
10
4.7361167
20
164.5597211
11
5.3264495
21
163.6545442
0
LINE
8
DEFAULT_255_1_234
10
5.3264495
20
163.6545442
11
5.3264495
21
164.5597211
0
LINE
8
DEFAULT_255_1_234
10
5.3264495
20
164.5597211
11
5.4798557
21
164.5597211
0
LINE
8
DEFAULT_255_1_234
10
6.2035153
20
164.5653433
11
6.2035153
21
163.3903
0
LINE
8
DEFAULT_255_1_234
10
6.2035153
20
163.3903
11
6.054125
21
163.3903
0
LINE
8
DEFAULT_255_1_234
10
6.054125
20
163.3903
11
6.054125
21
164.3806133
0
LINE
8
DEFAULT_255_1_234
10
6.054125
20
164.3806133
11
5.7545412
21
164.2705785
0
LINE
8
DEFAULT_255_1_234
10
5.7545412
20
164.2705785
11
5.7545412
21
164.4055117
0
LINE
8
DEFAULT_255_1_234
10
5.7545412
20
164.4055117
11
6.1802233
21
164.5653433
0
LINE
8
DEFAULT_255_1_234
10
6.1802233
20
164.5653433
11
6.2035153
21
164.5653433
0
LINE
8
DEFAULT_255_1_234
10
4.3082902
20
169.8514211
11
4.3082902
21
168.682
0
LINE
8
DEFAULT_255_1_234
10
4.3082902
20
168.682
11
4.1540808
21
168.682
0
LINE
8
DEFAULT_255_1_234
10
4.1540808
20
168.682
11
4.1540808
21
169.8514211
0
LINE
8
DEFAULT_255_1_234
10
4.1540808
20
169.8514211
11
4.3082902
21
169.8514211
0
LINE
8
DEFAULT_255_1_234
10
5.4889557
20
169.8514211
11
5.4889557
21
168.682
0
LINE
8
DEFAULT_255_1_234
10
5.4889557
20
168.682
11
5.3339432
21
168.682
0
LINE
8
DEFAULT_255_1_234
10
5.3339432
20
168.682
11
4.7452167
21
169.583161
0
LINE
8
DEFAULT_255_1_234
10
4.7452167
20
169.583161
11
4.7452167
21
168.682
0
LINE
8
DEFAULT_255_1_234
10
4.7452167
20
168.682
11
4.5902042
21
168.682
0
LINE
8
DEFAULT_255_1_234
10
4.5902042
20
168.682
11
4.5902042
21
169.8514211
0
LINE
8
DEFAULT_255_1_234
10
4.5902042
20
169.8514211
11
4.7452167
21
169.8514211
0
LINE
8
DEFAULT_255_1_234
10
4.7452167
20
169.8514211
11
5.3355495
21
168.9462442
0
LINE
8
DEFAULT_255_1_234
10
5.3355495
20
168.9462442
11
5.3355495
21
169.8514211
0
LINE
8
DEFAULT_255_1_234
10
5.3355495
20
169.8514211
11
5.4889557
21
169.8514211
0
LINE
8
DEFAULT_255_1_234
10
6.4575833
20
169.3735327
11
6.4575833
21
169.1807709
0
LINE
8
DEFAULT_255_1_234
10
5.7194666
20
169.1606916
11
5.7194666
21
169.3590755
0
LINE
8
DEFAULT_255_1_234
10
6.3089962
20
169.1406123
11
6.3089962
21
169.3839739
0
LINE
8
DEFAULT_255_1_234
10
5.8680538
20
169.3952184
11
5.8680538
21
169.1574789
0
ARC
8
DEFAULT_255_1_234
10
5.2328723
20
169.1758805
40
1.2247208
50
353.8441951
51
0.2287902
0
ARC
8
DEFAULT_255_1_234
10
5.6968227
20
169.1240806
40
0.7578929
50
344.4934747
51
353.9765454
0
ARC
8
DEFAULT_255_1_234
10
5.9960817
20
169.0389981
40
0.4467846
50
329.2803592
51
344.7472793
0
ARC
8
DEFAULT_255_1_234
10
6.0953642
20
168.9845018
40
0.3336173
50
324.9352394
51
328.6160465
0
ARC
8
DEFAULT_255_1_234
10
6.1330751
20
168.9581427
40
0.2876076
50
280.580143
51
324.9173126
0
ARC
8
DEFAULT_255_1_234
10
6.0929543
20
169.1252099
40
0.4592847
50
269.5977311
51
281.6734359
0
ARC
8
DEFAULT_255_1_234
10
6.0857449
20
169.1132173
40
0.4472986
50
256.6228859
51
270.51044
0
ARC
8
DEFAULT_255_1_234
10
6.0455427
20
168.9583877
40
0.2873874
50
215.8618325
51
257.2788573
0
ARC
8
DEFAULT_255_1_234
10
6.1476458
20
169.0268977
40
0.4102928
50
197.9693508
51
215.2623606
0
ARC
8
DEFAULT_255_1_234
10
6.3961574
20
169.1107709
40
0.6725652
50
187.8816417
51
198.2346507
0
ARC
8
DEFAULT_255_1_234
10
6.7919782
20
169.1679079
40
1.0724845
50
180.8976217
51
188.0055519
0
ARC
8
DEFAULT_255_1_234
10
7.071997
20
169.1782777
40
1.3526448
50
180.7449369
51
181.1510016
0
ARC
8
DEFAULT_255_1_234
10
6.9142699
20
169.3639042
40
1.1948131
50
173.7675579
51
180.231553
0
ARC
8
DEFAULT_255_1_234
10
6.4624846
20
169.4149666
40
0.7401564
50
164.3058563
51
173.9002247
0
ARC
8
DEFAULT_255_1_234
10
6.1712915
20
169.4988656
40
0.4371288
50
148.7922025
51
164.568378
0
ARC
8
DEFAULT_255_1_234
10
6.0761367
20
169.5519929
40
0.3282386
50
144.5883898
51
148.1176286
0
ARC
8
DEFAULT_255_1_234
10
6.0418265
20
169.5759315
40
0.2864044
50
101.6440918
51
144.514236
0
ARC
8
DEFAULT_255_1_234
10
6.0843332
20
169.4070069
40
0.4604934
50
89.5284041
51
102.5819763
0
ARC
8
DEFAULT_255_1_234
10
6.0922419
20
169.4031018
40
0.464401
50
77.0437873
51
90.5081339
0
ARC
8
DEFAULT_255_1_234
10
6.1324421
20
169.5673615
40
0.2953195
50
48.2778575
51
77.4994676
0
ARC
8
DEFAULT_255_1_234
10
6.1397052
20
169.5802746
40
0.2808655
50
36.3142134
51
47.6305865
0
ARC
8
DEFAULT_255_1_234
10
6.0528359
20
169.5217515
40
0.3855453
50
18.2931786
51
35.6769206
0
ARC
8
DEFAULT_255_1_234
10
5.7985118
20
169.4344593
40
0.654423
50
8.024666
51
18.5605216
0
ARC
8
DEFAULT_255_1_234
10
5.3822038
20
169.3729792
40
1.0752407
50
1.1274072
51
8.1718305
0
ARC
8
DEFAULT_255_1_234
10
5.0586229
20
169.3602885
40
1.3990231
50
0.5424119
51
1.3863029
0
ARC
8
DEFAULT_255_1_234
10
5.2407607
20
169.3875342
40
1.0682415
50
359.8090433
51
4.9407866
0
ARC
8
DEFAULT_255_1_234
10
5.6617621
20
169.4251113
40
0.6455691
50
4.8362157
51
12.2904523
0
ARC
8
DEFAULT_255_1_234
10
5.9372735
20
169.4864965
40
0.3633074
50
12.0805627
51
23.8173984
0
ARC
8
DEFAULT_255_1_234
10
6.0546441
20
169.5361919
40
0.2358723
50
24.2871213
51
31.3935614
0
ARC
8
DEFAULT_255_1_234
10
6.1071138
20
169.5705233
40
0.1732111
50
30.7407893
51
82.4657128
0
ARC
8
DEFAULT_255_1_234
10
6.0891272
20
169.4821691
40
0.263235
50
81.1060089
51
90.2184952
0
ARC
8
DEFAULT_255_1_234
10
6.0855571
20
169.5079924
40
0.2374236
50
89.3806855
51
105.6762551
0
ARC
8
DEFAULT_255_1_234
10
6.0672202
20
169.5746567
40
0.1682847
50
105.7981136
51
149.7388061
0
ARC
8
DEFAULT_255_1_234
10
6.173628
20
169.510695
40
0.2924306
50
149.4208916
51
163.6286378
0
ARC
8
DEFAULT_255_1_234
10
6.3827168
20
169.446925
40
0.5110213
50
163.3763315
51
172.1410975
0
ARC
8
DEFAULT_255_1_234
10
6.7127887
20
169.3996518
40
0.8444586
50
172.0259487
51
178.0703232
0
ARC
8
DEFAULT_255_1_234
10
7.0157977
20
169.3852906
40
1.1477868
50
177.8631668
51
179.5044149
0
ARC
8
DEFAULT_255_1_234
10
6.9085381
20
169.1538389
40
1.0404907
50
179.7995573
51
185.2460446
0
ARC
8
DEFAULT_255_1_234
10
6.504242
20
169.1155513
40
0.6343885
50
185.1411642
51
193.0079639
0
ARC
8
DEFAULT_255_1_234
10
6.2398893
20
169.0530641
40
0.3627568
50
192.7897626
51
205.2507664
0
ARC
8
DEFAULT_255_1_234
10
6.135244
20
169.0063415
40
0.2481908
50
205.8005384
51
211.2537509
0
ARC
8
DEFAULT_255_1_234
10
6.082888
20
168.971258
40
0.1852521
50
210.3789793
51
238.4008143
0
ARC
8
DEFAULT_255_1_234
10
6.0809402
20
168.9759376
40
0.1882621
50
239.6520629
51
265.9793761
0
ARC
8
DEFAULT_255_1_234
10
6.0894602
20
169.0431427
40
0.2559272
50
265.1315437
51
270.060332
0
ARC
8
DEFAULT_255_1_234
10
6.0923381
20
169.0107534
40
0.2235528
50
269.3314664
51
287.2178029
0
ARC
8
DEFAULT_255_1_234
10
6.1061233
20
168.9604279
40
0.1714108
50
287.7958004
51
329.080874
0
ARC
8
DEFAULT_255_1_234
10
6.010369
20
169.020193
40
0.2842745
50
328.6634704
51
343.3325132
0
ARC
8
DEFAULT_255_1_234
10
5.793071
20
169.0878863
40
0.5118644
50
343.0499468
51
351.9393422
0
ARC
8
DEFAULT_255_1_234
10
5.446401
20
169.1389949
40
0.8622784
50
351.8069023
51
357.7959224
0
ARC
8
DEFAULT_255_1_234
10
5.1228566
20
169.1557721
40
1.1862365
50
357.5871873
51
359.2677531
0
LINE
8
DEFAULT_255_1_234
10
23.1654817
20
174.6652327
11
23.1654817
21
174.4724709
0
LINE
8
DEFAULT_255_1_234
10
22.427365
20
174.4523916
11
22.427365
21
174.6507755
0
LINE
8
DEFAULT_255_1_234
10
23.0168946
20
174.4323123
11
23.0168946
21
174.6756739
0
LINE
8
DEFAULT_255_1_234
10
22.5759521
20
174.6869184
11
22.5759521
21
174.4491789
0
ARC
8
DEFAULT_255_1_234
10
21.9407707
20
174.4675805
40
1.2247208
50
353.8441951
51
0.2287902
0
ARC
8
DEFAULT_255_1_234
10
22.4047211
20
174.4157806
40
0.7578929
50
344.4934747
51
353.9765454
0
ARC
8
DEFAULT_255_1_234
10
22.7039801
20
174.3306981
40
0.4467846
50
329.2803592
51
344.7472793
0
ARC
8
DEFAULT_255_1_234
10
22.8032626
20
174.2762018
40
0.3336173
50
324.9352394
51
328.6160465
0
ARC
8
DEFAULT_255_1_234
10
22.8409734
20
174.2498427
40
0.2876076
50
280.580143
51
324.9173126
0
ARC
8
DEFAULT_255_1_234
10
22.8008527
20
174.4169099
40
0.4592847
50
269.5977311
51
281.6734359
0
ARC
8
DEFAULT_255_1_234
10
22.7936433
20
174.4049173
40
0.4472986
50
256.6228859
51
270.51044
0
ARC
8
DEFAULT_255_1_234
10
22.753441
20
174.2500877
40
0.2873874
50
215.8618325
51
257.2788573
0
ARC
8
DEFAULT_255_1_234
10
22.8555442
20
174.3185977
40
0.4102928
50
197.9693508
51
215.2623606
0
ARC
8
DEFAULT_255_1_234
10
23.1040558
20
174.4024709
40
0.6725652
50
187.8816417
51
198.2346507
0
ARC
8
DEFAULT_255_1_234
10
23.4998766
20
174.4596079
40
1.0724845
50
180.8976217
51
188.0055519
0
ARC
8
DEFAULT_255_1_234
10
23.7798954
20
174.4699777
40
1.3526448
50
180.7449369
51
181.1510016
0
ARC
8
DEFAULT_255_1_234
10
23.6221683
20
174.6556042
40
1.1948131
50
173.7675579
51
180.231553
0
ARC
8
DEFAULT_255_1_234
10
23.170383
20
174.7066666
40
0.7401564
50
164.3058563
51
173.9002247
0
ARC
8
DEFAULT_255_1_234
10
22.8791899
20
174.7905656
40
0.4371288
50
148.7922025
51
164.568378
0
ARC
8
DEFAULT_255_1_234
10
22.7840351
20
174.8436929
40
0.3282386
50
144.5883898
51
148.1176286
0
ARC
8
DEFAULT_255_1_234
10
22.7497249
20
174.8676315
40
0.2864044
50
101.6440918
51
144.514236
0
ARC
8
DEFAULT_255_1_234
10
22.7922315
20
174.6987069
40
0.4604934
50
89.5284041
51
102.5819763
0
ARC
8
DEFAULT_255_1_234
10
22.8001403
20
174.6948018
40
0.464401
50
77.0437873
51
90.5081339
0
ARC
8
DEFAULT_255_1_234
10
22.8403405
20
174.8590615
40
0.2953195
50
48.2778575
51
77.4994676
0
ARC
8
DEFAULT_255_1_234
10
22.8476036
20
174.8719746
40
0.2808655
50
36.3142134
51
47.6305865
0
ARC
8
DEFAULT_255_1_234
10
22.7607343
20
174.8134515
40
0.3855453
50
18.2931786
51
35.6769206
0
ARC
8
DEFAULT_255_1_234
10
22.5064102
20
174.7261593
40
0.654423
50
8.024666
51
18.5605216
0
ARC
8
DEFAULT_255_1_234
10
22.0901022
20
174.6646792
40
1.0752407
50
1.1274072
51
8.1718305
0
ARC
8
DEFAULT_255_1_234
10
21.7665213
20
174.6519885
40
1.3990231
50
0.5424119
51
1.3863029
0
ARC
8
DEFAULT_255_1_234
10
21.948659
20
174.6792342
40
1.0682415
50
359.8090433
51
4.9407866
0
ARC
8
DEFAULT_255_1_234
10
22.3696604
20
174.7168113
40
0.6455691
50
4.8362157
51
12.2904523
0
ARC
8
DEFAULT_255_1_234
10
22.6451719
20
174.7781965
40
0.3633074
50
12.0805627
51
23.8173984
0
ARC
8
DEFAULT_255_1_234
10
22.7625425
20
174.8278919
40
0.2358723
50
24.2871213
51
31.3935614
0
ARC
8
DEFAULT_255_1_234
10
22.8150122
20
174.8622233
40
0.1732111
50
30.7407893
51
82.4657128
0
ARC
8
DEFAULT_255_1_234
10
22.7970256
20
174.7738691
40
0.263235
50
81.1060089
51
90.2184952
0
ARC
8
DEFAULT_255_1_234
10
22.7934555
20
174.7996924
40
0.2374236
50
89.3806855
51
105.6762551
0
ARC
8
DEFAULT_255_1_234
10
22.7751186
20
174.8663567
40
0.1682847
50
105.7981136
51
149.7388061
0
ARC
8
DEFAULT_255_1_234
10
22.8815264
20
174.802395
40
0.2924306
50
149.4208916
51
163.6286378
0
ARC
8
DEFAULT_255_1_234
10
23.0906152
20
174.738625
40
0.5110213
50
163.3763315
51
172.1410975
0
ARC
8
DEFAULT_255_1_234
10
23.4206871
20
174.6913518
40
0.8444586
50
172.0259487
51
178.0703232
0
ARC
8
DEFAULT_255_1_234
10
23.723696
20
174.6769906
40
1.1477868
50
177.8631668
51
179.5044149
0
ARC
8
DEFAULT_255_1_234
10
23.6164365
20
174.4455389
40
1.0404907
50
179.7995573
51
185.2460446
0
ARC
8
DEFAULT_255_1_234
10
23.2121404
20
174.4072513
40
0.6343885
50
185.1411642
51
193.0079639
0
ARC
8
DEFAULT_255_1_234
10
22.9477877
20
174.3447641
40
0.3627568
50
192.7897626
51
205.2507664
0
ARC
8
DEFAULT_255_1_234
10
22.8431424
20
174.2980415
40
0.2481908
50
205.8005384
51
211.2537509
0
ARC
8
DEFAULT_255_1_234
10
22.7907864
20
174.262958
40
0.1852521
50
210.3789793
51
238.4008143
0
ARC
8
DEFAULT_255_1_234
10
22.7888386
20
174.2676376
40
0.1882621
50
239.6520629
51
265.9793761
0
ARC
8
DEFAULT_255_1_234
10
22.7973586
20
174.3348427
40
0.2559272
50
265.1315437
51
270.060332
0
ARC
8
DEFAULT_255_1_234
10
22.8002365
20
174.3024534
40
0.2235528
50
269.3314664
51
287.2178029
0
ARC
8
DEFAULT_255_1_234
10
22.8140217
20
174.2521279
40
0.1714108
50
287.7958004
51
329.080874
0
ARC
8
DEFAULT_255_1_234
10
22.7182674
20
174.311893
40
0.2842745
50
328.6634704
51
343.3325132
0
ARC
8
DEFAULT_255_1_234
10
22.5009694
20
174.3795863
40
0.5118644
50
343.0499468
51
351.9393422
0
ARC
8
DEFAULT_255_1_234
10
22.1542994
20
174.4306949
40
0.8622784
50
351.8069023
51
357.7959224
0
ARC
8
DEFAULT_255_1_234
10
21.830755
20
174.4474721
40
1.1862365
50
357.5871873
51
359.2677531
0
LINE
8
DEFAULT_255_1_234
10
23.4490021
20
175.1431211
11
23.7815161
21
174.1785093
0
LINE
8
DEFAULT_255_1_234
10
23.7815161
20
174.1785093
11
24.1156364
21
175.1431211
0
LINE
8
DEFAULT_255_1_234
10
24.1156364
20
175.1431211
11
24.2843029
21
175.1431211
0
LINE
8
DEFAULT_255_1_234
10
24.2843029
20
175.1431211
11
23.850589
21
173.9737
0
LINE
8
DEFAULT_255_1_234
10
23.850589
20
173.9737
11
23.7140495
21
173.9737
0
LINE
8
DEFAULT_255_1_234
10
23.7140495
20
173.9737
11
23.2811388
21
175.1431211
0
LINE
8
DEFAULT_255_1_234
10
23.2811388
20
175.1431211
11
23.4490021
21
175.1431211
0
ENDSEC
0
EOF