0
SECTION
2
HEADER
9
$MEASUREMENT
70
1
0
ENDSEC
0
SECTION
2
TABLES
0
TABLE
2
LTYPE
0
LTYPE
72
65
70
64
2
CONTINUOUS
3
______
73
0
40
0
0
ENDTAB
0
TABLE
2
LAYER
0
LAYER
2
DEFAULT_255_2_778
70
0
62
255
6
CONTINUOUS
0
LAYER
2
DEFAULT_255_1_234
70
0
62
255
6
CONTINUOUS
0
ENDTAB
0
ENDSEC
0
SECTION
2
ENTITIES
0
ARC
8
DEFAULT_255_2_778
10
3.5700693
20
139.3052021
40
0.7914215
50
129.1312896
51
180.1450914
0
ARC
8
DEFAULT_255_2_778
10
3.5703345
20
139.3056893
40
0.7912112
50
89.854026
51
129.1684493
0
ARC
8
DEFAULT_255_2_778
10
25.7993937
20
139.3053758
40
0.7915249
50
39.4792447
51
90.147911
0
ARC
8
DEFAULT_255_2_778
10
25.7999935
20
139.3052224
40
0.7911595
50
359.8533901
51
39.5154338
0
ARC
8
DEFAULT_255_2_778
10
25.7996693
20
-1.9863501
40
0.7914836
50
309.4761667
51
0.1482649
0
ARC
8
DEFAULT_255_2_778
10
25.799398
20
-1.9867812
40
0.7913235
50
269.8517415
51
309.511178
0
ARC
8
DEFAULT_255_2_778
10
3.570342
20
-1.986723
40
0.7913815
50
219.1282118
51
270.1454017
0
ARC
8
DEFAULT_255_2_778
10
3.5700247
20
-1.9863406
40
0.7913769
50
179.8524075
51
219.1641908
0
LINE
8
DEFAULT_255_2_778
10
3.5723503
20
140.096898
11
25.7973503
21
140.096898
0
LINE
8
DEFAULT_255_2_778
10
26.5911503
20
139.303198
11
26.5911503
21
-1.984302
0
LINE
8
DEFAULT_255_2_778
10
25.7973503
20
-2.778102
11
3.5723503
21
-2.778102
0
LINE
8
DEFAULT_255_2_778
10
2.7786503
20
-1.984302
11
2.7786503
21
139.303198
0
LINE
8
DEFAULT_255_1_234
10
10.407823
20
-0.2802337
11
10.5628355
21
-0.2802337
0
LINE
8
DEFAULT_255_1_234
10
9.6624777
20
-0.1212053
11
9.6624777
21
-0.0087609
0
LINE
8
DEFAULT_255_1_234
10
10.5628355
20
0.1422357
11
10.407823
21
0.1422357
0
LINE
8
DEFAULT_255_1_234
10
9.8174902
20
-0.0127768
11
9.8174902
21
-0.1260243
0
ARC
8
DEFAULT_255_1_234
10
10.0147742
20
-0.2205154
40
0.5513052
50
340.1774281
51
353.7814284
0
ARC
8
DEFAULT_255_1_234
10
10.1719095
20
-0.2790418
40
0.3836379
50
311.4558989
51
340.4421614
0
ARC
8
DEFAULT_255_1_234
10
10.1685763
20
-0.2679472
40
0.3941894
50
282.4333181
51
310.7513653
0
ARC
8
DEFAULT_255_1_234
10
10.1246502
20
-0.0864321
40
0.5809175
50
269.9358511
51
282.809604
0
ARC
8
DEFAULT_255_1_234
10
10.1194568
20
0.0593212
40
0.7266847
50
270.0021091
51
270.3581957
0
ARC
8
DEFAULT_255_1_234
10
10.1141985
20
-0.2007415
40
0.4666519
50
250.7884749
51
270.6489167
0
ARC
8
DEFAULT_255_1_234
10
10.097382
20
-0.2644681
40
0.4009729
50
219.3627325
51
250.0611886
0
ARC
8
DEFAULT_255_1_234
10
10.1803031
20
-0.1939958
40
0.5097822
50
193.5479632
51
219.5756669
0
ARC
8
DEFAULT_255_1_234
10
10.4174652
20
-0.1324081
40
0.7547848
50
181.1218675
51
193.87563
0
ARC
8
DEFAULT_255_1_234
10
10.6244833
20
-0.121342
40
0.9620055
50
179.9918545
51
181.5394234
0
ARC
8
DEFAULT_255_1_234
10
10.4393935
20
-0.0050212
40
0.7769248
50
169.5837241
51
180.2757934
0
ARC
8
DEFAULT_255_1_234
10
10.2556873
20
0.0289229
40
0.590109
50
155.0365899
51
169.6003176
0
ARC
8
DEFAULT_255_1_234
10
10.1421337
20
0.0836677
40
0.4640625
50
136.783148
51
155.2472683
0
ARC
8
DEFAULT_255_1_234
10
10.1031814
20
0.1167562
40
0.4130255
50
121.7633186
51
136.428115
0
ARC
8
DEFAULT_255_1_234
10
10.1166776
20
0.0918227
40
0.4413323
50
95.6459699
51
121.5490577
0
ARC
8
DEFAULT_255_1_234
10
10.1324058
20
-0.0190051
40
0.55319
50
89.924208
51
96.1377933
0
ARC
8
DEFAULT_255_1_234
10
10.1374491
20
-0.0071458
40
0.5413475
50
76.6779277
51
90.4563316
0
ARC
8
DEFAULT_255_1_234
10
10.1768114
20
0.1519114
40
0.3775041
50
47.485847
51
76.9287264
0
ARC
8
DEFAULT_255_1_234
10
10.1621087
20
0.1419159
40
0.3948286
50
16.5424086
51
46.8933463
0
ARC
8
DEFAULT_255_1_234
10
10.0013244
20
0.0890861
40
0.564021
50
5.4072051
51
17.0365086
0
ARC
8
DEFAULT_255_1_234
10
9.8574261
20
0.0659679
40
0.5556559
50
7.8891745
51
15.9239216
0
ARC
8
DEFAULT_255_1_234
10
10.0561274
20
0.1236631
40
0.3487515
50
15.7653144
51
27.9410532
0
ARC
8
DEFAULT_255_1_234
10
10.1665492
20
0.182779
40
0.2235026
50
27.8166557
51
46.4008329
0
ARC
8
DEFAULT_255_1_234
10
10.1715135
20
0.1822082
40
0.2205286
50
47.4371857
51
75.0698205
0
ARC
8
DEFAULT_255_1_234
10
10.1406529
20
0.0747765
40
0.3322915
50
74.7008593
51
87.8124495
0
ARC
8
DEFAULT_255_1_234
10
10.1333217
20
-0.0308156
40
0.4380987
50
87.3814673
51
90.0240855
0
ARC
8
DEFAULT_255_1_234
10
10.129476
20
0.0869291
40
0.3203749
50
89.3451631
51
108.5745436
0
ARC
8
DEFAULT_255_1_234
10
10.1157865
20
0.1382908
40
0.2673494
50
109.2998449
51
143.3037509
0
ARC
8
DEFAULT_255_1_234
10
10.1919938
20
0.0796881
40
0.3634757
50
143.0753173
51
163.1916937
0
ARC
8
DEFAULT_255_1_234
10
10.3871666
20
0.0180967
40
0.5681262
50
162.9373603
51
174.6208611
0
ARC
8
DEFAULT_255_1_234
10
10.6497708
20
-0.010699
40
0.8322832
50
174.3419979
51
180.1430411
0
ARC
8
DEFAULT_255_1_234
10
10.5566864
20
-0.1301302
40
0.7392076
50
179.6817502
51
189.150529
0
ARC
8
DEFAULT_255_1_234
10
10.3066112
20
-0.171781
40
0.4856932
50
188.9910863
51
203.5773039
0
ARC
8
DEFAULT_255_1_234
10
10.1986445
20
-0.2165789
40
0.3688271
50
203.9077269
51
215.1312379
0
ARC
8
DEFAULT_255_1_234
10
10.1063539
20
-0.2881059
40
0.2522457
50
213.9071664
51
263.8849284
0
ARC
8
DEFAULT_255_1_234
10
10.1188868
20
-0.2096482
40
0.3316174
50
263.1758525
51
270.1031083
0
ARC
8
DEFAULT_255_1_234
10
10.122096
20
-0.0849635
40
0.4563091
50
269.6719807
51
279.0609165
0
ARC
8
DEFAULT_255_1_234
10
10.1487728
20
-0.2462093
40
0.2928759
50
278.8750225
51
293.6346586
0
ARC
8
DEFAULT_255_1_234
10
10.1807936
20
-0.32141
40
0.2111472
50
293.8553404
51
310.0518804
0
ARC
8
DEFAULT_255_1_234
10
10.181279
20
-0.3276484
40
0.2060917
50
311.0646779
51
332.0108348
0
ARC
8
DEFAULT_255_1_234
10
10.0620517
20
-0.2619022
40
0.3422352
50
331.6588543
51
343.2878891
0
ARC
8
DEFAULT_255_1_234
10
9.8558032
20
-0.1985202
40
0.5580003
50
343.1446044
51
351.010618
0
ARC
8
DEFAULT_255_1_234
10
9.7016678
20
-0.1704129
40
0.7146438
50
350.7157277
51
351.1602153
0
LINE
8
DEFAULT_255_1_234
10
11.2632031
20
-0.3123606
11
11.2632031
21
0.5181211
0
LINE
8
DEFAULT_255_1_234
10
11.2632031
20
0.5181211
11
11.4182157
21
0.5181211
0
LINE
8
DEFAULT_255_1_234
10
11.4182157
20
0.5181211
11
11.4182157
21
-0.3099511
0
LINE
8
DEFAULT_255_1_234
10
10.6800989
20
-0.3284241
11
10.8343083
21
-0.3284241
0
ARC
8
DEFAULT_255_1_234
10
10.9691342
20
-0.3137911
40
0.4490979
50
346.3129415
51
0.4899112
0
ARC
8
DEFAULT_255_1_234
10
11.1059691
20
-0.3488271
40
0.3078632
50
313.3793358
51
346.6225026
0
ARC
8
DEFAULT_255_1_234
10
11.0858878
20
-0.3235478
40
0.3400404
50
281.1587967
51
312.9131091
0
ARC
8
DEFAULT_255_1_234
10
11.0518342
20
-0.1740815
40
0.4932916
50
269.6424364
51
281.6795951
0
ARC
8
DEFAULT_255_1_234
10
11.0449706
20
-0.1191618
40
0.5482147
50
258.9990078
51
270.3955952
0
ARC
8
DEFAULT_255_1_234
10
11.007501
20
-0.3040254
40
0.359601
50
239.6256123
51
259.238693
0
ARC
8
DEFAULT_255_1_234
10
10.9786093
20
-0.3585331
40
0.2979777
50
227.4959765
51
239.1188186
0
ARC
8
DEFAULT_255_1_234
10
10.9748659
20
-0.3646311
40
0.2909561
50
191.339631
51
227.2280909
0
ARC
8
DEFAULT_255_1_234
10
11.11533
20
-0.3313969
40
0.4352412
50
179.6086538
51
191.9934722
0
ARC
8
DEFAULT_255_1_234
10
11.1287322
20
-0.3306573
40
0.2944324
50
179.5654258
51
192.070398
0
ARC
8
DEFAULT_255_1_234
10
11.0315812
20
-0.3524921
40
0.194866
50
191.7656467
51
215.6461951
0
ARC
8
DEFAULT_255_1_234
10
11.0137313
20
-0.3632454
40
0.1741017
50
216.1938368
51
224.3931108
0
ARC
8
DEFAULT_255_1_234
10
11.0144199
20
-0.3605527
40
0.1764834
50
224.8613677
51
254.362656
0
ARC
8
DEFAULT_255_1_234
10
11.0414913
20
-0.271099
40
0.2699302
50
253.9471729
51
267.3949949
0
ARC
8
DEFAULT_255_1_234
10
11.048542
20
-0.1786933
40
0.362572
50
266.9456419
51
270.0337791
0
ARC
8
DEFAULT_255_1_234
10
11.05108
20
-0.294877
40
0.2463991
50
269.4595111
51
286.1822844
0
ARC
8
DEFAULT_255_1_234
10
11.065209
20
-0.3466953
40
0.1926982
50
286.4416479
51
315.8044008
0
ARC
8
DEFAULT_255_1_234
10
11.0597897
20
-0.3424793
40
0.1995241
50
316.0212565
51
345.4794351
0
ARC
8
DEFAULT_255_1_234
10
10.9627404
20
-0.3151425
40
0.3003349
50
345.0729543
51
358.325089
0
ARC
8
DEFAULT_255_1_234
10
10.8751375
20
-0.3095432
40
0.3880759
50
357.8767804
51
359.5840246
0
LINE
8
DEFAULT_255_1_234
10
12.1306309
20
0.5237433
11
12.1306309
21
-0.6513
0
LINE
8
DEFAULT_255_1_234
10
12.1306309
20
-0.6513
11
11.9812405
21
-0.6513
0
LINE
8
DEFAULT_255_1_234
10
11.9812405
20
-0.6513
11
11.9812405
21
0.3390133
0
LINE
8
DEFAULT_255_1_234
10
11.9812405
20
0.3390133
11
11.6816567
21
0.2289785
0
LINE
8
DEFAULT_255_1_234
10
11.6816567
20
0.2289785
11
11.6816567
21
0.3639117
0
LINE
8
DEFAULT_255_1_234
10
11.6816567
20
0.3639117
11
12.1073388
21
0.5237433
0
LINE
8
DEFAULT_255_1_234
10
12.1073388
20
0.5237433
11
12.1306309
21
0.5237433
0
LINE
8
DEFAULT_255_1_234
10
12.67197
20
0.5181211
11
12.8567
21
-0.2826432
0
LINE
8
DEFAULT_255_1_234
10
12.8567
20
-0.2826432
11
12.8791889
21
-0.4368526
0
LINE
8
DEFAULT_255_1_234
10
12.8791889
20
-0.4368526
11
12.912119
21
-0.2979035
0
LINE
8
DEFAULT_255_1_234
10
12.912119
20
-0.2979035
11
13.1434331
21
0.5181211
0
LINE
8
DEFAULT_255_1_234
10
13.1434331
20
0.5181211
11
13.2735472
21
0.5181211
0
LINE
8
DEFAULT_255_1_234
10
13.2735472
20
0.5181211
11
13.4992391
21
-0.2979035
0
LINE
8
DEFAULT_255_1_234
10
13.4992391
20
-0.2979035
11
13.531366
21
-0.4392621
0
LINE
8
DEFAULT_255_1_234
10
13.531366
20
-0.4392621
11
13.5562644
21
-0.28184
0
LINE
8
DEFAULT_255_1_234
10
13.5562644
20
-0.28184
11
13.7377817
21
0.5181211
0
LINE
8
DEFAULT_255_1_234
10
13.7377817
20
0.5181211
11
13.8927942
21
0.5181211
0
LINE
8
DEFAULT_255_1_234
10
13.8927942
20
0.5181211
11
13.6092739
21
-0.6513
0
LINE
8
DEFAULT_255_1_234
10
13.6092739
20
-0.6513
11
13.4687185
21
-0.6513
0
LINE
8
DEFAULT_255_1_234
10
13.4687185
20
-0.6513
11
13.2277663
21
0.2008674
0
LINE
8
DEFAULT_255_1_234
10
13.2277663
20
0.2008674
11
13.2092933
21
0.2900197
0
LINE
8
DEFAULT_255_1_234
10
13.2092933
20
0.2900197
11
13.1908203
21
0.2008674
0
LINE
8
DEFAULT_255_1_234
10
13.1908203
20
0.2008674
11
12.9410333
21
-0.6513
0
LINE
8
DEFAULT_255_1_234
10
12.9410333
20
-0.6513
11
12.8004778
21
-0.6513
0
LINE
8
DEFAULT_255_1_234
10
12.8004778
20
-0.6513
11
12.5177606
21
0.5181211
0
LINE
8
DEFAULT_255_1_234
10
12.5177606
20
0.5181211
11
12.67197
21
0.5181211
0
LINE
8
DEFAULT_255_1_234
10
14.3016097
20
-0.0938974
11
14.3016097
21
-0.2151766
0
LINE
8
DEFAULT_255_1_234
10
14.3016097
20
-0.2151766
11
13.9096609
21
-0.2151766
0
LINE
8
DEFAULT_255_1_234
10
13.9096609
20
-0.2151766
11
13.9096609
21
-0.0938974
0
LINE
8
DEFAULT_255_1_234
10
13.9096609
20
-0.0938974
11
14.3016097
21
-0.0938974
0
LINE
8
DEFAULT_255_1_234
10
14.6349269
20
0.5181211
11
14.6349269
21
-0.6513
0
LINE
8
DEFAULT_255_1_234
10
14.6349269
20
-0.6513
11
14.4807175
21
-0.6513
0
LINE
8
DEFAULT_255_1_234
10
14.4807175
20
-0.6513
11
14.4807175
21
0.5181211
0
LINE
8
DEFAULT_255_1_234
10
14.4807175
20
0.5181211
11
14.6349269
21
0.5181211
0
LINE
8
DEFAULT_255_1_234
10
15.2405199
20
-0.6513
11
14.9168409
21
-0.6513
0
LINE
8
DEFAULT_255_1_234
10
14.9168409
20
-0.6513
11
14.9168409
21
0.5181211
0
LINE
8
DEFAULT_255_1_234
10
14.9168409
20
0.5181211
11
15.2469453
21
0.5181211
0
LINE
8
DEFAULT_255_1_234
10
15.7625829
20
-0.0272339
11
15.7625829
21
-0.1019291
0
LINE
8
DEFAULT_255_1_234
10
15.2509612
20
0.3912196
11
15.0710502
21
0.3912196
0
LINE
8
DEFAULT_255_1_234
10
15.0710502
20
0.3912196
11
15.0710502
21
-0.5252017
0
LINE
8
DEFAULT_255_1_234
10
15.0710502
20
-0.5252017
11
15.2332914
21
-0.5252017
0
LINE
8
DEFAULT_255_1_234
10
15.6099799
20
-0.0987164
11
15.6099799
21
-0.0304466
0
ARC
8
DEFAULT_255_1_234
10
15.2508396
20
-0.0684106
40
0.5865446
50
75.4101064
51
90.3804066
0
ARC
8
DEFAULT_255_1_234
10
15.2737909
20
0.0272492
40
0.4881916
50
60.145586
51
75.1888407
0
ARC
8
DEFAULT_255_1_234
10
15.2896685
20
0.0549199
40
0.4562893
50
26.5253612
51
60.1450928
0
ARC
8
DEFAULT_255_1_234
10
15.1776434
20
-0.0044842
40
0.5830602
50
7.4030428
51
26.8320788
0
ARC
8
DEFAULT_255_1_234
10
15.0182191
20
-0.0293196
40
0.7443669
50
0.1605367
51
7.7176192
0
ARC
8
DEFAULT_255_1_234
10
15.0346095
20
-0.1057566
40
0.7279835
50
348.7289388
51
0.3012466
0
ARC
8
DEFAULT_255_1_234
10
15.2002526
20
-0.1386614
40
0.559104
50
333.0706509
51
348.7181832
0
ARC
8
DEFAULT_255_1_234
10
15.2969283
20
-0.1911681
40
0.4491417
50
299.2531685
51
333.4571258
0
ARC
8
DEFAULT_255_1_234
10
15.2608423
20
-0.1226172
40
0.5265881
50
278.107187
51
299.0339503
0
ARC
8
DEFAULT_255_1_234
10
15.2352502
20
0.0281216
40
0.679442
50
270.4443897
51
278.4511052
0
ARC
8
DEFAULT_255_1_234
10
15.2373332
20
-0.0647787
40
0.4604407
50
269.4970433
51
284.0205042
0
ARC
8
DEFAULT_255_1_234
10
15.2728633
20
-0.2013022
40
0.3193797
50
283.7700273
51
318.1555492
0
ARC
8
DEFAULT_255_1_234
10
15.2391391
20
-0.1760633
40
0.3613588
50
318.7415601
51
343.6873628
0
ARC
8
DEFAULT_255_1_234
10
15.0587414
20
-0.1197168
40
0.5503313
50
343.3325091
51
355.8548958
0
ARC
8
DEFAULT_255_1_234
10
14.8489098
20
-0.0997681
40
0.7610708
50
355.4988528
51
0.0791727
0
ARC
8
DEFAULT_255_1_234
10
14.9271721
20
-0.026222
40
0.6828208
50
359.6455037
51
9.8607896
0
ARC
8
DEFAULT_255_1_234
10
15.1632419
20
0.0164099
40
0.4429406
50
9.6571907
51
26.1932807
0
ARC
8
DEFAULT_255_1_234
10
15.2560408
20
0.0595118
40
0.3406537
50
26.5777228
51
40.1532208
0
ARC
8
DEFAULT_255_1_234
10
15.2816134
20
0.0794619
40
0.308246
50
40.3840491
51
80.1431104
0
ARC
8
DEFAULT_255_1_234
10
15.2489252
20
-0.0654667
40
0.4566909
50
79.2152159
51
89.7445637
0
LINE
8
DEFAULT_255_1_234
10
16.4252013
20
-0.1934909
11
16.1497127
21
-0.1934909
0
LINE
8
DEFAULT_255_1_234
10
16.1497127
20
-0.1934909
11
16.1497127
21
-0.6513
0
LINE
8
DEFAULT_255_1_234
10
16.1497127
20
-0.6513
11
15.9955033
21
-0.6513
0
LINE
8
DEFAULT_255_1_234
10
15.9955033
20
-0.6513
11
15.9955033
21
0.5181211
0
LINE
8
DEFAULT_255_1_234
10
15.9955033
20
0.5181211
11
16.4268077
21
0.5181211
0
LINE
8
DEFAULT_255_1_234
10
16.1497127
20
0.3912196
11
16.1497127
21
-0.0673926
0
LINE
8
DEFAULT_255_1_234
10
16.1497127
20
-0.0673926
11
16.4268077
21
-0.0673926
0
LINE
8
DEFAULT_255_1_234
10
16.4356426
20
0.3912196
11
16.1497127
21
0.3912196
0
ARC
8
DEFAULT_255_1_234
10
16.4310204
20
-0.0877805
40
0.6059162
50
78.8378113
51
90.3983573
0
ARC
8
DEFAULT_255_1_234
10
16.4726217
20
0.1142879
40
0.3996205
50
58.9632738
51
79.0810598
0
ARC
8
DEFAULT_255_1_234
10
16.5027759
20
0.1702721
40
0.3361177
50
48.0197965
51
58.447194
0
ARC
8
DEFAULT_255_1_234
10
16.511662
20
0.1788225
40
0.3238191
50
3.3375044
51
48.1766626
0
ARC
8
DEFAULT_255_1_234
10
16.388646
20
0.1611171
40
0.4477806
50
359.9477528
51
4.6829065
0
ARC
8
DEFAULT_255_1_234
10
16.4009777
20
0.1568628
40
0.4354656
50
346.1877825
51
0.5060252
0
ARC
8
DEFAULT_255_1_234
10
16.5368644
20
0.1215731
40
0.295089
50
310.8831995
51
346.5426355
0
ARC
8
DEFAULT_255_1_234
10
16.5060064
20
0.1632695
40
0.3468331
50
286.6925341
51
310.2288297
0
ARC
8
DEFAULT_255_1_234
10
16.4490895
20
0.3422882
40
0.5346654
50
274.6850312
51
287.0245141
0
ARC
8
DEFAULT_255_1_234
10
16.4265618
20
0.5631932
40
0.7566852
50
269.8969846
51
275.018904
0
ARC
8
DEFAULT_255_1_234
10
16.4293209
20
0.3552707
40
0.4226708
50
269.6593078
51
279.4153575
0
ARC
8
DEFAULT_255_1_234
10
16.4550485
20
0.2062133
40
0.2714146
50
279.2049762
51
294.9900808
0
ARC
8
DEFAULT_255_1_234
10
16.484081
20
0.1414508
40
0.2004525
50
295.2888114
51
311.2911209
0
ARC
8
DEFAULT_255_1_234
10
16.4911705
20
0.130922
40
0.1878703
50
311.7854996
51
347.2861051
0
ARC
8
DEFAULT_255_1_234
10
16.3927863
20
0.1562092
40
0.2894234
50
346.6893224
51
0.1059443
0
ARC
8
DEFAULT_255_1_234
10
16.3172758
20
0.1590685
40
0.3649409
50
359.6350983
51
0.0053152
0
ARC
8
DEFAULT_255_1_234
10
16.4143087
20
0.1615937
40
0.2679199
50
359.4672059
51
15.5933957
0
ARC
8
DEFAULT_255_1_234
10
16.4767975
20
0.1784779
40
0.2031932
50
15.7442113
51
46.6203375
0
ARC
8
DEFAULT_255_1_234
10
16.4620196
20
0.1614484
40
0.2257226
50
46.8628658
51
75.6676503
0
ARC
8
DEFAULT_255_1_234
10
16.4326017
20
0.0555718
40
0.3355939
50
75.276167
51
88.2915297
0
ARC
8
DEFAULT_255_1_234
10
16.4267723
20
-0.0322476
40
0.4235602
50
87.8575022
51
88.8000139
0
LINE
8
DEFAULT_255_1_234
10
17.7279493
20
0.0402327
11
17.7279493
21
-0.1525291
0
LINE
8
DEFAULT_255_1_234
10
16.9898325
20
-0.1726084
11
16.9898325
21
0.0257755
0
LINE
8
DEFAULT_255_1_234
10
17.5793621
20
-0.1926877
11
17.5793621
21
0.0506739
0
LINE
8
DEFAULT_255_1_234
10
17.1384197
20
0.0619184
11
17.1384197
21
-0.1758211
0
ARC
8
DEFAULT_255_1_234
10
16.5032382
20
-0.1574195
40
1.2247208
50
353.8441951
51
0.2287902
0
ARC
8
DEFAULT_255_1_234
10
16.9671886
20
-0.2092194
40
0.7578929
50
344.4934747
51
353.9765454
0
ARC
8
DEFAULT_255_1_234
10
17.2664476
20
-0.2943019
40
0.4467846
50
329.2803592
51
344.7472793
0
ARC
8
DEFAULT_255_1_234
10
17.3657301
20
-0.3487982
40
0.3336173
50
324.9352394
51
328.6160465
0
ARC
8
DEFAULT_255_1_234
10
17.403441
20
-0.3751573
40
0.2876076
50
280.580143
51
324.9173126
0
ARC
8
DEFAULT_255_1_234
10
17.3633202
20
-0.2080901
40
0.4592847
50
269.5977311
51
281.6734359
0
ARC
8
DEFAULT_255_1_234
10
17.3561108
20
-0.2200827
40
0.4472986
50
256.6228859
51
270.51044
0
ARC
8
DEFAULT_255_1_234
10
17.3159086
20
-0.3749123
40
0.2873874
50
215.8618325
51
257.2788573
0
ARC
8
DEFAULT_255_1_234
10
17.4180117
20
-0.3064023
40
0.4102928
50
197.9693508
51
215.2623606
0
ARC
8
DEFAULT_255_1_234
10
17.6665233
20
-0.2225291
40
0.6725652
50
187.8816417
51
198.2346507
0
ARC
8
DEFAULT_255_1_234
10
18.0623441
20
-0.1653921
40
1.0724845
50
180.8976217
51
188.0055519
0
ARC
8
DEFAULT_255_1_234
10
18.3423629
20
-0.1550223
40
1.3526448
50
180.7449369
51
181.1510016
0
ARC
8
DEFAULT_255_1_234
10
18.1846358
20
0.0306042
40
1.1948131
50
173.7675579
51
180.231553
0
ARC
8
DEFAULT_255_1_234
10
17.7328505
20
0.0816666
40
0.7401564
50
164.3058563
51
173.9002247
0
ARC
8
DEFAULT_255_1_234
10
17.4416574
20
0.1655656
40
0.4371288
50
148.7922025
51
164.568378
0
ARC
8
DEFAULT_255_1_234
10
17.3465026
20
0.2186929
40
0.3282386
50
144.5883898
51
148.1176286
0
ARC
8
DEFAULT_255_1_234
10
17.3121924
20
0.2426315
40
0.2864044
50
101.6440918
51
144.514236
0
ARC
8
DEFAULT_255_1_234
10
17.3546991
20
0.0737069
40
0.4604934
50
89.5284041
51
102.5819763
0
ARC
8
DEFAULT_255_1_234
10
17.3626078
20
0.0698018
40
0.464401
50
77.0437873
51
90.5081339
0
ARC
8
DEFAULT_255_1_234
10
17.402808
20
0.2340615
40
0.2953195
50
48.2778575
51
77.4994676
0
ARC
8
DEFAULT_255_1_234
10
17.4100712
20
0.2469746
40
0.2808655
50
36.3142134
51
47.6305865
0
ARC
8
DEFAULT_255_1_234
10
17.3232018
20
0.1884515
40
0.3855453
50
18.2931786
51
35.6769206
0
ARC
8
DEFAULT_255_1_234
10
17.0688777
20
0.1011593
40
0.654423
50
8.024666
51
18.5605216
0
ARC
8
DEFAULT_255_1_234
10
16.6525697
20
0.0396792
40
1.0752407
50
1.1274072
51
8.1718305
0
ARC
8
DEFAULT_255_1_234
10
16.3289888
20
0.0269885
40
1.3990231
50
0.5424119
51
1.3863029
0
ARC
8
DEFAULT_255_1_234
10
16.5111266
20
0.0542342
40
1.0682415
50
359.8090433
51
4.9407866
0
ARC
8
DEFAULT_255_1_234
10
16.932128
20
0.0918113
40
0.6455691
50
4.8362157
51
12.2904523
0
ARC
8
DEFAULT_255_1_234
10
17.2076395
20
0.1531965
40
0.3633074
50
12.0805627
51
23.8173984
0
ARC
8
DEFAULT_255_1_234
10
17.32501
20
0.2028919
40
0.2358723
50
24.2871213
51
31.3935614
0
ARC
8
DEFAULT_255_1_234
10
17.3774797
20
0.2372233
40
0.1732111
50
30.7407893
51
82.4657128
0
ARC
8
DEFAULT_255_1_234
10
17.3594931
20
0.1488691
40
0.263235
50
81.1060089
51
90.2184952
0
ARC
8
DEFAULT_255_1_234
10
17.355923
20
0.1746924
40
0.2374236
50
89.3806855
51
105.6762551
0
ARC
8
DEFAULT_255_1_234
10
17.3375861
20
0.2413567
40
0.1682847
50
105.7981136
51
149.7388061
0
ARC
8
DEFAULT_255_1_234
10
17.4439939
20
0.177395
40
0.2924306
50
149.4208916
51
163.6286378
0
ARC
8
DEFAULT_255_1_234
10
17.6530827
20
0.113625
40
0.5110213
50
163.3763315
51
172.1410975
0
ARC
8
DEFAULT_255_1_234
10
17.9831546
20
0.0663518
40
0.8444586
50
172.0259487
51
178.0703232
0
ARC
8
DEFAULT_255_1_234
10
18.2861636
20
0.0519906
40
1.1477868
50
177.8631668
51
179.5044149
0
ARC
8
DEFAULT_255_1_234
10
18.178904
20
-0.1794611
40
1.0404907
50
179.7995573
51
185.2460446
0
ARC
8
DEFAULT_255_1_234
10
17.774608
20
-0.2177487
40
0.6343885
50
185.1411642
51
193.0079639
0
ARC
8
DEFAULT_255_1_234
10
17.5102552
20
-0.2802359
40
0.3627568
50
192.7897626
51
205.2507664
0
ARC
8
DEFAULT_255_1_234
10
17.4056099
20
-0.3269585
40
0.2481908
50
205.8005384
51
211.2537509
0
ARC
8
DEFAULT_255_1_234
10
17.353254
20
-0.362042
40
0.1852521
50
210.3789793
51
238.4008143
0
ARC
8
DEFAULT_255_1_234
10
17.3513061
20
-0.3573624
40
0.1882621
50
239.6520629
51
265.9793761
0
ARC
8
DEFAULT_255_1_234
10
17.3598262
20
-0.2901573
40
0.2559272
50
265.1315437
51
270.060332
0
ARC
8
DEFAULT_255_1_234
10
17.362704
20
-0.3225466
40
0.2235528
50
269.3314664
51
287.2178029
0
ARC
8
DEFAULT_255_1_234
10
17.3764892
20
-0.3728721
40
0.1714108
50
287.7958004
51
329.080874
0
ARC
8
DEFAULT_255_1_234
10
17.2807349
20
-0.313107
40
0.2842745
50
328.6634704
51
343.3325132
0
ARC
8
DEFAULT_255_1_234
10
17.0634369
20
-0.2454137
40
0.5118644
50
343.0499468
51
351.9393422
0
ARC
8
DEFAULT_255_1_234
10
16.7167669
20
-0.1943051
40
0.8622784
50
351.8069023
51
357.7959224
0
ARC
8
DEFAULT_255_1_234
10
16.3932225
20
-0.1775279
40
1.1862365
50
357.5871873
51
359.2677531
0
LINE
8
DEFAULT_255_1_234
10
18.4066312
20
0.5237433
11
18.4066312
21
-0.6513
0
LINE
8
DEFAULT_255_1_234
10
18.4066312
20
-0.6513
11
18.2572408
21
-0.6513
0
LINE
8
DEFAULT_255_1_234
10
18.2572408
20
-0.6513
11
18.2572408
21
0.3390133
0
LINE
8
DEFAULT_255_1_234
10
18.2572408
20
0.3390133
11
17.957657
21
0.2289785
0
LINE
8
DEFAULT_255_1_234
10
17.957657
20
0.2289785
11
17.957657
21
0.3639117
0
LINE
8
DEFAULT_255_1_234
10
17.957657
20
0.3639117
11
18.3833391
21
0.5237433
0
LINE
8
DEFAULT_255_1_234
10
18.3833391
20
0.5237433
11
18.4066312
21
0.5237433
0
ARC
8
DEFAULT_255_2_778
10
15.2720183
20
137.8171485
40
0.3780135
50
0.4109279
51
91.3333757
0
ARC
8
DEFAULT_255_2_778
10
15.2696879
20
137.8146741
40
0.3803695
50
269.0259909
51
0.7811192
0
ARC
8
DEFAULT_255_2_778
10
15.4292635
20
137.8018826
40
0.7634811
50
290.7150207
51
357.6789493
0
ARC
8
DEFAULT_255_2_778
10
15.3436879
20
137.819789
40
0.849834
50
356.7063002
51
0.0047554
0
ARC
8
DEFAULT_255_2_778
10
15.3422443
20
137.8198425
40
0.8512778
50
0.0011515
51
85.3589632
0
ARC
8
DEFAULT_255_2_778
10
15.3422371
20
137.8007769
40
0.8702827
50
85.4600549
51
90.0075769
0
ARC
8
DEFAULT_255_2_778
10
20.1735812
20
137.8107119
40
0.3843497
50
1.363792
51
90.1877013
0
ARC
8
DEFAULT_255_2_778
10
20.2329096
20
137.8041312
40
0.8684198
50
359.7643557
51
42.1181505
0
ARC
8
DEFAULT_255_2_778
10
20.2353156
20
137.8045609
40
0.866348
50
42.2037872
51
87.9292218
0
ARC
8
DEFAULT_255_2_778
10
20.2305626
20
137.7632775
40
0.9077821
50
87.7235759
51
90.0025578
0
ARC
8
DEFAULT_255_2_778
10
12.9266813
20
137.8175938
40
0.3775476
50
0.3438524
51
91.1927816
0
ARC
8
DEFAULT_255_2_778
10
12.9805692
20
137.8041272
40
0.8684602
50
359.7646302
51
42.1161032
0
ARC
8
DEFAULT_255_2_778
10
12.9830774
20
137.8046804
40
0.8662296
50
42.2002176
51
87.9268901
0
ARC
8
DEFAULT_255_2_778
10
12.9783626
20
137.7636426
40
0.9074169
50
87.7231194
51
90.002558
0
ARC
8
DEFAULT_255_2_778
10
17.559042
20
137.4123535
40
1.2841942
50
233.3100129
51
270.0348017
0
ARC
8
DEFAULT_255_2_778
10
17.5711133
20
137.4327299
40
1.3077482
50
187.7860459
51
233.4193197
0
ARC
8
DEFAULT_255_2_778
10
17.5893588
20
137.4342862
40
1.3260368
50
179.9838663
51
187.7458681
0
ARC
8
DEFAULT_255_2_778
10
17.5478523
20
137.4349052
40
1.2845303
50
143.7084173
51
180.0109545
0
ARC
8
DEFAULT_255_2_778
10
17.5629238
20
137.4298576
40
1.2996747
50
94.9692901
51
143.9223324
0
ARC
8
DEFAULT_255_2_778
10
17.5597032
20
137.4305024
40
1.2987573
50
89.9947559
51
94.8302073
0
ARC
8
DEFAULT_255_2_778
10
17.5620152
20
137.4245179
40
1.3047435
50
58.1429841
51
90.0963106
0
ARC
8
DEFAULT_255_2_778
10
17.5702244
20
137.4305054
40
1.2953307
50
3.4984463
51
58.3116148
0
ARC
8
DEFAULT_255_2_778
10
17.5704037
20
137.4344205
40
1.2949184
50
359.9973027
51
3.3260237
0
ARC
8
DEFAULT_255_2_778
10
17.385668
20
137.4323181
40
1.4796554
50
0.0060895
51
0.0790519
0
ARC
8
DEFAULT_255_2_778
10
17.5607837
20
137.4326189
40
1.3045398
50
315.0179824
51
359.9936925
0
ARC
8
DEFAULT_255_2_778
10
17.561074
20
137.432191
40
1.3040319
50
269.9947129
51
315.0222645
0
LINE
8
DEFAULT_255_2_778
10
17.5609537
20
136.1281591
11
17.5598221
21
136.1281596
0
ARC
8
DEFAULT_255_2_778
10
17.5640812
20
137.4306789
40
0.7580313
50
269.6780691
51
315.5292436
0
ARC
8
DEFAULT_255_2_778
10
17.5610107
20
137.4299556
40
0.7597205
50
315.7303962
51
0.2857903
0
ARC
8
DEFAULT_255_2_778
10
17.8487376
20
137.4342059
40
0.4719845
50
359.944048
51
0.0186519
0
ARC
8
DEFAULT_255_2_778
10
17.5687772
20
137.4332282
40
0.7519457
50
0.086204
51
85.4319233
0
ARC
8
DEFAULT_255_2_778
10
17.5599609
20
137.3908015
40
0.7949581
50
85.0420495
51
90.0100075
0
ARC
8
DEFAULT_255_2_778
10
17.5579396
20
137.4475196
40
0.7382424
50
89.8538973
51
89.9999976
0
ARC
8
DEFAULT_255_2_778
10
17.558077
20
137.4345721
40
0.7511899
50
90.01048
51
134.9443097
0
ARC
8
DEFAULT_255_2_778
10
17.5582947
20
137.4343899
40
0.7514726
50
134.9462486
51
180.0023145
0
ARC
8
DEFAULT_255_2_778
10
17.5708624
20
137.4304552
40
0.7640503
50
179.7072119
51
222.5790813
0
ARC
8
DEFAULT_255_2_778
10
17.5579296
20
137.4194152
40
0.7470579
50
222.6267201
51
270.1451401
0
ARC
8
DEFAULT_255_2_778
10
9.564442
20
137.4123535
40
1.2841942
50
233.3100129
51
270.0348017
0
ARC
8
DEFAULT_255_2_778
10
9.5765133
20
137.4327299
40
1.3077482
50
187.7860459
51
233.4193197
0
ARC
8
DEFAULT_255_2_778
10
9.5947588
20
137.4342862
40
1.3260368
50
179.9838663
51
187.7458681
0
ARC
8
DEFAULT_255_2_778
10
9.5533136
20
137.434924
40
1.2845916
50
143.7114698
51
180.0117952
0
ARC
8
DEFAULT_255_2_778
10
9.5683755
20
137.4297703
40
1.299791
50
95.4071875
51
143.9213067
0
ARC
8
DEFAULT_255_2_778
10
9.565082
20
137.4308475
40
1.2984121
50
89.9938197
51
95.266981
0
ARC
8
DEFAULT_255_2_778
10
9.5673999
20
137.424719
40
1.3045424
50
58.1404634
51
90.0956514
0
ARC
8
DEFAULT_255_2_778
10
9.5754868
20
137.4305012
40
1.2953683
50
3.4985319
51
58.3092733
0
ARC
8
DEFAULT_255_2_778
10
9.5757037
20
137.4344205
40
1.2949184
50
359.9973027
51
3.3260236
0
ARC
8
DEFAULT_255_2_778
10
9.390968
20
137.4323181
40
1.4796554
50
0.0060895
51
0.0790519
0
ARC
8
DEFAULT_255_2_778
10
9.5660837
20
137.4326189
40
1.3045398
50
315.0179824
51
359.9936925
0
ARC
8
DEFAULT_255_2_778
10
9.566398
20
137.4321333
40
1.3039742
50
269.9980398
51
315.0233127
0
LINE
8
DEFAULT_255_2_778
10
9.5663534
20
136.1281591
11
9.5652221
21
136.1281596
0
ARC
8
DEFAULT_255_2_778
10
9.5694412
20
137.4306812
40
0.7580334
50
269.6810953
51
315.6152252
0
ARC
8
DEFAULT_255_2_778
10
9.5663839
20
137.4300058
40
0.7597504
50
315.8129036
51
0.3254485
0
ARC
8
DEFAULT_255_2_778
10
9.5738176
20
137.4329242
40
0.7523058
50
0.1093155
51
85.7820321
0
ARC
8
DEFAULT_255_2_778
10
9.5653381
20
137.391394
40
0.7943655
50
85.3923987
51
90.0083732
0
ARC
8
DEFAULT_255_2_778
10
9.5633385
20
137.4466025
40
0.7391595
50
89.8539942
51
89.9999859
0
ARC
8
DEFAULT_255_2_778
10
9.563405
20
137.434746
40
0.7510159
50
90.0050654
51
134.9497993
0
ARC
8
DEFAULT_255_2_778
10
9.5632746
20
137.434564
40
0.7510526
50
134.9329452
51
180.0155944
0
ARC
8
DEFAULT_255_2_778
10
9.5762945
20
137.4304289
40
0.7640826
50
179.7052536
51
222.5741919
0
ARC
8
DEFAULT_255_2_778
10
9.5632805
20
137.419384
40
0.7470269
50
222.6256588
51
270.1489141
0
LINE
8
DEFAULT_255_2_778
10
14.0768221
20
138.6504596
11
14.0768221
21
136.1876596
0
LINE
8
DEFAULT_255_2_778
10
14.0768221
20
136.1876596
11
14.6203221
21
136.1876596
0
LINE
8
DEFAULT_255_2_778
10
14.6203221
20
136.1876596
11
14.6203221
21
138.1950596
0
LINE
8
DEFAULT_255_2_778
10
14.6203221
20
138.1950596
11
15.2632221
21
138.1950596
0
LINE
8
DEFAULT_255_2_778
10
15.2632221
20
137.4343596
11
14.7986221
21
137.4343596
0
LINE
8
DEFAULT_255_2_778
10
14.7986221
20
137.4343596
11
15.6397221
21
136.1873596
0
LINE
8
DEFAULT_255_2_778
10
15.6397221
20
136.1873596
11
16.3126221
21
136.1873596
0
LINE
8
DEFAULT_255_2_778
10
16.3126221
20
136.1873596
11
15.6993221
21
137.0877596
0
LINE
8
DEFAULT_255_2_778
10
15.3421221
20
138.6710596
11
14.6200221
21
138.6710596
0
LINE
8
DEFAULT_255_2_778
10
14.6200221
20
138.6710596
11
14.0766221
21
138.6504596
0
LINE
8
DEFAULT_255_2_778
10
14.0766221
20
138.6504596
11
14.0768221
21
138.6504596
0
LINE
8
DEFAULT_255_2_778
10
19.0142221
20
138.6504596
11
19.0142221
21
136.1876596
0
LINE
8
DEFAULT_255_2_778
10
19.0142221
20
136.1876596
11
19.5577221
21
136.1876596
0
LINE
8
DEFAULT_255_2_778
10
19.5577221
20
136.1876596
11
19.5577221
21
138.1950596
0
LINE
8
DEFAULT_255_2_778
10
19.5577221
20
138.1950596
11
20.1723221
21
138.1950596
0
LINE
8
DEFAULT_255_2_778
10
20.5578221
20
137.8198596
11
20.5578221
21
136.1876596
0
LINE
8
DEFAULT_255_2_778
10
20.5578221
20
136.1876596
11
21.1013221
21
136.1876596
0
LINE
8
DEFAULT_255_2_778
10
21.1013221
20
136.1876596
11
21.1013221
21
137.8005596
0
LINE
8
DEFAULT_255_2_778
10
20.2305221
20
138.6710596
11
19.5577221
21
138.6710596
0
LINE
8
DEFAULT_255_2_778
10
19.5577221
20
138.6710596
11
19.0142221
21
138.6504596
0
LINE
8
DEFAULT_255_2_778
10
19.0142221
20
138.6504596
11
19.0142221
21
138.6504596
0
LINE
8
DEFAULT_255_2_778
10
11.0196221
20
138.6504596
11
11.0196221
21
136.1876596
0
LINE
8
DEFAULT_255_2_778
10
11.0196221
20
136.1876596
11
11.5628221
21
136.1876596
0
LINE
8
DEFAULT_255_2_778
10
11.5628221
20
136.1876596
11
11.5628221
21
138.1950596
0
LINE
8
DEFAULT_255_2_778
10
11.5628221
20
138.1950596
11
12.1671221
21
138.1950596
0
LINE
8
DEFAULT_255_2_778
10
12.1671221
20
138.1950596
11
12.1671221
21
136.1876596
0
LINE
8
DEFAULT_255_2_778
10
12.1671221
20
136.1876596
11
12.7105221
21
136.1876596
0
LINE
8
DEFAULT_255_2_778
10
12.7105221
20
136.1876596
11
12.7105221
21
138.1950596
0
LINE
8
DEFAULT_255_2_778
10
12.7105221
20
138.1950596
11
12.9188221
21
138.1950596
0
LINE
8
DEFAULT_255_2_778
10
13.3042221
20
137.8198596
11
13.3042221
21
136.1876596
0
LINE
8
DEFAULT_255_2_778
10
13.3042221
20
136.1876596
11
13.8490221
21
136.1876596
0
LINE
8
DEFAULT_255_2_778
10
13.8490221
20
136.1876596
11
13.8490221
21
137.8005596
0
LINE
8
DEFAULT_255_2_778
10
12.9783221
20
138.6710596
11
11.5731221
21
138.6710596
0
LINE
8
DEFAULT_255_2_778
10
11.5731221
20
138.6710596
11
11.0193221
21
138.6504596
0
LINE
8
DEFAULT_255_2_778
10
11.0193221
20
138.6504596
11
11.0196221
21
138.6504596
0
LINE
8
DEFAULT_255_2_778
10
17.5598221
20
136.1281596
11
17.5598221
21
136.1281596
0
LINE
8
DEFAULT_255_2_778
10
9.5652221
20
136.1281596
11
9.5652221
21
136.1281596
0
LINE
8
DEFAULT_255_1_234
10
11.521223
20
133.9957663
11
11.6762355
21
133.9957663
0
LINE
8
DEFAULT_255_1_234
10
10.7758777
20
134.1547947
11
10.7758777
21
134.2672391
0
LINE
8
DEFAULT_255_1_234
10
11.6762355
20
134.4182357
11
11.521223
21
134.4182357
0
LINE
8
DEFAULT_255_1_234
10
10.9308902
20
134.2632232
11
10.9308902
21
134.1499757
0
ARC
8
DEFAULT_255_1_234
10
11.1281742
20
134.0554846
40
0.5513052
50
340.1774281
51
353.7814284
0
ARC
8
DEFAULT_255_1_234
10
11.2853095
20
133.9969582
40
0.3836379
50
311.4558989
51
340.4421614
0
ARC
8
DEFAULT_255_1_234
10
11.2819763
20
134.0080528
40
0.3941894
50
282.4333181
51
310.7513653
0
ARC
8
DEFAULT_255_1_234
10
11.2380502
20
134.1895679
40
0.5809175
50
269.9358511
51
282.809604
0
ARC
8
DEFAULT_255_1_234
10
11.2328568
20
134.3353212
40
0.7266847
50
270.0021091
51
270.3581957
0
ARC
8
DEFAULT_255_1_234
10
11.2275985
20
134.0752585
40
0.4666519
50
250.7884749
51
270.6489167
0
ARC
8
DEFAULT_255_1_234
10
11.210782
20
134.0115319
40
0.4009729
50
219.3627325
51
250.0611886
0
ARC
8
DEFAULT_255_1_234
10
11.2937031
20
134.0820042
40
0.5097822
50
193.5479632
51
219.5756669
0
ARC
8
DEFAULT_255_1_234
10
11.5308652
20
134.1435919
40
0.7547848
50
181.1218675
51
193.87563
0
ARC
8
DEFAULT_255_1_234
10
11.7378833
20
134.154658
40
0.9620055
50
179.9918545
51
181.5394234
0
ARC
8
DEFAULT_255_1_234
10
11.5527935
20
134.2709788
40
0.7769248
50
169.5837241
51
180.2757934
0
ARC
8
DEFAULT_255_1_234
10
11.3690873
20
134.3049229
40
0.590109
50
155.0365899
51
169.6003176
0
ARC
8
DEFAULT_255_1_234
10
11.2555337
20
134.3596677
40
0.4640625
50
136.783148
51
155.2472683
0
ARC
8
DEFAULT_255_1_234
10
11.2165814
20
134.3927562
40
0.4130255
50
121.7633186
51
136.428115
0
ARC
8
DEFAULT_255_1_234
10
11.2300776
20
134.3678227
40
0.4413323
50
95.6459699
51
121.5490577
0
ARC
8
DEFAULT_255_1_234
10
11.2458058
20
134.2569949
40
0.55319
50
89.924208
51
96.1377933
0
ARC
8
DEFAULT_255_1_234
10
11.2508491
20
134.2688542
40
0.5413475
50
76.6779277
51
90.4563316
0
ARC
8
DEFAULT_255_1_234
10
11.2902114
20
134.4279114
40
0.3775041
50
47.485847
51
76.9287264
0
ARC
8
DEFAULT_255_1_234
10
11.2755087
20
134.4179159
40
0.3948286
50
16.5424086
51
46.8933463
0
ARC
8
DEFAULT_255_1_234
10
11.1147244
20
134.3650861
40
0.564021
50
5.4072051
51
17.0365086
0
ARC
8
DEFAULT_255_1_234
10
10.9708261
20
134.3419679
40
0.5556559
50
7.8891745
51
15.9239216
0
ARC
8
DEFAULT_255_1_234
10
11.1695274
20
134.3996631
40
0.3487515
50
15.7653144
51
27.9410532
0
ARC
8
DEFAULT_255_1_234
10
11.2799492
20
134.458779
40
0.2235026
50
27.8166557
51
46.4008329
0
ARC
8
DEFAULT_255_1_234
10
11.2849135
20
134.4582082
40
0.2205286
50
47.4371857
51
75.0698205
0
ARC
8
DEFAULT_255_1_234
10
11.2540529
20
134.3507765
40
0.3322915
50
74.7008593
51
87.8124495
0
ARC
8
DEFAULT_255_1_234
10
11.2467217
20
134.2451844
40
0.4380987
50
87.3814673
51
90.0240855
0
ARC
8
DEFAULT_255_1_234
10
11.242876
20
134.3629291
40
0.3203749
50
89.3451631
51
108.5745436
0
ARC
8
DEFAULT_255_1_234
10
11.2291865
20
134.4142908
40
0.2673494
50
109.2998449
51
143.3037509
0
ARC
8
DEFAULT_255_1_234
10
11.3053938
20
134.3556881
40
0.3634757
50
143.0753173
51
163.1916937
0
ARC
8
DEFAULT_255_1_234
10
11.5005666
20
134.2940967
40
0.5681262
50
162.9373603
51
174.6208611
0
ARC
8
DEFAULT_255_1_234
10
11.7631708
20
134.265301
40
0.8322832
50
174.3419979
51
180.1430411
0
ARC
8
DEFAULT_255_1_234
10
11.6700864
20
134.1458698
40
0.7392076
50
179.6817502
51
189.150529
0
ARC
8
DEFAULT_255_1_234
10
11.4200112
20
134.104219
40
0.4856932
50
188.9910863
51
203.5773039
0
ARC
8
DEFAULT_255_1_234
10
11.3120445
20
134.0594211
40
0.3688271
50
203.9077269
51
215.1312379
0
ARC
8
DEFAULT_255_1_234
10
11.2197539
20
133.9878941
40
0.2522457
50
213.9071664
51
263.8849284
0
ARC
8
DEFAULT_255_1_234
10
11.2322868
20
134.0663518
40
0.3316174
50
263.1758525
51
270.1031083
0
ARC
8
DEFAULT_255_1_234
10
11.235496
20
134.1910365
40
0.4563091
50
269.6719807
51
279.0609165
0
ARC
8
DEFAULT_255_1_234
10
11.2621728
20
134.0297907
40
0.2928759
50
278.8750225
51
293.6346586
0
ARC
8
DEFAULT_255_1_234
10
11.2941936
20
133.95459
40
0.2111472
50
293.8553404
51
310.0518804
0
ARC
8
DEFAULT_255_1_234
10
11.294679
20
133.9483516
40
0.2060917
50
311.0646779
51
332.0108348
0
ARC
8
DEFAULT_255_1_234
10
11.1754517
20
134.0140978
40
0.3422352
50
331.6588543
51
343.2878891
0
ARC
8
DEFAULT_255_1_234
10
10.9692032
20
134.0774798
40
0.5580003
50
343.1446044
51
351.010618
0
ARC
8
DEFAULT_255_1_234
10
10.8150678
20
134.1055871
40
0.7146438
50
350.7157277
51
351.1602153
0
LINE
8
DEFAULT_255_1_234
10
12.3766031
20
133.9636394
11
12.3766031
21
134.7941211
0
LINE
8
DEFAULT_255_1_234
10
12.3766031
20
134.7941211
11
12.5316157
21
134.7941211
0
LINE
8
DEFAULT_255_1_234
10
12.5316157
20
134.7941211
11
12.5316157
21
133.9660489
0
LINE
8
DEFAULT_255_1_234
10
11.7934989
20
133.9475759
11
11.9477083
21
133.9475759
0
ARC
8
DEFAULT_255_1_234
10
12.0825342
20
133.9622089
40
0.4490979
50
346.3129415
51
0.4899112
0
ARC
8
DEFAULT_255_1_234
10
12.2193691
20
133.9271729
40
0.3078632
50
313.3793358
51
346.6225026
0
ARC
8
DEFAULT_255_1_234
10
12.1992878
20
133.9524522
40
0.3400404
50
281.1587967
51
312.9131091
0
ARC
8
DEFAULT_255_1_234
10
12.1652342
20
134.1019185
40
0.4932916
50
269.6424364
51
281.6795951
0
ARC
8
DEFAULT_255_1_234
10
12.1583706
20
134.1568382
40
0.5482147
50
258.9990078
51
270.3955952
0
ARC
8
DEFAULT_255_1_234
10
12.120901
20
133.9719746
40
0.359601
50
239.6256123
51
259.238693
0
ARC
8
DEFAULT_255_1_234
10
12.0920093
20
133.9174669
40
0.2979777
50
227.4959765
51
239.1188186
0
ARC
8
DEFAULT_255_1_234
10
12.0882659
20
133.9113689
40
0.2909561
50
191.339631
51
227.2280909
0
ARC
8
DEFAULT_255_1_234
10
12.22873
20
133.9446031
40
0.4352412
50
179.6086538
51
191.9934722
0
ARC
8
DEFAULT_255_1_234
10
12.2421322
20
133.9453427
40
0.2944324
50
179.5654258
51
192.070398
0
ARC
8
DEFAULT_255_1_234
10
12.1449812
20
133.9235079
40
0.194866
50
191.7656467
51
215.6461951
0
ARC
8
DEFAULT_255_1_234
10
12.1271313
20
133.9127546
40
0.1741017
50
216.1938368
51
224.3931108
0
ARC
8
DEFAULT_255_1_234
10
12.1278199
20
133.9154473
40
0.1764834
50
224.8613677
51
254.362656
0
ARC
8
DEFAULT_255_1_234
10
12.1548913
20
134.004901
40
0.2699302
50
253.9471729
51
267.3949949
0
ARC
8
DEFAULT_255_1_234
10
12.161942
20
134.0973067
40
0.362572
50
266.9456419
51
270.0337791
0
ARC
8
DEFAULT_255_1_234
10
12.16448
20
133.981123
40
0.2463991
50
269.4595111
51
286.1822844
0
ARC
8
DEFAULT_255_1_234
10
12.178609
20
133.9293047
40
0.1926982
50
286.4416479
51
315.8044008
0
ARC
8
DEFAULT_255_1_234
10
12.1731897
20
133.9335207
40
0.1995241
50
316.0212565
51
345.4794351
0
ARC
8
DEFAULT_255_1_234
10
12.0761404
20
133.9608575
40
0.3003349
50
345.0729543
51
358.325089
0
ARC
8
DEFAULT_255_1_234
10
11.9885375
20
133.9664568
40
0.3880759
50
357.8767804
51
359.5840246
0
LINE
8
DEFAULT_255_1_234
10
13.0801834
20
134.1821026
11
13.0801834
21
134.0608234
0
LINE
8
DEFAULT_255_1_234
10
13.0801834
20
134.0608234
11
12.6882346
21
134.0608234
0
LINE
8
DEFAULT_255_1_234
10
12.6882346
20
134.0608234
11
12.6882346
21
134.1821026
0
LINE
8
DEFAULT_255_1_234
10
12.6882346
20
134.1821026
11
13.0801834
21
134.1821026
0
LINE
8
DEFAULT_255_1_234
10
14.0239126
20
134.4559849
11
13.8689001
21
134.4559849
0
LINE
8
DEFAULT_255_1_234
10
13.1765643
20
133.9636394
11
13.3315768
21
133.9636394
0
ARC
8
DEFAULT_255_1_234
10
13.9347814
20
135.3506768
40
1.252368
50
248.9199003
51
254.1439814
0
ARC
8
DEFAULT_255_1_234
10
13.7667309
20
134.9180234
40
0.788226
50
241.633709
51
249.0064503
0
ARC
8
DEFAULT_255_1_234
10
13.6138703
20
134.6379317
40
0.4691427
50
230.498225
51
241.8087113
0
ARC
8
DEFAULT_255_1_234
10
13.5354277
20
134.5379906
40
0.3421437
50
227.4064532
51
229.9881192
0
ARC
8
DEFAULT_255_1_234
10
13.4866798
20
134.4904088
40
0.2741476
50
200.6781896
51
228.1763934
0
ARC
8
DEFAULT_255_1_234
10
13.4939109
20
134.4889077
40
0.2804109
50
179.5061581
51
199.8694617
0
ARC
8
DEFAULT_255_1_234
10
13.492986
20
134.496321
40
0.2795204
50
132.4834203
51
181.0242172
0
ARC
8
DEFAULT_255_1_234
10
13.5525443
20
134.4400704
40
0.3612768
50
129.2532479
51
133.4242687
0
ARC
8
DEFAULT_255_1_234
10
13.5671892
20
134.4180965
40
0.3875675
50
101.98776
51
128.8742646
0
ARC
8
DEFAULT_255_1_234
10
13.6070503
20
134.2459741
40
0.5642249
50
89.5906553
51
102.3169264
0
ARC
8
DEFAULT_255_1_234
10
13.6140995
20
134.2778148
40
0.5323783
50
77.2360837
51
90.3248275
0
ARC
8
DEFAULT_255_1_234
10
13.6348074
20
134.37454
40
0.4334697
50
63.837784
51
77.0809408
0
ARC
8
DEFAULT_255_1_234
10
13.6625836
20
134.4262911
40
0.3747796
50
45.9864267
51
64.1607727
0
ARC
8
DEFAULT_255_1_234
10
13.6886717
20
134.4560866
40
0.3352302
50
32.2747395
51
45.6547121
0
ARC
8
DEFAULT_255_1_234
10
13.6953158
20
134.457988
40
0.328603
50
359.6507365
51
32.6130309
0
ARC
8
DEFAULT_255_1_234
10
13.6010253
20
134.458466
40
0.2678863
50
359.469343
51
14.9832209
0
ARC
8
DEFAULT_255_1_234
10
13.6715316
20
134.4773539
40
0.1948938
50
14.9781179
51
48.2004265
0
ARC
8
DEFAULT_255_1_234
10
13.655096
20
134.4566983
40
0.2212521
50
48.5927837
51
74.1241538
0
ARC
8
DEFAULT_255_1_234
10
13.6217449
20
134.3466248
40
0.3362561
50
73.7888341
51
86.6652678
0
ARC
8
DEFAULT_255_1_234
10
13.6115015
20
134.2258881
40
0.4573953
50
86.2640471
51
90.0526343
0
ARC
8
DEFAULT_255_1_234
10
13.6086727
20
134.2654192
40
0.4178709
50
89.6697524
51
99.2309573
0
ARC
8
DEFAULT_255_1_234
10
13.5844178
20
134.4098964
40
0.2713749
50
99.069534
51
113.7658566
0
ARC
8
DEFAULT_255_1_234
10
13.5570369
20
134.4744677
40
0.2012469
50
114.0401004
51
127.9850673
0
ARC
8
DEFAULT_255_1_234
10
13.5329933
20
134.504073
40
0.1631167
50
127.7287463
51
176.7105154
0
ARC
8
DEFAULT_255_1_234
10
13.6008651
20
134.4939693
40
0.2315392
50
175.1779447
51
180.0581938
0
ARC
8
DEFAULT_255_1_234
10
13.5165498
20
134.4927428
40
0.1472271
50
179.6142195
51
228.1246017
0
ARC
8
DEFAULT_255_1_234
10
13.5607166
20
134.5336308
40
0.2072299
50
226.5779593
51
230.8800004
0
ARC
8
DEFAULT_255_1_234
10
13.6078245
20
134.5961636
40
0.2854818
50
231.4635071
51
241.9260842
0
ARC
8
DEFAULT_255_1_234
10
13.7275423
20
134.81648
40
0.53622
50
241.7178533
51
248.3259551
0
ARC
8
DEFAULT_255_1_234
10
13.8660795
20
135.1597064
40
0.9063478
50
248.2007737
51
252.4528373
0
ARC
8
DEFAULT_255_1_234
10
13.986452
20
135.5318441
40
1.2974635
50
252.3391078
51
254.3469452
0
ARC
8
DEFAULT_255_1_234
10
13.2322222
20
132.8341148
40
1.5037162
50
71.0197183
51
74.4087047
0
ARC
8
DEFAULT_255_1_234
10
13.4016907
20
133.3233111
40
0.9859993
50
66.1847285
51
71.086374
0
ARC
8
DEFAULT_255_1_234
10
13.557322
20
133.67372
40
0.6025855
50
59.3536294
51
66.2691831
0
ARC
8
DEFAULT_255_1_234
10
13.6461872
20
133.8240609
40
0.4279449
50
49.1020879
51
59.3293958
0
ARC
8
DEFAULT_255_1_234
10
13.7280612
20
133.9173834
40
0.3038015
50
32.7919921
51
49.2505539
0
ARC
8
DEFAULT_255_1_234
10
13.7601702
20
133.9402191
40
0.264448
50
31.1181161
51
32.4005348
0
ARC
8
DEFAULT_255_1_234
10
13.751324
20
133.9366779
40
0.2738556
50
8.1116974
51
30.7958831
0
ARC
8
DEFAULT_255_1_234
10
13.6702908
20
133.9228753
40
0.3560327
50
359.8389159
51
8.4706516
0
ARC
8
DEFAULT_255_1_234
10
13.7328699
20
133.9180137
40
0.2934776
50
337.4731098
51
0.7537279
0
ARC
8
DEFAULT_255_1_234
10
13.7507394
20
133.9160387
40
0.2762607
50
307.5917067
51
336.4315538
0
ARC
8
DEFAULT_255_1_234
10
13.7047222
20
133.9673102
40
0.3449979
50
307.6551545
51
308.4529766
0
ARC
8
DEFAULT_255_1_234
10
13.6816941
20
134.002825
40
0.3871988
50
284.3734338
51
307.1424381
0
ARC
8
DEFAULT_255_1_234
10
13.6321771
20
134.1849932
40
0.5759636
50
272.4382747
51
284.646547
0
ARC
8
DEFAULT_255_1_234
10
13.619498
20
134.3649893
40
0.7563528
50
269.9708387
51
272.8178037
0
ARC
8
DEFAULT_255_1_234
10
13.615202
20
134.1611716
40
0.5525489
50
248.2707594
51
270.4055579
0
ARC
8
DEFAULT_255_1_234
10
13.6097761
20
134.1421192
40
0.5328452
50
246.1383403
51
248.0542782
0
ARC
8
DEFAULT_255_1_234
10
13.567914
20
134.0541843
40
0.4355005
50
233.1670131
51
246.4950969
0
ARC
8
DEFAULT_255_1_234
10
13.5125045
20
133.9793812
40
0.3424126
50
215.3403242
51
233.0843104
0
ARC
8
DEFAULT_255_1_234
10
13.4852476
20
133.9595549
40
0.3087104
50
179.2419209
51
215.2648451
0
ARC
8
DEFAULT_255_1_234
10
13.562007
20
133.9609666
40
0.2304457
50
179.335461
51
199.1045811
0
ARC
8
DEFAULT_255_1_234
10
13.5287746
20
133.9522766
40
0.1962176
50
199.8828939
51
232.7063202
0
ARC
8
DEFAULT_255_1_234
10
13.5760015
20
134.0116788
40
0.2720938
50
232.3738199
51
255.5136649
0
ARC
8
DEFAULT_255_1_234
10
13.6100881
20
134.1360835
40
0.4010747
50
255.2446292
51
267.5320849
0
ARC
8
DEFAULT_255_1_234
10
13.6188505
20
134.2593702
40
0.5246356
50
267.1557994
51
270.0286766
0
ARC
8
DEFAULT_255_1_234
10
13.6216277
20
134.214995
40
0.4802668
50
269.7000017
51
278.1660162
0
ARC
8
DEFAULT_255_1_234
10
13.6472282
20
134.0419515
40
0.3053425
50
278.0231263
51
290.625471
0
ARC
8
DEFAULT_255_1_234
10
13.6819969
20
133.9492025
40
0.206291
50
290.6619762
51
307.0370976
0
ARC
8
DEFAULT_255_1_234
10
13.7120358
20
133.9123504
40
0.1587906
50
306.3943566
51
355.3030547
0
ARC
8
DEFAULT_255_1_234
10
13.6608289
20
133.9200113
40
0.2104809
50
354.3660432
51
0.0698737
0
ARC
8
DEFAULT_255_1_234
10
13.6750635
20
133.9222617
40
0.1962563
50
359.417946
51
16.1971788
0
ARC
8
DEFAULT_255_1_234
10
13.7205945
20
133.9347418
40
0.149053
50
16.4723299
51
52.6262157
0
ARC
8
DEFAULT_255_1_234
10
13.6384999
20
133.8263433
40
0.2850296
50
52.7386432
51
62.4979148
0
ARC
8
DEFAULT_255_1_234
10
13.5000076
20
133.5657283
40
0.5801521
50
62.2515216
51
68.1220564
0
ARC
8
DEFAULT_255_1_234
10
13.3279987
20
133.1429872
40
1.0365451
50
68.0062803
51
71.8053402
0
ARC
8
DEFAULT_255_1_234
10
13.1484358
20
132.6044758
40
1.6042013
50
71.7183119
51
73.9258742
0
LINE
8
DEFAULT_255_1_234
10
14.1628617
20
134.0351218
11
14.1628617
21
134.0624297
0
LINE
8
DEFAULT_255_1_234
10
14.9001753
20
134.0784932
11
14.9001753
21
134.0166488
0
LINE
8
DEFAULT_255_1_234
10
14.9001753
20
134.0166488
11
14.3114489
21
134.0166488
0
LINE
8
DEFAULT_255_1_234
10
14.7981722
20
133.8471792
11
14.8889309
21
133.7764999
0
LINE
8
DEFAULT_255_1_234
10
14.3162679
20
134.1387313
11
14.7515881
21
134.1387313
0
LINE
8
DEFAULT_255_1_234
10
14.7515881
20
134.1387313
11
14.7515881
21
134.1499757
0
ARC
8
DEFAULT_255_1_234
10
14.5567982
20
134.0462332
40
0.4376191
50
252.3266134
51
270.5810217
0
ARC
8
DEFAULT_255_1_234
10
14.5363071
20
133.9721644
40
0.3608374
50
223.3000567
51
251.8561855
0
ARC
8
DEFAULT_255_1_234
10
14.5574432
20
133.9926937
40
0.3902993
50
190.9374509
51
223.3654032
0
ARC
8
DEFAULT_255_1_234
10
14.7299404
20
134.0316885
40
0.5670891
50
179.6531105
51
191.4989439
0
ARC
8
DEFAULT_255_1_234
10
14.7421417
20
134.0656417
40
0.5792888
50
167.4007466
51
180.3176909
0
ARC
8
DEFAULT_255_1_234
10
14.6369478
20
134.0878885
40
0.471777
50
154.1835823
51
167.250763
0
ARC
8
DEFAULT_255_1_234
10
14.5737945
20
134.1211417
40
0.4004528
50
134.3149965
51
154.5315275
0
ARC
8
DEFAULT_255_1_234
10
14.5520441
20
134.1402228
40
0.371612
50
122.8616532
51
133.9707695
0
ARC
8
DEFAULT_255_1_234
10
14.5417015
20
134.1624703
40
0.3473289
50
89.8249009
51
123.4199222
0
ARC
8
DEFAULT_255_1_234
10
14.5467056
20
134.0977967
40
0.4120197
50
74.7876118
51
90.5482747
0
ARC
8
DEFAULT_255_1_234
10
14.5760799
20
134.206303
40
0.2996077
50
39.8178249
51
74.7633718
0
ARC
8
DEFAULT_255_1_234
10
14.5248119
20
134.1663351
40
0.3645855
50
16.8990863
51
39.4829761
0
ARC
8
DEFAULT_255_1_234
10
14.3353416
20
134.1056526
40
0.5635218
50
4.9636328
51
17.2026414
0
ARC
8
DEFAULT_255_1_234
10
14.0935486
20
134.080134
40
0.8066286
50
359.8834553
51
5.2834307
0
ARC
8
DEFAULT_255_1_234
10
14.697301
20
134.0232803
40
0.3859091
50
180.9846213
51
194.9401313
0
ARC
8
DEFAULT_255_1_234
10
14.5923288
20
133.9945849
40
0.2770883
50
194.80314
51
222.0412631
0
ARC
8
DEFAULT_255_1_234
10
14.561917
20
133.9644116
40
0.2343055
50
221.5417084
51
268.8614402
0
ARC
8
DEFAULT_255_1_234
10
14.5692165
20
134.0320686
40
0.3021528
50
267.732405
51
270.0097136
0
ARC
8
DEFAULT_255_1_234
10
14.5709975
20
134.0522105
40
0.3222994
50
269.6924892
51
280.4117579
0
ARC
8
DEFAULT_255_1_234
10
14.5886381
20
133.9603193
40
0.2287344
50
280.2255091
51
298.6338936
0
ARC
8
DEFAULT_255_1_234
10
14.6003173
20
133.9359223
40
0.2017294
50
299.0430333
51
300.4643464
0
ARC
8
DEFAULT_255_1_234
10
14.5323179
20
134.0493038
40
0.3339357
50
300.6577328
51
322.0378878
0
ARC
8
DEFAULT_255_1_234
10
14.4972718
20
134.0797021
40
0.3802736
50
321.6750233
51
322.3046845
0
ARC
8
DEFAULT_255_1_234
10
14.5903679
20
133.963037
40
0.3520454
50
276.9728461
51
328.0035423
0
ARC
8
DEFAULT_255_1_234
10
14.5626732
20
134.1110841
40
0.5024498
50
269.8361028
51
278.0581756
0
ARC
8
DEFAULT_255_1_234
10
14.539947
20
134.1855757
40
0.202159
50
89.2018686
51
117.2851756
0
ARC
8
DEFAULT_255_1_234
10
14.5452639
20
134.1813752
40
0.2083484
50
118.0551165
51
137.4540413
0
ARC
8
DEFAULT_255_1_234
10
14.5827379
20
134.1473304
40
0.2589774
50
137.5109581
51
158.8516286
0
ARC
8
DEFAULT_255_1_234
10
14.6965214
20
134.1014074
40
0.38167
50
158.5845963
51
170.1721436
0
ARC
8
DEFAULT_255_1_234
10
14.8134603
20
134.0781823
40
0.5008657
50
169.8376422
51
173.0566086
0
ARC
8
DEFAULT_255_1_234
10
14.3437677
20
134.1292509
40
0.4083467
50
2.9091802
51
12.8847116
0
ARC
8
DEFAULT_255_1_234
10
14.4808354
20
134.1615101
40
0.2675383
50
12.6957781
51
28.6404489
0
ARC
8
DEFAULT_255_1_234
10
14.5350025
20
134.1895458
40
0.2065654
50
29.0169854
51
41.1487595
0
ARC
8
DEFAULT_255_1_234
10
14.555281
20
134.2072003
40
0.1796786
50
41.1646065
51
85.0013516
0
ARC
8
DEFAULT_255_1_234
10
14.5431906
20
134.1337431
40
0.2539726
50
83.7280015
51
90.0964893
0
LINE
8
DEFAULT_255_1_234
10
15.4921144
20
134.4985531
11
15.4921144
21
134.3604072
0
LINE
8
DEFAULT_255_1_234
10
15.2206417
20
134.2415375
11
15.2206417
21
133.6247
0
LINE
8
DEFAULT_255_1_234
10
15.2206417
20
133.6247
11
15.0720545
21
133.6247
0
LINE
8
DEFAULT_255_1_234
10
15.0720545
20
133.6247
11
15.0720545
21
134.4937341
0
LINE
8
DEFAULT_255_1_234
10
15.0720545
20
134.4937341
11
15.2166258
21
134.4937341
0
LINE
8
DEFAULT_255_1_234
10
15.2166258
20
134.4937341
11
15.2190353
21
134.3933374
0
ARC
8
DEFAULT_255_1_234
10
15.425455
20
133.9544342
40
0.4114092
50
80.6754243
51
86.8932892
0
ARC
8
DEFAULT_255_1_234
10
15.4194084
20
133.85767
40
0.5083596
50
86.8038578
51
90.0431435
0
ARC
8
DEFAULT_255_1_234
10
15.4157065
20
134.1033866
40
0.2626638
50
89.2759698
51
106.6213787
0
ARC
8
DEFAULT_255_1_234
10
15.3952629
20
134.177683
40
0.1856317
50
107.1346045
51
157.6458115
0
ARC
8
DEFAULT_255_1_234
10
15.464423
20
134.1393311
40
0.2643398
50
155.6586782
51
157.2539184
0
ARC
8
DEFAULT_255_1_234
10
15.4439432
20
134.2562157
40
0.2634121
50
127.8165941
51
148.6302098
0
ARC
8
DEFAULT_255_1_234
10
15.4185901
20
134.2822218
40
0.2273596
50
91.3329982
51
126.7875809
0
ARC
8
DEFAULT_255_1_234
10
15.4261842
20
134.2107195
40
0.299078
50
89.986594
51
92.4688449
0
ARC
8
DEFAULT_255_1_234
10
15.4270237
20
134.2382078
40
0.2715908
50
85.3589899
51
90.1623399
0
ARC
8
DEFAULT_255_1_234
10
15.4354752
20
134.3386164
40
0.1708278
50
78.401942
51
85.4594656
0
ARC
8
DEFAULT_255_1_234
10
15.4499636
20
134.4077236
40
0.1002194
50
67.7858312
51
78.5728455
0
ARC
8
DEFAULT_255_1_234
10
15.4607489
20
134.4356887
40
0.0702548
50
63.4835954
51
67.3062642
0
LINE
8
DEFAULT_255_1_234
10
15.7900919
20
134.4937341
11
15.7900919
21
133.6247
0
LINE
8
DEFAULT_255_1_234
10
15.7900919
20
133.6247
11
15.6415047
21
133.6247
0
LINE
8
DEFAULT_255_1_234
10
15.6415047
20
133.6247
11
15.6415047
21
134.4937341
0
LINE
8
DEFAULT_255_1_234
10
15.6415047
20
134.4937341
11
15.7900919
21
134.4937341
0
ARC
8
DEFAULT_255_1_234
10
15.7273196
20
134.7251889
40
0.097867
50
161.415052
51
180.5526306
0
ARC
8
DEFAULT_255_1_234
10
15.7148974
20
134.7286077
40
0.0850062
50
138.1827368
51
160.9307106
0
ARC
8
DEFAULT_255_1_234
10
15.703892
20
134.7381588
40
0.0704362
50
104.6368899
51
138.0039868
0
ARC
8
DEFAULT_255_1_234
10
15.7146075
20
134.7014963
40
0.1086221
50
92.0600725
51
105.2189128
0
ARC
8
DEFAULT_255_1_234
10
15.7169423
20
134.6672117
40
0.1429728
50
89.9756393
51
92.5012496
0
ARC
8
DEFAULT_255_1_234
10
15.7179442
20
134.6897731
40
0.1204151
50
78.0235316
51
90.4478182
0
ARC
8
DEFAULT_255_1_234
10
15.7271534
20
134.7311295
40
0.0780493
50
55.051506
51
78.3369085
0
ARC
8
DEFAULT_255_1_234
10
15.7321809
20
134.7395711
40
0.0682538
50
42.0501187
51
54.4513741
0
ARC
8
DEFAULT_255_1_234
10
15.7186676
20
134.7271798
40
0.0865878
50
1.7497075
51
42.1496013
0
ARC
8
DEFAULT_255_1_234
10
15.6932009
20
134.7242738
40
0.1121515
50
359.9852656
51
2.8364544
0
ARC
8
DEFAULT_255_1_234
10
15.7098001
20
134.7233229
40
0.0955566
50
342.1070653
51
0.552888
0
ARC
8
DEFAULT_255_1_234
10
15.7240698
20
134.7193904
40
0.0807713
50
316.7107116
51
341.6516965
0
ARC
8
DEFAULT_255_1_234
10
15.7307735
20
134.7133823
40
0.0717724
50
285.4397031
51
316.5324284
0
ARC
8
DEFAULT_255_1_234
10
15.7197652
20
134.7499554
40
0.1099597
50
272.3547054
51
285.8953117
0
ARC
8
DEFAULT_255_1_234
10
15.717081
20
134.7865048
40
0.1465932
50
269.9695369
51
272.8160237
0
ARC
8
DEFAULT_255_1_234
10
15.7160992
20
134.7645863
40
0.1246779
50
258.8431134
51
270.4153935
0
ARC
8
DEFAULT_255_1_234
10
15.7071034
20
134.7210414
40
0.0802162
50
238.5431189
51
259.1288175
0
ARC
8
DEFAULT_255_1_234
10
15.7002919
20
134.7086856
40
0.0661247
50
222.5062634
51
237.9906969
0
ARC
8
DEFAULT_255_1_234
10
15.7130506
20
134.7202889
40
0.0833707
50
184.1069131
51
222.460413
0
ARC
8
DEFAULT_255_1_234
10
15.7399747
20
134.7241349
40
0.1105176
50
179.9429482
51
185.0960898
0
LINE
8
DEFAULT_255_1_234
10
15.9900822
20
134.0351218
11
15.9900822
21
134.0624297
0
LINE
8
DEFAULT_255_1_234
10
16.7273958
20
134.0784932
11
16.7273958
21
134.0166488
0
LINE
8
DEFAULT_255_1_234
10
16.7273958
20
134.0166488
11
16.1386693
21
134.0166488
0
LINE
8
DEFAULT_255_1_234
10
16.6253927
20
133.8471792
11
16.7161513
21
133.7764999
0
LINE
8
DEFAULT_255_1_234
10
16.1434884
20
134.1387313
11
16.5788086
21
134.1387313
0
LINE
8
DEFAULT_255_1_234
10
16.5788086
20
134.1387313
11
16.5788086
21
134.1499757
0
ARC
8
DEFAULT_255_1_234
10
16.3840187
20
134.0462332
40
0.4376191
50
252.3266134
51
270.5810217
0
ARC
8
DEFAULT_255_1_234
10
16.3635276
20
133.9721644
40
0.3608374
50
223.3000567
51
251.8561855
0
ARC
8
DEFAULT_255_1_234
10
16.3846637
20
133.9926937
40
0.3902993
50
190.9374509
51
223.3654032
0
ARC
8
DEFAULT_255_1_234
10
16.5571609
20
134.0316885
40
0.5670891
50
179.6531105
51
191.4989439
0
ARC
8
DEFAULT_255_1_234
10
16.5693621
20
134.0656417
40
0.5792888
50
167.4007466
51
180.3176909
0
ARC
8
DEFAULT_255_1_234
10
16.4641683
20
134.0878885
40
0.471777
50
154.1835823
51
167.250763
0
ARC
8
DEFAULT_255_1_234
10
16.401015
20
134.1211417
40
0.4004528
50
134.3149965
51
154.5315275
0
ARC
8
DEFAULT_255_1_234
10
16.3792645
20
134.1402228
40
0.371612
50
122.8616532
51
133.9707695
0
ARC
8
DEFAULT_255_1_234
10
16.3689219
20
134.1624703
40
0.3473289
50
89.8249009
51
123.4199222
0
ARC
8
DEFAULT_255_1_234
10
16.373926
20
134.0977967
40
0.4120197
50
74.7876118
51
90.5482747
0
ARC
8
DEFAULT_255_1_234
10
16.4033004
20
134.206303
40
0.2996077
50
39.8178249
51
74.7633718
0
ARC
8
DEFAULT_255_1_234
10
16.3520324
20
134.1663351
40
0.3645855
50
16.8990863
51
39.4829761
0
ARC
8
DEFAULT_255_1_234
10
16.162562
20
134.1056526
40
0.5635218
50
4.9636328
51
17.2026414
0
ARC
8
DEFAULT_255_1_234
10
15.920769
20
134.080134
40
0.8066286
50
359.8834553
51
5.2834307
0
ARC
8
DEFAULT_255_1_234
10
16.5245215
20
134.0232803
40
0.3859091
50
180.9846213
51
194.9401313
0
ARC
8
DEFAULT_255_1_234
10
16.4195493
20
133.9945849
40
0.2770883
50
194.80314
51
222.0412631
0
ARC
8
DEFAULT_255_1_234
10
16.3891375
20
133.9644116
40
0.2343055
50
221.5417084
51
268.8614402
0
ARC
8
DEFAULT_255_1_234
10
16.3964369
20
134.0320686
40
0.3021528
50
267.732405
51
270.0097136
0
ARC
8
DEFAULT_255_1_234
10
16.3982179
20
134.0522105
40
0.3222994
50
269.6924892
51
280.4117579
0
ARC
8
DEFAULT_255_1_234
10
16.4158586
20
133.9603193
40
0.2287344
50
280.2255091
51
298.6338936
0
ARC
8
DEFAULT_255_1_234
10
16.4275378
20
133.9359223
40
0.2017294
50
299.0430333
51
300.4643464
0
ARC
8
DEFAULT_255_1_234
10
16.3595383
20
134.0493038
40
0.3339357
50
300.6577328
51
322.0378878
0
ARC
8
DEFAULT_255_1_234
10
16.3244923
20
134.0797021
40
0.3802736
50
321.6750233
51
322.3046845
0
ARC
8
DEFAULT_255_1_234
10
16.4175884
20
133.963037
40
0.3520454
50
276.9728461
51
328.0035423
0
ARC
8
DEFAULT_255_1_234
10
16.3898937
20
134.1110841
40
0.5024498
50
269.8361028
51
278.0581756
0
ARC
8
DEFAULT_255_1_234
10
16.3671674
20
134.1855757
40
0.202159
50
89.2018686
51
117.2851756
0
ARC
8
DEFAULT_255_1_234
10
16.3724843
20
134.1813752
40
0.2083484
50
118.0551165
51
137.4540413
0
ARC
8
DEFAULT_255_1_234
10
16.4099583
20
134.1473304
40
0.2589774
50
137.5109581
51
158.8516286
0
ARC
8
DEFAULT_255_1_234
10
16.5237419
20
134.1014074
40
0.38167
50
158.5845963
51
170.1721436
0
ARC
8
DEFAULT_255_1_234
10
16.6406808
20
134.0781823
40
0.5008657
50
169.8376422
51
173.0566086
0
ARC
8
DEFAULT_255_1_234
10
16.1709882
20
134.1292509
40
0.4083467
50
2.9091802
51
12.8847116
0
ARC
8
DEFAULT_255_1_234
10
16.3080558
20
134.1615101
40
0.2675383
50
12.6957781
51
28.6404489
0
ARC
8
DEFAULT_255_1_234
10
16.3622229
20
134.1895458
40
0.2065654
50
29.0169854
51
41.1487595
0
ARC
8
DEFAULT_255_1_234
10
16.3825014
20
134.2072003
40
0.1796786
50
41.1646065
51
85.0013516
0
ARC
8
DEFAULT_255_1_234
10
16.3704111
20
134.1337431
40
0.2539726
50
83.7280015
51
90.0964893
0
LINE
8
DEFAULT_255_1_234
10
17.5458299
20
134.2383248
11
17.3964396
21
134.2383248
0
LINE
8
DEFAULT_255_1_234
10
16.8631321
20
133.8921569
11
17.0117193
21
133.8921569
0
ARC
8
DEFAULT_255_1_234
10
17.2776214
20
133.8566959
40
0.1276617
50
359.3334982
51
18.5871358
0
ARC
8
DEFAULT_255_1_234
10
17.2984851
20
133.8622133
40
0.1061371
50
19.3540742
51
54.6485071
0
ARC
8
DEFAULT_255_1_234
10
17.2480753
20
133.7926919
40
0.1920087
50
54.3827097
51
65.0622807
0
ARC
8
DEFAULT_255_1_234
10
17.171215
20
133.63099
40
0.3710447
50
64.8282493
51
71.4200025
0
ARC
8
DEFAULT_255_1_234
10
17.0810025
20
133.3663107
40
0.6506741
50
71.3164301
51
75.8006402
0
ARC
8
DEFAULT_255_1_234
10
16.9968845
20
133.0422561
40
0.9854641
50
75.6809531
51
78.0061883
0
ARC
8
DEFAULT_255_1_234
10
17.4417378
20
135.140177
40
1.1591028
50
254.6901892
51
258.0466452
0
ARC
8
DEFAULT_255_1_234
10
17.3379287
20
134.7642781
40
0.7691345
50
249.9010773
51
254.755261
0
ARC
8
DEFAULT_255_1_234
10
17.2375629
20
134.4916982
40
0.478665
50
243.3097214
51
249.9709442
0
ARC
8
DEFAULT_255_1_234
10
17.174665
20
134.3662778
40
0.3383568
50
234.4047477
51
243.2862168
0
ARC
8
DEFAULT_255_1_234
10
17.1124173
20
134.2803232
40
0.2322322
50
220.8667099
51
234.5493881
0
ARC
8
DEFAULT_255_1_234
10
17.0782114
20
134.2491817
40
0.1859923
50
214.3062465
51
220.5065136
0
ARC
8
DEFAULT_255_1_234
10
17.0756194
20
134.246088
40
0.1821108
50
186.912965
51
213.9618616
0
ARC
8
DEFAULT_255_1_234
10
17.1288288
20
134.2547009
40
0.2359799
50
179.8808832
51
187.4339886
0
ARC
8
DEFAULT_255_1_234
10
17.1133422
20
134.2567088
40
0.2204978
50
132.005434
51
180.3942919
0
ARC
8
DEFAULT_255_1_234
10
17.1790035
20
134.1961083
40
0.3095791
50
129.2319861
51
133.5302299
0
ARC
8
DEFAULT_255_1_234
10
17.1843543
20
134.1866928
40
0.3202615
50
100.4410011
51
128.9081242
0
ARC
8
DEFAULT_255_1_234
10
17.2117427
20
134.0581455
40
0.4516583
50
89.6985377
51
100.9026564
0
ARC
8
DEFAULT_255_1_234
10
17.2174469
20
134.0421166
40
0.4676928
50
77.6965325
51
90.4076836
0
ARC
8
DEFAULT_255_1_234
10
17.2505453
20
134.1848413
40
0.3211988
50
50.7276602
51
78.0399361
0
ARC
8
DEFAULT_255_1_234
10
17.2949911
20
134.2366296
40
0.2529778
50
25.7545084
51
51.0957453
0
ARC
8
DEFAULT_255_1_234
10
17.2951136
20
134.2416206
40
0.250738
50
359.2468627
51
24.7394243
0
ARC
8
DEFAULT_255_1_234
10
17.2666588
20
134.2387664
40
0.1297815
50
359.8050318
51
45.1544908
0
ARC
8
DEFAULT_255_1_234
10
17.225973
20
134.2039794
40
0.1831883
50
43.8047702
51
49.6271585
0
ARC
8
DEFAULT_255_1_234
10
17.2267632
20
134.2040678
40
0.18261
50
49.7980766
51
82.1218353
0
ARC
8
DEFAULT_255_1_234
10
17.2148603
20
134.1393998
40
0.2483163
50
81.4465357
51
90.1710293
0
ARC
8
DEFAULT_255_1_234
10
17.2124206
20
134.086788
40
0.300932
50
89.6766211
51
99.1264602
0
ARC
8
DEFAULT_255_1_234
10
17.1952668
20
134.1901537
40
0.1961547
50
98.968313
51
113.4570237
0
ARC
8
DEFAULT_255_1_234
10
17.1756753
20
134.2369965
40
0.1453859
50
113.722589
51
127.4763106
0
ARC
8
DEFAULT_255_1_234
10
17.1588399
20
134.2570124
40
0.1192639
50
126.9083309
51
150.3165862
0
ARC
8
DEFAULT_255_1_234
10
17.1540732
20
134.2620981
40
0.112623
50
151.3635175
51
180.0701457
0
ARC
8
DEFAULT_255_1_234
10
17.1849517
20
134.259999
40
0.1435149
50
179.2169974
51
179.9954013
0
ARC
8
DEFAULT_255_1_234
10
17.1488574
20
134.2587056
40
0.1074286
50
179.3040112
51
198.4225446
0
ARC
8
DEFAULT_255_1_234
10
17.1296708
20
134.2537127
40
0.0876573
50
199.2895851
51
238.6034594
0
ARC
8
DEFAULT_255_1_234
10
17.1899554
20
134.348345
40
0.1998512
50
237.9846301
51
246.8744712
0
ARC
8
DEFAULT_255_1_234
10
17.2757499
20
134.5446205
40
0.4140547
50
246.6234531
51
251.8168941
0
ARC
8
DEFAULT_255_1_234
10
17.3788043
20
134.8540905
40
0.7402308
50
251.713434
51
255.0778414
0
ARC
8
DEFAULT_255_1_234
10
17.4987305
20
135.3007563
40
1.2027155
50
255.0367487
51
257.4705983
0
ARC
8
DEFAULT_255_1_234
10
16.9879315
20
132.9993863
40
1.1546601
50
73.6837552
51
77.5016755
0
ARC
8
DEFAULT_255_1_234
10
17.096809
20
133.3693581
40
0.7690009
50
68.7044154
51
73.7249639
0
ARC
8
DEFAULT_255_1_234
10
17.1871111
20
133.6020654
40
0.5193873
50
63.590599
51
68.6626804
0
ARC
8
DEFAULT_255_1_234
10
17.264213
20
133.7558123
40
0.3473927
50
54.7106439
51
63.7013633
0
ARC
8
DEFAULT_255_1_234
10
17.3266584
20
133.84304
40
0.2401192
50
41.0622434
51
54.8487496
0
ARC
8
DEFAULT_255_1_234
10
17.3607971
20
133.8743592
40
0.1938094
50
34.4950568
51
40.7105546
0
ARC
8
DEFAULT_255_1_234
10
17.3654778
20
133.8792078
40
0.1872106
50
9.3763373
51
34.0833615
0
ARC
8
DEFAULT_255_1_234
10
17.3001648
20
133.8666728
40
0.2536988
50
359.7694872
51
9.7663171
0
ARC
8
DEFAULT_255_1_234
10
17.3199149
20
133.8623764
40
0.2339696
50
335.8654732
51
0.8022045
0
ARC
8
DEFAULT_255_1_234
10
17.3274194
20
133.8637197
40
0.2277108
50
307.7357725
51
334.7849066
0
ARC
8
DEFAULT_255_1_234
10
17.2873369
20
133.9087645
40
0.2878951
50
307.0241536
51
308.5578354
0
ARC
8
DEFAULT_255_1_234
10
17.2615701
20
133.9473801
40
0.3342515
50
282.9362969
51
306.5646424
0
ARC
8
DEFAULT_255_1_234
10
17.2253998
20
134.0941108
40
0.4853615
50
271.1026298
51
283.2200835
0
ARC
8
DEFAULT_255_1_234
10
17.2190242
20
134.2182418
40
0.6096052
50
269.9919117
51
271.4772449
0
ARC
8
DEFAULT_255_1_234
10
17.2163997
20
134.1104436
40
0.5018135
50
259.0723564
51
270.289833
0
ARC
8
DEFAULT_255_1_234
10
17.1951729
20
133.9987271
40
0.388099
50
245.4963068
51
259.0227342
0
ARC
8
DEFAULT_255_1_234
10
17.1673686
20
133.9405615
40
0.3236422
50
228.9684658
51
245.7044727
0
ARC
8
DEFAULT_255_1_234
10
17.1408129
20
133.9078575
40
0.2815426
50
214.4011705
51
228.6759915
0
ARC
8
DEFAULT_255_1_234
10
17.111887
20
133.892029
40
0.2487548
50
179.9705531
51
215.1572795
0
ARC
8
DEFAULT_255_1_234
10
17.181947
20
133.8993806
40
0.1703809
50
182.4299387
51
203.0329699
0
ARC
8
DEFAULT_255_1_234
10
17.1635127
20
133.8937396
40
0.1512226
50
203.798802
51
232.548466
0
ARC
8
DEFAULT_255_1_234
10
17.1911649
20
133.9288826
40
0.1959374
50
232.3782728
51
256.3934612
0
ARC
8
DEFAULT_255_1_234
10
17.214201
20
134.0178842
40
0.2878639
50
256.104506
51
268.4626716
0
ARC
8
DEFAULT_255_1_234
10
17.2188495
20
134.0975487
40
0.3676329
50
268.0715632
51
270.0138206
0
ARC
8
DEFAULT_255_1_234
10
17.2207019
20
134.0703083
40
0.3403971
50
269.7031147
51
278.8341955
0
ARC
8
DEFAULT_255_1_234
10
17.2389112
20
133.9572876
40
0.2259217
50
278.6728789
51
292.8232582
0
ARC
8
DEFAULT_255_1_234
10
17.2589651
20
133.9071449
40
0.171929
50
293.1452328
51
303.6655899
0
ARC
8
DEFAULT_255_1_234
10
17.285453
20
133.8695204
40
0.1259367
50
303.1248165
51
321.742847
0
ARC
8
DEFAULT_255_1_234
10
17.304041
20
133.8532156
40
0.1012531
50
322.4748573
51
1.1291126
0
LINE
8
DEFAULT_255_1_234
10
4.9274119
20
131.7616792
11
4.9274119
21
131.6404
0
LINE
8
DEFAULT_255_1_234
10
4.9274119
20
131.6404
11
4.161184
21
131.6404
0
LINE
8
DEFAULT_255_1_234
10
4.161184
20
131.6404
11
4.161184
21
131.7472221
0
LINE
8
DEFAULT_255_1_234
10
4.161184
20
131.7472221
11
4.5659836
21
132.1969995
0
LINE
8
DEFAULT_255_1_234
10
4.2872823
20
132.4652595
11
4.1386952
21
132.4652595
0
LINE
8
DEFAULT_255_1_234
10
4.6535296
20
132.1014218
11
4.3402918
21
131.7616792
0
LINE
8
DEFAULT_255_1_234
10
4.3402918
20
131.7616792
11
4.9274119
21
131.7616792
0
ARC
8
DEFAULT_255_1_234
10
3.216967
20
133.3899527
40
1.8008286
50
318.5132453
51
320.7828378
0
ARC
8
DEFAULT_255_1_234
10
3.7456644
20
132.9596426
40
1.1191493
50
320.7372736
51
323.9737074
0
ARC
8
DEFAULT_255_1_234
10
4.1376501
20
132.6756361
40
0.6350923
50
323.8961724
51
328.6421089
0
ARC
8
DEFAULT_255_1_234
10
4.3423096
20
132.5494031
40
0.3946393
50
328.8299013
51
331.789948
0
ARC
8
DEFAULT_255_1_234
10
4.4420274
20
132.4979509
40
0.2824501
50
331.4255242
51
352.9364833
0
ARC
8
DEFAULT_255_1_234
10
4.4556775
20
132.4948976
40
0.2685315
50
353.2248685
51
0.0169286
0
ARC
8
DEFAULT_255_1_234
10
4.4766652
20
132.497195
40
0.2475536
50
359.4866256
51
15.9339782
0
ARC
8
DEFAULT_255_1_234
10
4.5273637
20
132.5108286
40
0.1950618
50
16.1714718
51
43.5284424
0
ARC
8
DEFAULT_255_1_234
10
4.5350946
20
132.5185573
40
0.184134
50
43.4415429
51
83.1661404
0
ARC
8
DEFAULT_255_1_234
10
4.5216864
20
132.4448771
40
0.258926
50
82.160215
51
90.1505798
0
ARC
8
DEFAULT_255_1_234
10
4.5185291
20
132.3911865
40
0.3126255
50
89.5460705
51
102.5418777
0
ARC
8
DEFAULT_255_1_234
10
4.4942377
20
132.4942665
40
0.2067346
50
102.1739365
51
129.2061916
0
ARC
8
DEFAULT_255_1_234
10
4.4863449
20
132.5067094
40
0.1921118
50
129.7279328
51
135.7542026
0
ARC
8
DEFAULT_255_1_234
10
4.4984977
20
132.4970045
40
0.2075944
50
136.175737
51
166.3674722
0
ARC
8
DEFAULT_255_1_234
10
4.5991896
20
132.4700182
40
0.3118201
50
165.9092917
51
178.8683903
0
ARC
8
DEFAULT_255_1_234
10
4.6856757
20
132.4653179
40
0.3983935
50
178.438168
51
180.0083905
0
ARC
8
DEFAULT_255_1_234
10
4.5455359
20
132.4692231
40
0.4068601
50
163.2878735
51
180.5581814
0
ARC
8
DEFAULT_255_1_234
10
4.4653621
20
132.491284
40
0.3237344
50
133.454115
51
162.9470031
0
ARC
8
DEFAULT_255_1_234
10
4.4832162
20
132.4723
40
0.349795
50
100.7869394
51
133.4384016
0
ARC
8
DEFAULT_255_1_234
10
4.5179934
20
132.3174319
40
0.5084616
50
89.6605301
51
101.3704185
0
ARC
8
DEFAULT_255_1_234
10
4.5246273
20
132.3235496
40
0.502348
50
78.2171172
51
90.4130393
0
ARC
8
DEFAULT_255_1_234
10
4.5601351
20
132.4859637
40
0.3361092
50
55.9268222
51
78.4888551
0
ARC
8
DEFAULT_255_1_234
10
4.5797791
20
132.5198324
40
0.2970617
50
47.9292255
51
55.4054003
0
ARC
8
DEFAULT_255_1_234
10
4.5899352
20
132.5301502
40
0.2825983
50
4.3347696
51
48.0560701
0
ARC
8
DEFAULT_255_1_234
10
4.4803745
20
132.5131601
40
0.393225
50
359.925209
51
5.5967654
0
ARC
8
DEFAULT_255_1_234
10
4.5232637
20
132.5187816
40
0.3503892
50
337.8914096
51
358.9967724
0
ARC
8
DEFAULT_255_1_234
10
4.2519049
20
132.6234706
40
0.6412172
50
326.9135351
51
338.3505194
0
ARC
8
DEFAULT_255_1_234
10
3.8533353
20
132.8789284
40
1.1146189
50
319.6472867
51
327.095818
0
ARC
8
DEFAULT_255_1_234
10
3.4700356
20
133.1951
40
1.6114559
50
317.2586784
51
319.9046139
0
LINE
8
DEFAULT_255_1_234
10
5.7121127
20
132.8098211
11
5.7121127
21
132.033152
0
LINE
8
DEFAULT_255_1_234
10
5.7121127
20
132.033152
11
5.8743538
21
132.033152
0
LINE
8
DEFAULT_255_1_234
10
5.8743538
20
132.033152
11
5.8743538
21
131.9118728
0
LINE
8
DEFAULT_255_1_234
10
5.8743538
20
131.9118728
11
5.7121127
21
131.9118728
0
LINE
8
DEFAULT_255_1_234
10
5.7121127
20
131.9118728
11
5.7121127
21
131.6404
0
LINE
8
DEFAULT_255_1_234
10
5.7121127
20
131.6404
11
5.5627224
21
131.6404
0
LINE
8
DEFAULT_255_1_234
10
5.5627224
20
131.6404
11
5.5627224
21
131.9118728
0
LINE
8
DEFAULT_255_1_234
10
5.5627224
20
131.9118728
11
5.0302181
21
131.9118728
0
LINE
8
DEFAULT_255_1_234
10
5.0302181
20
131.9118728
11
5.0302181
21
131.9994187
0
LINE
8
DEFAULT_255_1_234
10
5.0302181
20
131.9994187
11
5.5538875
21
132.8098211
0
LINE
8
DEFAULT_255_1_234
10
5.5538875
20
132.8098211
11
5.7121127
21
132.8098211
0
LINE
8
DEFAULT_255_1_234
10
5.5450525
20
132.5744912
11
5.1988846
21
132.033152
0
LINE
8
DEFAULT_255_1_234
10
5.1988846
20
132.033152
11
5.5627224
21
132.033152
0
LINE
8
DEFAULT_255_1_234
10
5.5627224
20
132.033152
11
5.5627224
21
132.6066181
0
LINE
8
DEFAULT_255_1_234
10
5.5627224
20
132.6066181
11
5.5450525
21
132.5744912
0
LINE
8
DEFAULT_255_1_234
10
6.101652
20
132.8098211
11
6.434166
21
131.8452093
0
LINE
8
DEFAULT_255_1_234
10
6.434166
20
131.8452093
11
6.7682863
21
132.8098211
0
LINE
8
DEFAULT_255_1_234
10
6.7682863
20
132.8098211
11
6.9369528
21
132.8098211
0
LINE
8
DEFAULT_255_1_234
10
6.9369528
20
132.8098211
11
6.5032389
21
131.6404
0
LINE
8
DEFAULT_255_1_234
10
6.5032389
20
131.6404
11
6.3666994
21
131.6404
0
LINE
8
DEFAULT_255_1_234
10
6.3666994
20
131.6404
11
5.9337887
21
132.8098211
0
LINE
8
DEFAULT_255_1_234
10
5.9337887
20
132.8098211
11
6.101652
21
132.8098211
0
LINE
8
DEFAULT_255_1_234
10
4.3647902
20
5.8098211
11
4.3647902
21
4.6404
0
LINE
8
DEFAULT_255_1_234
10
4.3647902
20
4.6404
11
4.2105808
21
4.6404
0
LINE
8
DEFAULT_255_1_234
10
4.2105808
20
4.6404
11
4.2105808
21
5.8098211
0
LINE
8
DEFAULT_255_1_234
10
4.2105808
20
5.8098211
11
4.3647902
21
5.8098211
0
LINE
8
DEFAULT_255_1_234
10
5.5454557
20
5.8098211
11
5.5454557
21
4.6404
0
LINE
8
DEFAULT_255_1_234
10
5.5454557
20
4.6404
11
5.3904432
21
4.6404
0
LINE
8
DEFAULT_255_1_234
10
5.3904432
20
4.6404
11
4.8017167
21
5.541561
0
LINE
8
DEFAULT_255_1_234
10
4.8017167
20
5.541561
11
4.8017167
21
4.6404
0
LINE
8
DEFAULT_255_1_234
10
4.8017167
20
4.6404
11
4.6467042
21
4.6404
0
LINE
8
DEFAULT_255_1_234
10
4.6467042
20
4.6404
11
4.6467042
21
5.8098211
0
LINE
8
DEFAULT_255_1_234
10
4.6467042
20
5.8098211
11
4.8017167
21
5.8098211
0
LINE
8
DEFAULT_255_1_234
10
4.8017167
20
5.8098211
11
5.3920495
21
4.9046442
0
LINE
8
DEFAULT_255_1_234
10
5.3920495
20
4.9046442
11
5.3920495
21
5.8098211
0
LINE
8
DEFAULT_255_1_234
10
5.3920495
20
5.8098211
11
5.5454557
21
5.8098211
0
LINE
8
DEFAULT_255_1_234
10
6.2691153
20
5.8154433
11
6.2691153
21
4.6404
0
LINE
8
DEFAULT_255_1_234
10
6.2691153
20
4.6404
11
6.119725
21
4.6404
0
LINE
8
DEFAULT_255_1_234
10
6.119725
20
4.6404
11
6.119725
21
5.6307133
0
LINE
8
DEFAULT_255_1_234
10
6.119725
20
5.6307133
11
5.8201412
21
5.5206785
0
LINE
8
DEFAULT_255_1_234
10
5.8201412
20
5.5206785
11
5.8201412
21
5.6556117
0
LINE
8
DEFAULT_255_1_234
10
5.8201412
20
5.6556117
11
6.2458233
21
5.8154433
0
LINE
8
DEFAULT_255_1_234
10
6.2458233
20
5.8154433
11
6.2691153
21
5.8154433
0
LINE
8
DEFAULT_255_1_234
10
6.891575
20
5.1961963
11
6.7727053
21
5.2267169
0
LINE
8
DEFAULT_255_1_234
10
6.7727053
20
5.2267169
11
6.8321402
21
5.8098211
0
LINE
8
DEFAULT_255_1_234
10
6.8321402
20
5.8098211
11
7.4313079
21
5.8098211
0
LINE
8
DEFAULT_255_1_234
10
7.4313079
20
5.8098211
11
7.4313079
21
5.6724784
0
LINE
8
DEFAULT_255_1_234
10
7.4313079
20
5.6724784
11
6.9582385
21
5.6724784
0
LINE
8
DEFAULT_255_1_234
10
6.9582385
20
5.6724784
11
6.9228988
21
5.3536184
0
LINE
8
DEFAULT_255_1_234
10
6.7309403
20
4.9480156
11
6.8714957
21
4.9480156
0
LINE
8
DEFAULT_255_1_234
10
6.9309306
20
5.2283232
11
6.891575
21
5.1961963
0
ARC
8
DEFAULT_255_1_234
10
7.1083772
20
5.035623
40
0.3681349
50
93.7182161
51
120.2538958
0
ARC
8
DEFAULT_255_1_234
10
7.1178035
20
4.9548394
40
0.449379
50
89.9660152
51
94.2496022
0
ARC
8
DEFAULT_255_1_234
10
7.1218769
20
5.0137549
40
0.390482
50
73.8043271
51
90.5585896
0
ARC
8
DEFAULT_255_1_234
10
7.1453666
20
5.0995602
40
0.3015334
50
41.3071453
51
73.5430202
0
ARC
8
DEFAULT_255_1_234
10
7.1037493
20
5.0637324
40
0.3564457
50
13.5075983
51
41.2174222
0
ARC
8
DEFAULT_255_1_234
10
6.9395697
20
5.0207486
40
0.5261351
50
1.1331335
51
13.8829381
0
ARC
8
DEFAULT_255_1_234
10
6.7984066
20
5.0131665
40
0.6674378
50
359.9919444
51
1.544251
0
ARC
8
DEFAULT_255_1_234
10
6.9260892
20
5.009028
40
0.5397702
50
347.8572367
51
0.4293338
0
ARC
8
DEFAULT_255_1_234
10
7.101121
20
4.9693736
40
0.3603188
50
323.673004
51
348.1672506
0
ARC
8
DEFAULT_255_1_234
10
7.1305718
20
4.9514168
40
0.3259678
50
316.8171152
51
323.1492751
0
ARC
8
DEFAULT_255_1_234
10
7.1366907
20
4.947746
40
0.3189975
50
281.8396411
51
316.5457803
0
ARC
8
DEFAULT_255_1_234
10
7.0991171
20
5.1032762
40
0.4789527
50
269.5770101
51
282.4214771
0
ARC
8
DEFAULT_255_1_234
10
7.0919983
20
5.0819125
40
0.45759
50
256.2427136
51
270.4486331
0
ARC
8
DEFAULT_255_1_234
10
7.0620885
20
4.9619229
40
0.3339303
50
228.9023911
51
256.3314342
0
ARC
8
DEFAULT_255_1_234
10
7.0547117
20
4.9502746
40
0.32031
50
193.753695
51
228.5271154
0
ARC
8
DEFAULT_255_1_234
10
7.1785071
20
4.98658
40
0.4492253
50
184.924711
51
194.497588
0
ARC
8
DEFAULT_255_1_234
10
7.1977638
20
4.9901591
40
0.3289787
50
187.3600538
51
198.6732863
0
ARC
8
DEFAULT_255_1_234
10
7.0927932
20
4.9537674
40
0.217884
50
198.4451669
51
217.794479
0
ARC
8
DEFAULT_255_1_234
10
7.0632107
20
4.9328085
40
0.1816698
50
218.2887171
51
228.5612368
0
ARC
8
DEFAULT_255_1_234
10
7.0729894
20
4.9459963
40
0.1980329
50
228.9654866
51
258.1234728
0
ARC
8
DEFAULT_255_1_234
10
7.0935604
20
5.0340833
40
0.2884748
50
257.7258293
51
270.401361
0
ARC
8
DEFAULT_255_1_234
10
7.0980491
20
4.9895821
40
0.2439788
50
269.4204404
51
286.4209037
0
ARC
8
DEFAULT_255_1_234
10
7.1128978
20
4.9356657
40
0.1880666
50
286.7251356
51
320.600362
0
ARC
8
DEFAULT_255_1_234
10
7.0745803
20
4.9667595
40
0.2374121
50
320.6712579
51
344.5441685
0
ARC
8
DEFAULT_255_1_234
10
6.9589129
20
5.0007045
40
0.3579479
50
344.2412205
51
356.7357071
0
ARC
8
DEFAULT_255_1_234
10
6.8340278
20
5.0110444
40
0.4832297
50
356.3548756
51
0.0500261
0
ARC
8
DEFAULT_255_1_234
10
6.9676787
20
5.014165
40
0.3495889
50
359.5576869
51
12.953486
0
ARC
8
DEFAULT_255_1_234
10
7.0731684
20
5.0397434
40
0.2410532
50
12.6490276
51
41.6081334
0
ARC
8
DEFAULT_255_1_234
10
7.0962055
20
5.0593321
40
0.2108218
50
41.7850273
51
85.9892764
0
ARC
8
DEFAULT_255_1_234
10
7.0838792
20
4.9780462
40
0.2928454
50
84.6957577
51
90.0676183
0
ARC
8
DEFAULT_255_1_234
10
7.0815276
20
4.9111716
40
0.3597255
50
89.6804936
51
99.1614436
0
ARC
8
DEFAULT_255_1_234
10
7.0609907
20
5.0339131
40
0.235281
50
98.9830931
51
113.8908934
0
ARC
8
DEFAULT_255_1_234
10
7.0380317
20
5.0880587
40
0.176479
50
114.1950727
51
127.3641004
0
LINE
8
DEFAULT_255_1_234
10
4.4705902
20
13.7473211
11
4.4705902
21
12.5779
0
LINE
8
DEFAULT_255_1_234
10
4.4705902
20
12.5779
11
4.3163808
21
12.5779
0
LINE
8
DEFAULT_255_1_234
10
4.3163808
20
12.5779
11
4.3163808
21
13.7473211
0
LINE
8
DEFAULT_255_1_234
10
4.3163808
20
13.7473211
11
4.4705902
21
13.7473211
0
LINE
8
DEFAULT_255_1_234
10
5.6512557
20
13.7473211
11
5.6512557
21
12.5779
0
LINE
8
DEFAULT_255_1_234
10
5.6512557
20
12.5779
11
5.4962432
21
12.5779
0
LINE
8
DEFAULT_255_1_234
10
5.4962432
20
12.5779
11
4.9075167
21
13.479061
0
LINE
8
DEFAULT_255_1_234
10
4.9075167
20
13.479061
11
4.9075167
21
12.5779
0
LINE
8
DEFAULT_255_1_234
10
4.9075167
20
12.5779
11
4.7525042
21
12.5779
0
LINE
8
DEFAULT_255_1_234
10
4.7525042
20
12.5779
11
4.7525042
21
13.7473211
0
LINE
8
DEFAULT_255_1_234
10
4.7525042
20
13.7473211
11
4.9075167
21
13.7473211
0
LINE
8
DEFAULT_255_1_234
10
4.9075167
20
13.7473211
11
5.4978495
21
12.8421442
0
LINE
8
DEFAULT_255_1_234
10
5.4978495
20
12.8421442
11
5.4978495
21
13.7473211
0
LINE
8
DEFAULT_255_1_234
10
5.4978495
20
13.7473211
11
5.6512557
21
13.7473211
0
LINE
8
DEFAULT_255_1_234
10
6.3749153
20
13.7529433
11
6.3749153
21
12.5779
0
LINE
8
DEFAULT_255_1_234
10
6.3749153
20
12.5779
11
6.225525
21
12.5779
0
LINE
8
DEFAULT_255_1_234
10
6.225525
20
12.5779
11
6.225525
21
13.5682133
0
LINE
8
DEFAULT_255_1_234
10
6.225525
20
13.5682133
11
5.9259412
21
13.4581785
0
LINE
8
DEFAULT_255_1_234
10
5.9259412
20
13.4581785
11
5.9259412
21
13.5931117
0
LINE
8
DEFAULT_255_1_234
10
5.9259412
20
13.5931117
11
6.3516233
21
13.7529433
0
LINE
8
DEFAULT_255_1_234
10
6.3516233
20
13.7529433
11
6.3749153
21
13.7529433
0
LINE
8
DEFAULT_255_1_234
10
7.4375143
20
13.7473211
11
7.4375143
21
12.970652
0
LINE
8
DEFAULT_255_1_234
10
7.4375143
20
12.970652
11
7.5997554
21
12.970652
0
LINE
8
DEFAULT_255_1_234
10
7.5997554
20
12.970652
11
7.5997554
21
12.8493728
0
LINE
8
DEFAULT_255_1_234
10
7.5997554
20
12.8493728
11
7.4375143
21
12.8493728
0
LINE
8
DEFAULT_255_1_234
10
7.4375143
20
12.8493728
11
7.4375143
21
12.5779
0
LINE
8
DEFAULT_255_1_234
10
7.4375143
20
12.5779
11
7.288124
21
12.5779
0
LINE
8
DEFAULT_255_1_234
10
7.288124
20
12.5779
11
7.288124
21
12.8493728
0
LINE
8
DEFAULT_255_1_234
10
7.288124
20
12.8493728
11
6.7556197
21
12.8493728
0
LINE
8
DEFAULT_255_1_234
10
6.7556197
20
12.8493728
11
6.7556197
21
12.9369187
0
LINE
8
DEFAULT_255_1_234
10
6.7556197
20
12.9369187
11
7.2792891
21
13.7473211
0
LINE
8
DEFAULT_255_1_234
10
7.2792891
20
13.7473211
11
7.4375143
21
13.7473211
0
LINE
8
DEFAULT_255_1_234
10
7.2704542
20
13.5119912
11
6.9242862
21
12.970652
0
LINE
8
DEFAULT_255_1_234
10
6.9242862
20
12.970652
11
7.288124
21
12.970652
0
LINE
8
DEFAULT_255_1_234
10
7.288124
20
12.970652
11
7.288124
21
13.5441181
0
LINE
8
DEFAULT_255_1_234
10
7.288124
20
13.5441181
11
7.2704542
21
13.5119912
0
LINE
8
DEFAULT_255_1_234
10
4.3647902
20
21.6848211
11
4.3647902
21
20.5154
0
LINE
8
DEFAULT_255_1_234
10
4.3647902
20
20.5154
11
4.2105808
21
20.5154
0
LINE
8
DEFAULT_255_1_234
10
4.2105808
20
20.5154
11
4.2105808
21
21.6848211
0
LINE
8
DEFAULT_255_1_234
10
4.2105808
20
21.6848211
11
4.3647902
21
21.6848211
0
LINE
8
DEFAULT_255_1_234
10
5.5454557
20
21.6848211
11
5.5454557
21
20.5154
0
LINE
8
DEFAULT_255_1_234
10
5.5454557
20
20.5154
11
5.3904432
21
20.5154
0
LINE
8
DEFAULT_255_1_234
10
5.3904432
20
20.5154
11
4.8017167
21
21.416561
0
LINE
8
DEFAULT_255_1_234
10
4.8017167
20
21.416561
11
4.8017167
21
20.5154
0
LINE
8
DEFAULT_255_1_234
10
4.8017167
20
20.5154
11
4.6467042
21
20.5154
0
LINE
8
DEFAULT_255_1_234
10
4.6467042
20
20.5154
11
4.6467042
21
21.6848211
0
LINE
8
DEFAULT_255_1_234
10
4.6467042
20
21.6848211
11
4.8017167
21
21.6848211
0
LINE
8
DEFAULT_255_1_234
10
4.8017167
20
21.6848211
11
5.3920495
21
20.7796442
0
LINE
8
DEFAULT_255_1_234
10
5.3920495
20
20.7796442
11
5.3920495
21
21.6848211
0
LINE
8
DEFAULT_255_1_234
10
5.3920495
20
21.6848211
11
5.5454557
21
21.6848211
0
LINE
8
DEFAULT_255_1_234
10
6.2691153
20
21.6904433
11
6.2691153
21
20.5154
0
LINE
8
DEFAULT_255_1_234
10
6.2691153
20
20.5154
11
6.119725
21
20.5154
0
LINE
8
DEFAULT_255_1_234
10
6.119725
20
20.5154
11
6.119725
21
21.5057133
0
LINE
8
DEFAULT_255_1_234
10
6.119725
20
21.5057133
11
5.8201412
21
21.3956785
0
LINE
8
DEFAULT_255_1_234
10
5.8201412
20
21.3956785
11
5.8201412
21
21.5306117
0
LINE
8
DEFAULT_255_1_234
10
5.8201412
20
21.5306117
11
6.2458233
21
21.6904433
0
LINE
8
DEFAULT_255_1_234
10
6.2458233
20
21.6904433
11
6.2691153
21
21.6904433
0
LINE
8
DEFAULT_255_1_234
10
6.9204893
20
21.0511169
11
6.9204893
21
21.1723962
0
LINE
8
DEFAULT_255_1_234
10
6.9204893
20
21.1723962
11
7.0321305
21
21.1723962
0
LINE
8
DEFAULT_255_1_234
10
6.8417783
20
21.3780087
11
6.6931911
21
21.3780087
0
LINE
8
DEFAULT_255_1_234
10
6.6827499
20
20.8238188
11
6.8321402
21
20.8238188
0
LINE
8
DEFAULT_255_1_234
10
7.0321305
20
21.0511169
11
6.9204893
21
21.0511169
0
ARC
8
DEFAULT_255_1_234
10
7.0292171
20
21.5116713
40
0.3392876
50
270.4919872
51
281.8951556
0
ARC
8
DEFAULT_255_1_234
10
7.0533433
20
21.4014702
40
0.2264817
50
281.6691735
51
301.2943132
0
ARC
8
DEFAULT_255_1_234
10
7.0703643
20
21.3703304
40
0.1910381
50
301.7833094
51
311.7545298
0
ARC
8
DEFAULT_255_1_234
10
7.0795219
20
21.3601748
40
0.1773635
50
311.7323931
51
354.2802411
0
ARC
8
DEFAULT_255_1_234
10
7.0068844
20
21.3726722
40
0.2509385
50
353.0937916
51
0.1181479
0
ARC
8
DEFAULT_255_1_234
10
6.9607629
20
21.3774386
40
0.2970898
50
359.1805295
51
15.0453146
0
ARC
8
DEFAULT_255_1_234
10
7.0953466
20
21.4166992
40
0.1569564
50
13.9577229
51
77.6713066
0
ARC
8
DEFAULT_255_1_234
10
7.0566995
20
21.2781949
40
0.3006298
50
76.1116566
51
90.7026153
0
ARC
8
DEFAULT_255_1_234
10
7.0507833
20
21.3055545
40
0.2732568
50
89.5324876
51
103.531937
0
ARC
8
DEFAULT_255_1_234
10
7.0307278
20
21.3854884
40
0.1908508
50
103.2931773
51
133.5619022
0
ARC
8
DEFAULT_255_1_234
10
7.0262766
20
21.3914375
40
0.1834746
50
133.8349307
51
173.5344437
0
ARC
8
DEFAULT_255_1_234
10
7.0985809
20
21.3786213
40
0.2568033
50
172.5096846
51
180.1366907
0
ARC
8
DEFAULT_255_1_234
10
7.0034703
20
21.3820622
40
0.3103056
50
155.3484492
51
180.7484736
0
ARC
8
DEFAULT_255_1_234
10
6.9985792
20
21.3791846
40
0.3070957
50
131.5744599
51
154.4798489
0
ARC
8
DEFAULT_255_1_234
10
7.0298939
20
21.347531
40
0.3515643
50
96.9875458
51
131.9690667
0
ARC
8
DEFAULT_255_1_234
10
7.0518419
20
21.2229636
40
0.4779224
50
89.8596053
51
97.7825159
0
ARC
8
DEFAULT_255_1_234
10
7.0566482
20
21.1967616
40
0.5041361
50
78.3655447
51
90.4131539
0
ARC
8
DEFAULT_255_1_234
10
7.09244
20
21.3626887
40
0.3344039
50
56.6229102
51
78.638727
0
ARC
8
DEFAULT_255_1_234
10
7.1139344
20
21.4002805
40
0.2912001
50
47.0253525
51
56.0854072
0
ARC
8
DEFAULT_255_1_234
10
7.1159124
20
21.4042223
40
0.2869704
50
10.9208013
51
46.7778124
0
ARC
8
DEFAULT_255_1_234
10
6.979519
20
21.3726857
40
0.426899
50
359.6364486
51
11.6087304
0
ARC
8
DEFAULT_255_1_234
10
7.1630035
20
21.3711752
40
0.243409
50
332.3549906
51
359.7179418
0
ARC
8
DEFAULT_255_1_234
10
7.0979636
20
21.4020142
40
0.3153459
50
325.2333722
51
332.8745602
0
ARC
8
DEFAULT_255_1_234
10
7.113226
20
21.3913828
40
0.2967456
50
292.9802137
51
325.2392345
0
ARC
8
DEFAULT_255_1_234
10
7.0857634
20
21.4447863
40
0.3566604
50
292.5402179
51
293.6924929
0
ARC
8
DEFAULT_255_1_234
10
7.1250229
20
20.7993091
40
0.3307468
50
57.6435486
51
72.8625112
0
ARC
8
DEFAULT_255_1_234
10
7.1604729
20
20.8567549
40
0.2632492
50
36.7248896
51
57.4697979
0
ARC
8
DEFAULT_255_1_234
10
7.1593362
20
20.858022
40
0.2634081
50
8.0545065
51
36.356114
0
ARC
8
DEFAULT_255_1_234
10
7.0730547
20
20.8425174
40
0.3510261
50
359.8320645
51
8.5869982
0
ARC
8
DEFAULT_255_1_234
10
7.0355323
20
20.8377101
40
0.3885653
50
343.9829931
51
0.5571613
0
ARC
8
DEFAULT_255_1_234
10
7.1241521
20
20.8134438
40
0.2966924
50
311.6359546
51
343.7651759
0
ARC
8
DEFAULT_255_1_234
10
7.086309
20
20.8561102
40
0.3537231
50
279.7829875
51
311.6255694
0
ARC
8
DEFAULT_255_1_234
10
7.0561866
20
20.999828
40
0.5004971
50
269.7286406
51
280.3856417
0
ARC
8
DEFAULT_255_1_234
10
7.0499939
20
20.9956996
40
0.4963778
50
256.6828919
51
270.4412052
0
ARC
8
DEFAULT_255_1_234
10
7.0161234
20
20.8572394
40
0.3538406
50
229.4223008
51
256.8556159
0
ARC
8
DEFAULT_255_1_234
10
6.9746627
20
20.8105736
40
0.2914296
50
181.818294
51
229.6455059
0
ARC
8
DEFAULT_255_1_234
10
7.0786583
20
20.8236496
40
0.3959084
50
179.9755256
51
183.2323064
0
ARC
8
DEFAULT_255_1_234
10
7.0614329
20
20.8216037
40
0.2293034
50
179.4465117
51
196.2869258
0
ARC
8
DEFAULT_255_1_234
10
7.0126737
20
20.8082651
40
0.1787621
50
196.5661473
51
227.705904
0
ARC
8
DEFAULT_255_1_234
10
7.0290832
20
20.8266155
40
0.2033784
50
227.7652068
51
257.8762805
0
ARC
8
DEFAULT_255_1_234
10
7.0515802
20
20.9209156
40
0.3003081
50
257.4584385
51
270.426602
0
ARC
8
DEFAULT_255_1_234
10
7.0561368
20
20.9498996
40
0.329292
50
269.5962073
51
280.8789248
0
ARC
8
DEFAULT_255_1_234
10
7.0790897
20
20.8352685
40
0.2123908
50
280.6346389
51
299.8595945
0
ARC
8
DEFAULT_255_1_234
10
7.0981804
20
20.7990212
40
0.171457
50
300.3576302
51
314.5517981
0
ARC
8
DEFAULT_255_1_234
10
7.0898864
20
20.8050919
40
0.1816095
50
315.0728369
51
345.0431014
0
ARC
8
DEFAULT_255_1_234
10
6.9975678
20
20.8319841
40
0.2777492
50
344.5986631
51
357.9269593
0
ARC
8
DEFAULT_255_1_234
10
6.9080005
20
20.8381276
40
0.3674917
50
357.4748886
51
0.0231117
0
ARC
8
DEFAULT_255_1_234
10
7.0103114
20
20.8405679
40
0.2651907
50
359.5047933
51
13.4239635
0
ARC
8
DEFAULT_255_1_234
10
7.0969758
20
20.8627478
40
0.1757509
50
12.9498199
51
48.7551375
0
ARC
8
DEFAULT_255_1_234
10
7.0787492
20
20.83784
40
0.2065134
50
49.5088623
51
72.1836453
0
ARC
8
DEFAULT_255_1_234
10
7.0429644
20
20.7316291
40
0.3185836
50
71.9010081
51
84.3554254
0
ARC
8
DEFAULT_255_1_234
10
7.0268276
20
20.5955326
40
0.4556151
50
84.0193428
51
89.333121
0
LINE
8
DEFAULT_255_1_234
10
4.3647902
20
29.6223211
11
4.3647902
21
28.4529
0
LINE
8
DEFAULT_255_1_234
10
4.3647902
20
28.4529
11
4.2105808
21
28.4529
0
LINE
8
DEFAULT_255_1_234
10
4.2105808
20
28.4529
11
4.2105808
21
29.6223211
0
LINE
8
DEFAULT_255_1_234
10
4.2105808
20
29.6223211
11
4.3647902
21
29.6223211
0
LINE
8
DEFAULT_255_1_234
10
5.5454557
20
29.6223211
11
5.5454557
21
28.4529
0
LINE
8
DEFAULT_255_1_234
10
5.5454557
20
28.4529
11
5.3904432
21
28.4529
0
LINE
8
DEFAULT_255_1_234
10
5.3904432
20
28.4529
11
4.8017167
21
29.354061
0
LINE
8
DEFAULT_255_1_234
10
4.8017167
20
29.354061
11
4.8017167
21
28.4529
0
LINE
8
DEFAULT_255_1_234
10
4.8017167
20
28.4529
11
4.6467042
21
28.4529
0
LINE
8
DEFAULT_255_1_234
10
4.6467042
20
28.4529
11
4.6467042
21
29.6223211
0
LINE
8
DEFAULT_255_1_234
10
4.6467042
20
29.6223211
11
4.8017167
21
29.6223211
0
LINE
8
DEFAULT_255_1_234
10
4.8017167
20
29.6223211
11
5.3920495
21
28.7171442
0
LINE
8
DEFAULT_255_1_234
10
5.3920495
20
28.7171442
11
5.3920495
21
29.6223211
0
LINE
8
DEFAULT_255_1_234
10
5.3920495
20
29.6223211
11
5.5454557
21
29.6223211
0
LINE
8
DEFAULT_255_1_234
10
6.2691153
20
29.6279433
11
6.2691153
21
28.4529
0
LINE
8
DEFAULT_255_1_234
10
6.2691153
20
28.4529
11
6.119725
21
28.4529
0
LINE
8
DEFAULT_255_1_234
10
6.119725
20
28.4529
11
6.119725
21
29.4432133
0
LINE
8
DEFAULT_255_1_234
10
6.119725
20
29.4432133
11
5.8201412
21
29.3331785
0
LINE
8
DEFAULT_255_1_234
10
5.8201412
20
29.3331785
11
5.8201412
21
29.4681117
0
LINE
8
DEFAULT_255_1_234
10
5.8201412
20
29.4681117
11
6.2458233
21
29.6279433
0
LINE
8
DEFAULT_255_1_234
10
6.2458233
20
29.6279433
11
6.2691153
21
29.6279433
0
LINE
8
DEFAULT_255_1_234
10
7.4706634
20
28.5741792
11
7.4706634
21
28.4529
0
LINE
8
DEFAULT_255_1_234
10
7.4706634
20
28.4529
11
6.7044355
21
28.4529
0
LINE
8
DEFAULT_255_1_234
10
6.7044355
20
28.4529
11
6.7044355
21
28.5597221
0
LINE
8
DEFAULT_255_1_234
10
6.7044355
20
28.5597221
11
7.1092352
21
29.0094995
0
LINE
8
DEFAULT_255_1_234
10
6.8305338
20
29.2777595
11
6.6819467
21
29.2777595
0
LINE
8
DEFAULT_255_1_234
10
7.1967811
20
28.9139218
11
6.8835433
21
28.5741792
0
LINE
8
DEFAULT_255_1_234
10
6.8835433
20
28.5741792
11
7.4706634
21
28.5741792
0
ARC
8
DEFAULT_255_1_234
10
5.7602185
20
30.2024527
40
1.8008286
50
318.5132453
51
320.7828378
0
ARC
8
DEFAULT_255_1_234
10
6.2889159
20
29.7721426
40
1.1191493
50
320.7372736
51
323.9737074
0
ARC
8
DEFAULT_255_1_234
10
6.6809016
20
29.4881361
40
0.6350923
50
323.8961724
51
328.6421089
0
ARC
8
DEFAULT_255_1_234
10
6.8855611
20
29.3619031
40
0.3946393
50
328.8299013
51
331.789948
0
ARC
8
DEFAULT_255_1_234
10
6.985279
20
29.3104509
40
0.2824501
50
331.4255242
51
352.9364833
0
ARC
8
DEFAULT_255_1_234
10
6.998929
20
29.3073976
40
0.2685315
50
353.2248685
51
0.0169286
0
ARC
8
DEFAULT_255_1_234
10
7.0199167
20
29.309695
40
0.2475536
50
359.4866256
51
15.9339782
0
ARC
8
DEFAULT_255_1_234
10
7.0706152
20
29.3233286
40
0.1950618
50
16.1714718
51
43.5284424
0
ARC
8
DEFAULT_255_1_234
10
7.0783461
20
29.3310573
40
0.184134
50
43.4415429
51
83.1661404
0
ARC
8
DEFAULT_255_1_234
10
7.0649379
20
29.2573771
40
0.258926
50
82.160215
51
90.1505798
0
ARC
8
DEFAULT_255_1_234
10
7.0617807
20
29.2036865
40
0.3126255
50
89.5460705
51
102.5418777
0
ARC
8
DEFAULT_255_1_234
10
7.0374893
20
29.3067665
40
0.2067346
50
102.1739365
51
129.2061916
0
ARC
8
DEFAULT_255_1_234
10
7.0295964
20
29.3192094
40
0.1921118
50
129.7279328
51
135.7542026
0
ARC
8
DEFAULT_255_1_234
10
7.0417492
20
29.3095045
40
0.2075944
50
136.175737
51
166.3674722
0
ARC
8
DEFAULT_255_1_234
10
7.1424411
20
29.2825182
40
0.3118201
50
165.9092917
51
178.8683903
0
ARC
8
DEFAULT_255_1_234
10
7.2289273
20
29.2778179
40
0.3983935
50
178.438168
51
180.0083905
0
ARC
8
DEFAULT_255_1_234
10
7.0887875
20
29.2817231
40
0.4068601
50
163.2878735
51
180.5581814
0
ARC
8
DEFAULT_255_1_234
10
7.0086136
20
29.303784
40
0.3237344
50
133.454115
51
162.9470031
0
ARC
8
DEFAULT_255_1_234
10
7.0264677
20
29.2848
40
0.349795
50
100.7869394
51
133.4384016
0
ARC
8
DEFAULT_255_1_234
10
7.0612449
20
29.1299319
40
0.5084616
50
89.6605301
51
101.3704185
0
ARC
8
DEFAULT_255_1_234
10
7.0678788
20
29.1360496
40
0.502348
50
78.2171172
51
90.4130393
0
ARC
8
DEFAULT_255_1_234
10
7.1033866
20
29.2984637
40
0.3361092
50
55.9268222
51
78.4888551
0
ARC
8
DEFAULT_255_1_234
10
7.1230306
20
29.3323324
40
0.2970617
50
47.9292255
51
55.4054003
0
ARC
8
DEFAULT_255_1_234
10
7.1331867
20
29.3426502
40
0.2825983
50
4.3347696
51
48.0560701
0
ARC
8
DEFAULT_255_1_234
10
7.023626
20
29.3256601
40
0.393225
50
359.925209
51
5.5967654
0
ARC
8
DEFAULT_255_1_234
10
7.0665152
20
29.3312816
40
0.3503892
50
337.8914096
51
358.9967724
0
ARC
8
DEFAULT_255_1_234
10
6.7951564
20
29.4359706
40
0.6412172
50
326.9135351
51
338.3505194
0
ARC
8
DEFAULT_255_1_234
10
6.3965868
20
29.6914284
40
1.1146189
50
319.6472867
51
327.095818
0
ARC
8
DEFAULT_255_1_234
10
6.0132871
20
30.0076
40
1.6114559
50
317.2586784
51
319.9046139
0
LINE
8
DEFAULT_255_1_234
10
4.3564902
20
37.5598211
11
4.3564902
21
36.3904
0
LINE
8
DEFAULT_255_1_234
10
4.3564902
20
36.3904
11
4.2022808
21
36.3904
0
LINE
8
DEFAULT_255_1_234
10
4.2022808
20
36.3904
11
4.2022808
21
37.5598211
0
LINE
8
DEFAULT_255_1_234
10
4.2022808
20
37.5598211
11
4.3564902
21
37.5598211
0
LINE
8
DEFAULT_255_1_234
10
5.5371557
20
37.5598211
11
5.5371557
21
36.3904
0
LINE
8
DEFAULT_255_1_234
10
5.5371557
20
36.3904
11
5.3821432
21
36.3904
0
LINE
8
DEFAULT_255_1_234
10
5.3821432
20
36.3904
11
4.7934167
21
37.291561
0
LINE
8
DEFAULT_255_1_234
10
4.7934167
20
37.291561
11
4.7934167
21
36.3904
0
LINE
8
DEFAULT_255_1_234
10
4.7934167
20
36.3904
11
4.6384042
21
36.3904
0
LINE
8
DEFAULT_255_1_234
10
4.6384042
20
36.3904
11
4.6384042
21
37.5598211
0
LINE
8
DEFAULT_255_1_234
10
4.6384042
20
37.5598211
11
4.7934167
21
37.5598211
0
LINE
8
DEFAULT_255_1_234
10
4.7934167
20
37.5598211
11
5.3837495
21
36.6546442
0
LINE
8
DEFAULT_255_1_234
10
5.3837495
20
36.6546442
11
5.3837495
21
37.5598211
0
LINE
8
DEFAULT_255_1_234
10
5.3837495
20
37.5598211
11
5.5371557
21
37.5598211
0
LINE
8
DEFAULT_255_1_234
10
6.2608153
20
37.5654433
11
6.2608153
21
36.3904
0
LINE
8
DEFAULT_255_1_234
10
6.2608153
20
36.3904
11
6.111425
21
36.3904
0
LINE
8
DEFAULT_255_1_234
10
6.111425
20
36.3904
11
6.111425
21
37.3807133
0
LINE
8
DEFAULT_255_1_234
10
6.111425
20
37.3807133
11
5.8118412
21
37.2706785
0
LINE
8
DEFAULT_255_1_234
10
5.8118412
20
37.2706785
11
5.8118412
21
37.4056117
0
LINE
8
DEFAULT_255_1_234
10
5.8118412
20
37.4056117
11
6.2375233
21
37.5654433
0
LINE
8
DEFAULT_255_1_234
10
6.2375233
20
37.5654433
11
6.2608153
21
37.5654433
0
LINE
8
DEFAULT_255_1_234
10
7.1844652
20
37.5654433
11
7.1844652
21
36.3904
0
LINE
8
DEFAULT_255_1_234
10
7.1844652
20
36.3904
11
7.0350749
21
36.3904
0
LINE
8
DEFAULT_255_1_234
10
7.0350749
20
36.3904
11
7.0350749
21
37.3807133
0
LINE
8
DEFAULT_255_1_234
10
7.0350749
20
37.3807133
11
6.7354911
21
37.2706785
0
LINE
8
DEFAULT_255_1_234
10
6.7354911
20
37.2706785
11
6.7354911
21
37.4056117
0
LINE
8
DEFAULT_255_1_234
10
6.7354911
20
37.4056117
11
7.1611732
21
37.5654433
0
LINE
8
DEFAULT_255_1_234
10
7.1611732
20
37.5654433
11
7.1844652
21
37.5654433
0
LINE
8
DEFAULT_255_1_234
10
4.3647902
20
45.4973211
11
4.3647902
21
44.3279
0
LINE
8
DEFAULT_255_1_234
10
4.3647902
20
44.3279
11
4.2105808
21
44.3279
0
LINE
8
DEFAULT_255_1_234
10
4.2105808
20
44.3279
11
4.2105808
21
45.4973211
0
LINE
8
DEFAULT_255_1_234
10
4.2105808
20
45.4973211
11
4.3647902
21
45.4973211
0
LINE
8
DEFAULT_255_1_234
10
5.5454557
20
45.4973211
11
5.5454557
21
44.3279
0
LINE
8
DEFAULT_255_1_234
10
5.5454557
20
44.3279
11
5.3904432
21
44.3279
0
LINE
8
DEFAULT_255_1_234
10
5.3904432
20
44.3279
11
4.8017167
21
45.229061
0
LINE
8
DEFAULT_255_1_234
10
4.8017167
20
45.229061
11
4.8017167
21
44.3279
0
LINE
8
DEFAULT_255_1_234
10
4.8017167
20
44.3279
11
4.6467042
21
44.3279
0
LINE
8
DEFAULT_255_1_234
10
4.6467042
20
44.3279
11
4.6467042
21
45.4973211
0
LINE
8
DEFAULT_255_1_234
10
4.6467042
20
45.4973211
11
4.8017167
21
45.4973211
0
LINE
8
DEFAULT_255_1_234
10
4.8017167
20
45.4973211
11
5.3920495
21
44.5921442
0
LINE
8
DEFAULT_255_1_234
10
5.3920495
20
44.5921442
11
5.3920495
21
45.4973211
0
LINE
8
DEFAULT_255_1_234
10
5.3920495
20
45.4973211
11
5.5454557
21
45.4973211
0
LINE
8
DEFAULT_255_1_234
10
6.2691153
20
45.5029433
11
6.2691153
21
44.3279
0
LINE
8
DEFAULT_255_1_234
10
6.2691153
20
44.3279
11
6.119725
21
44.3279
0
LINE
8
DEFAULT_255_1_234
10
6.119725
20
44.3279
11
6.119725
21
45.3182133
0
LINE
8
DEFAULT_255_1_234
10
6.119725
20
45.3182133
11
5.8201412
21
45.2081785
0
LINE
8
DEFAULT_255_1_234
10
5.8201412
20
45.2081785
11
5.8201412
21
45.3431117
0
LINE
8
DEFAULT_255_1_234
10
5.8201412
20
45.3431117
11
6.2458233
21
45.5029433
0
LINE
8
DEFAULT_255_1_234
10
6.2458233
20
45.5029433
11
6.2691153
21
45.5029433
0
LINE
8
DEFAULT_255_1_234
10
7.4377333
20
45.0194327
11
7.4377333
21
44.8266709
0
LINE
8
DEFAULT_255_1_234
10
6.6996165
20
44.8065916
11
6.6996165
21
45.0049755
0
LINE
8
DEFAULT_255_1_234
10
7.2891461
20
44.7865123
11
7.2891461
21
45.0298739
0
LINE
8
DEFAULT_255_1_234
10
6.8482037
20
45.0411184
11
6.8482037
21
44.8033789
0
ARC
8
DEFAULT_255_1_234
10
6.2130222
20
44.8217805
40
1.2247208
50
353.8441951
51
0.2287902
0
ARC
8
DEFAULT_255_1_234
10
6.6769726
20
44.7699806
40
0.7578929
50
344.4934747
51
353.9765454
0
ARC
8
DEFAULT_255_1_234
10
6.9762316
20
44.6848981
40
0.4467846
50
329.2803592
51
344.7472793
0
ARC
8
DEFAULT_255_1_234
10
7.0755141
20
44.6304018
40
0.3336173
50
324.9352394
51
328.6160465
0
ARC
8
DEFAULT_255_1_234
10
7.113225
20
44.6040427
40
0.2876076
50
280.580143
51
324.9173126
0
ARC
8
DEFAULT_255_1_234
10
7.0731042
20
44.7711099
40
0.4592847
50
269.5977311
51
281.6734359
0
ARC
8
DEFAULT_255_1_234
10
7.0658948
20
44.7591173
40
0.4472986
50
256.6228859
51
270.51044
0
ARC
8
DEFAULT_255_1_234
10
7.0256926
20
44.6042877
40
0.2873874
50
215.8618325
51
257.2788573
0
ARC
8
DEFAULT_255_1_234
10
7.1277957
20
44.6727977
40
0.4102928
50
197.9693508
51
215.2623606
0
ARC
8
DEFAULT_255_1_234
10
7.3763073
20
44.7566709
40
0.6725652
50
187.8816417
51
198.2346507
0
ARC
8
DEFAULT_255_1_234
10
7.7721281
20
44.8138079
40
1.0724845
50
180.8976217
51
188.0055519
0
ARC
8
DEFAULT_255_1_234
10
8.0521469
20
44.8241777
40
1.3526448
50
180.7449369
51
181.1510016
0
ARC
8
DEFAULT_255_1_234
10
7.8944198
20
45.0098042
40
1.1948131
50
173.7675579
51
180.231553
0
ARC
8
DEFAULT_255_1_234
10
7.4426345
20
45.0608666
40
0.7401564
50
164.3058563
51
173.9002247
0
ARC
8
DEFAULT_255_1_234
10
7.1514414
20
45.1447656
40
0.4371288
50
148.7922025
51
164.568378
0
ARC
8
DEFAULT_255_1_234
10
7.0562866
20
45.1978929
40
0.3282386
50
144.5883898
51
148.1176286
0
ARC
8
DEFAULT_255_1_234
10
7.0219764
20
45.2218315
40
0.2864044
50
101.6440918
51
144.514236
0
ARC
8
DEFAULT_255_1_234
10
7.0644831
20
45.0529069
40
0.4604934
50
89.5284041
51
102.5819763
0
ARC
8
DEFAULT_255_1_234
10
7.0723918
20
45.0490018
40
0.464401
50
77.0437873
51
90.5081339
0
ARC
8
DEFAULT_255_1_234
10
7.112592
20
45.2132615
40
0.2953195
50
48.2778575
51
77.4994676
0
ARC
8
DEFAULT_255_1_234
10
7.1198551
20
45.2261746
40
0.2808655
50
36.3142134
51
47.6305865
0
ARC
8
DEFAULT_255_1_234
10
7.0329858
20
45.1676515
40
0.3855453
50
18.2931786
51
35.6769206
0
ARC
8
DEFAULT_255_1_234
10
6.7786617
20
45.0803593
40
0.654423
50
8.024666
51
18.5605216
0
ARC
8
DEFAULT_255_1_234
10
6.3623537
20
45.0188792
40
1.0752407
50
1.1274072
51
8.1718305
0
ARC
8
DEFAULT_255_1_234
10
6.0387728
20
45.0061885
40
1.3990231
50
0.5424119
51
1.3863029
0
ARC
8
DEFAULT_255_1_234
10
6.2209106
20
45.0334342
40
1.0682415
50
359.8090433
51
4.9407866
0
ARC
8
DEFAULT_255_1_234
10
6.641912
20
45.0710113
40
0.6455691
50
4.8362157
51
12.2904523
0
ARC
8
DEFAULT_255_1_234
10
6.9174234
20
45.1323965
40
0.3633074
50
12.0805627
51
23.8173984
0
ARC
8
DEFAULT_255_1_234
10
7.034794
20
45.1820919
40
0.2358723
50
24.2871213
51
31.3935614
0
ARC
8
DEFAULT_255_1_234
10
7.0872637
20
45.2164233
40
0.1732111
50
30.7407893
51
82.4657128
0
ARC
8
DEFAULT_255_1_234
10
7.0692771
20
45.1280691
40
0.263235
50
81.1060089
51
90.2184952
0
ARC
8
DEFAULT_255_1_234
10
7.065707
20
45.1538924
40
0.2374236
50
89.3806855
51
105.6762551
0
ARC
8
DEFAULT_255_1_234
10
7.0473701
20
45.2205567
40
0.1682847
50
105.7981136
51
149.7388061
0
ARC
8
DEFAULT_255_1_234
10
7.1537779
20
45.156595
40
0.2924306
50
149.4208916
51
163.6286378
0
ARC
8
DEFAULT_255_1_234
10
7.3628667
20
45.092825
40
0.5110213
50
163.3763315
51
172.1410975
0
ARC
8
DEFAULT_255_1_234
10
7.6929386
20
45.0455518
40
0.8444586
50
172.0259487
51
178.0703232
0
ARC
8
DEFAULT_255_1_234
10
7.9959476
20
45.0311906
40
1.1477868
50
177.8631668
51
179.5044149
0
ARC
8
DEFAULT_255_1_234
10
7.888688
20
44.7997389
40
1.0404907
50
179.7995573
51
185.2460446
0
ARC
8
DEFAULT_255_1_234
10
7.4843919
20
44.7614513
40
0.6343885
50
185.1411642
51
193.0079639
0
ARC
8
DEFAULT_255_1_234
10
7.2200392
20
44.6989641
40
0.3627568
50
192.7897626
51
205.2507664
0
ARC
8
DEFAULT_255_1_234
10
7.1153939
20
44.6522415
40
0.2481908
50
205.8005384
51
211.2537509
0
ARC
8
DEFAULT_255_1_234
10
7.0630379
20
44.617158
40
0.1852521
50
210.3789793
51
238.4008143
0
ARC
8
DEFAULT_255_1_234
10
7.0610901
20
44.6218376
40
0.1882621
50
239.6520629
51
265.9793761
0
ARC
8
DEFAULT_255_1_234
10
7.0696101
20
44.6890427
40
0.2559272
50
265.1315437
51
270.060332
0
ARC
8
DEFAULT_255_1_234
10
7.072488
20
44.6566534
40
0.2235528
50
269.3314664
51
287.2178029
0
ARC
8
DEFAULT_255_1_234
10
7.0862732
20
44.6063279
40
0.1714108
50
287.7958004
51
329.080874
0
ARC
8
DEFAULT_255_1_234
10
6.9905189
20
44.666093
40
0.2842745
50
328.6634704
51
343.3325132
0
ARC
8
DEFAULT_255_1_234
10
6.7732209
20
44.7337863
40
0.5118644
50
343.0499468
51
351.9393422
0
ARC
8
DEFAULT_255_1_234
10
6.4265509
20
44.7848949
40
0.8622784
50
351.8069023
51
357.7959224
0
ARC
8
DEFAULT_255_1_234
10
6.1030065
20
44.8016721
40
1.1862365
50
357.5871873
51
359.2677531
0
LINE
8
DEFAULT_255_1_234
10
4.3049902
20
53.4348211
11
4.3049902
21
52.2654
0
LINE
8
DEFAULT_255_1_234
10
4.3049902
20
52.2654
11
4.1507808
21
52.2654
0
LINE
8
DEFAULT_255_1_234
10
4.1507808
20
52.2654
11
4.1507808
21
53.4348211
0
LINE
8
DEFAULT_255_1_234
10
4.1507808
20
53.4348211
11
4.3049902
21
53.4348211
0
LINE
8
DEFAULT_255_1_234
10
5.4856557
20
53.4348211
11
5.4856557
21
52.2654
0
LINE
8
DEFAULT_255_1_234
10
5.4856557
20
52.2654
11
5.3306432
21
52.2654
0
LINE
8
DEFAULT_255_1_234
10
5.3306432
20
52.2654
11
4.7419167
21
53.166561
0
LINE
8
DEFAULT_255_1_234
10
4.7419167
20
53.166561
11
4.7419167
21
52.2654
0
LINE
8
DEFAULT_255_1_234
10
4.7419167
20
52.2654
11
4.5869042
21
52.2654
0
LINE
8
DEFAULT_255_1_234
10
4.5869042
20
52.2654
11
4.5869042
21
53.4348211
0
LINE
8
DEFAULT_255_1_234
10
4.5869042
20
53.4348211
11
4.7419167
21
53.4348211
0
LINE
8
DEFAULT_255_1_234
10
4.7419167
20
53.4348211
11
5.3322495
21
52.5296442
0
LINE
8
DEFAULT_255_1_234
10
5.3322495
20
52.5296442
11
5.3322495
21
53.4348211
0
LINE
8
DEFAULT_255_1_234
10
5.3322495
20
53.4348211
11
5.4856557
21
53.4348211
0
LINE
8
DEFAULT_255_1_234
10
6.4398262
20
52.9673739
11
6.4398262
21
52.9240025
0
LINE
8
DEFAULT_255_1_234
10
5.8976839
20
52.2645968
11
5.8687696
21
52.2645968
0
LINE
8
DEFAULT_255_1_234
10
5.8687696
20
52.2645968
11
5.8687696
21
52.3898919
0
LINE
8
DEFAULT_255_1_234
10
5.8687696
20
52.3898919
11
5.9000934
21
52.3898919
0
LINE
8
DEFAULT_255_1_234
10
6.2912391
20
52.9384597
11
6.2912391
21
52.9978945
0
ARC
8
DEFAULT_255_1_234
10
6.011866
20
53.0130403
40
0.3635579
50
297.4037347
51
320.016758
0
ARC
8
DEFAULT_255_1_234
10
6.0408609
20
52.957324
40
0.3007486
50
270.2633101
51
297.3851877
0
ARC
8
DEFAULT_255_1_234
10
6.0374565
20
53.0036904
40
0.3471448
50
269.9966443
51
270.7900392
0
ARC
8
DEFAULT_255_1_234
10
6.0349046
20
53.0035143
40
0.3469779
50
254.5999133
51
270.4180344
0
ARC
8
DEFAULT_255_1_234
10
6.0206406
20
52.9470647
40
0.2887697
50
236.4717942
51
254.3541279
0
ARC
8
DEFAULT_255_1_234
10
6.0362623
20
52.9680711
40
0.3149125
50
208.4727207
51
236.2134933
0
ARC
8
DEFAULT_255_1_234
10
6.1001398
20
53.0071455
40
0.3897115
50
204.3447514
51
209.0453999
0
ARC
8
DEFAULT_255_1_234
10
6.1680974
20
53.0359656
40
0.4635101
50
183.9375985
51
204.1276318
0
ARC
8
DEFAULT_255_1_234
10
6.2589225
20
53.0457482
40
0.5548037
50
179.9652252
51
184.3013875
0
ARC
8
DEFAULT_255_1_234
10
6.2349272
20
53.0490507
40
0.5308164
50
166.7585989
51
180.3201225
0
ARC
8
DEFAULT_255_1_234
10
6.1502885
20
53.0674488
40
0.4442163
50
154.6955053
51
166.5679793
0
ARC
8
DEFAULT_255_1_234
10
6.0649755
20
53.110421
40
0.3487299
50
136.3324195
51
155.0871442
0
ARC
8
DEFAULT_255_1_234
10
6.0368828
20
53.1344954
40
0.3117924
50
121.236733
51
135.9680508
0
ARC
8
DEFAULT_255_1_234
10
6.0509326
20
53.1084743
40
0.3413302
50
96.845628
51
120.9881519
0
ARC
8
DEFAULT_255_1_234
10
6.0654908
20
53.0149515
40
0.4359341
50
89.8870174
51
97.2802754
0
ARC
8
DEFAULT_255_1_234
10
6.0707346
20
53.0787095
40
0.3722009
50
70.6505584
51
90.6749113
0
ARC
8
DEFAULT_255_1_234
10
6.0838625
20
53.1300361
40
0.3194571
50
36.7492984
51
69.8219918
0
ARC
8
DEFAULT_255_1_234
10
5.983979
20
53.0521993
40
0.4460685
50
15.39587
51
37.0840084
0
ARC
8
DEFAULT_255_1_234
10
5.7710223
20
52.9901242
40
0.6678714
50
3.9488873
51
15.6798563
0
ARC
8
DEFAULT_255_1_234
10
5.5308851
20
52.9684964
40
0.9089418
50
359.929245
51
4.2665314
0
ARC
8
DEFAULT_255_1_234
10
5.0703288
20
52.9173513
40
1.3695135
50
352.8366322
51
0.2782669
0
ARC
8
DEFAULT_255_1_234
10
5.5990967
20
52.8486629
40
0.8363105
50
341.8359505
51
352.9884176
0
ARC
8
DEFAULT_255_1_234
10
5.9209686
20
52.74017
40
0.4966642
50
322.8578092
51
342.1527901
0
ARC
8
DEFAULT_255_1_234
10
6.0073642
20
52.6812384
40
0.3922466
50
319.334325
51
322.0998941
0
ARC
8
DEFAULT_255_1_234
10
5.9763979
20
52.7123209
40
0.4360033
50
285.9541367
51
318.8878087
0
ARC
8
DEFAULT_255_1_234
10
5.903724
20
52.94336
40
0.678149
50
272.9281676
51
286.4922826
0
ARC
8
DEFAULT_255_1_234
10
5.8847358
20
53.1684587
40
0.9039547
50
270.8207226
51
273.4012994
0
ARC
8
DEFAULT_255_1_234
10
5.8936209
20
52.9865666
40
0.5967098
50
270.6214993
51
281.4062806
0
ARC
8
DEFAULT_255_1_234
10
5.936619
20
52.7809833
40
0.3866861
50
281.1852553
51
299.0621114
0
ARC
8
DEFAULT_255_1_234
10
5.9739761
20
52.7088798
40
0.3055236
50
299.5067782
51
313.1200873
0
ARC
8
DEFAULT_255_1_234
10
5.9761728
20
52.7009554
40
0.2982623
50
313.8526205
51
338.5989322
0
ARC
8
DEFAULT_255_1_234
10
5.8137802
20
52.7676781
40
0.4738131
50
338.2523585
51
351.2430902
0
ARC
8
DEFAULT_255_1_234
10
5.5727098
20
52.8086447
40
0.7183203
50
350.9409515
51
357.6691871
0
ARC
8
DEFAULT_255_1_234
10
6.0617528
20
53.0088764
40
0.2294452
50
269.9447023
51
306.8248917
0
ARC
8
DEFAULT_255_1_234
10
6.0380443
20
53.0511898
40
0.2775994
50
305.5072438
51
327.0773448
0
ARC
8
DEFAULT_255_1_234
10
6.0498884
20
53.0417025
40
0.2625056
50
327.4104943
51
336.840169
0
ARC
8
DEFAULT_255_1_234
10
5.7404949
20
53.0011302
40
0.5507537
50
359.6633817
51
10.117533
0
ARC
8
DEFAULT_255_1_234
10
5.9158747
20
53.0335777
40
0.372403
50
9.9430141
51
26.7700076
0
ARC
8
DEFAULT_255_1_234
10
5.9755959
20
53.0611187
40
0.3066865
50
27.2015464
51
34.6829435
0
ARC
8
DEFAULT_255_1_234
10
6.024544
20
53.0978977
40
0.245519
50
34.1250343
51
50.3070065
0
ARC
8
DEFAULT_255_1_234
10
6.0692119
20
53.1513385
40
0.1758693
50
50.3851167
51
90.6705993
0
ARC
8
DEFAULT_255_1_234
10
6.0645352
20
53.1208799
40
0.2063326
50
89.272901
51
111.9140407
0
ARC
8
DEFAULT_255_1_234
10
6.062588
20
53.134944
40
0.1925887
50
112.9382311
51
142.5320782
0
ARC
8
DEFAULT_255_1_234
10
6.117206
20
53.0905969
40
0.2629232
50
142.1021256
51
166.3835592
0
ARC
8
DEFAULT_255_1_234
10
6.2353365
20
53.0600915
40
0.3849193
50
166.1100289
51
178.665427
0
ARC
8
DEFAULT_255_1_234
10
6.3400955
20
53.0542117
40
0.4897989
50
178.2632126
51
180.0111093
0
ARC
8
DEFAULT_255_1_234
10
6.2599075
20
53.0513728
40
0.40962
50
179.6161962
51
191.8787166
0
ARC
8
DEFAULT_255_1_234
10
6.1378914
20
53.0243896
40
0.2846655
50
191.6191692
51
215.2972286
0
ARC
8
DEFAULT_255_1_234
10
6.1182105
20
53.0128918
40
0.2619665
50
215.7320102
51
216.5355409
0
ARC
8
DEFAULT_255_1_234
10
6.0643191
20
52.9696647
40
0.1929497
50
215.7486685
51
239.9727502
0
ARC
8
DEFAULT_255_1_234
10
6.0573107
20
52.9645894
40
0.1850822
50
241.0650169
51
269.2810483
0
ARC
8
DEFAULT_255_1_234
10
6.0615022
20
53.0136371
40
0.2342059
50
268.4062526
51
270.0071348
0
LINE
8
DEFAULT_255_1_234
10
4.3049902
20
61.3723211
11
4.3049902
21
60.2029
0
LINE
8
DEFAULT_255_1_234
10
4.3049902
20
60.2029
11
4.1507808
21
60.2029
0
LINE
8
DEFAULT_255_1_234
10
4.1507808
20
60.2029
11
4.1507808
21
61.3723211
0
LINE
8
DEFAULT_255_1_234
10
4.1507808
20
61.3723211
11
4.3049902
21
61.3723211
0
LINE
8
DEFAULT_255_1_234
10
5.4856557
20
61.3723211
11
5.4856557
21
60.2029
0
LINE
8
DEFAULT_255_1_234
10
5.4856557
20
60.2029
11
5.3306432
21
60.2029
0
LINE
8
DEFAULT_255_1_234
10
5.3306432
20
60.2029
11
4.7419167
21
61.104061
0
LINE
8
DEFAULT_255_1_234
10
4.7419167
20
61.104061
11
4.7419167
21
60.2029
0
LINE
8
DEFAULT_255_1_234
10
4.7419167
20
60.2029
11
4.5869042
21
60.2029
0
LINE
8
DEFAULT_255_1_234
10
4.5869042
20
60.2029
11
4.5869042
21
61.3723211
0
LINE
8
DEFAULT_255_1_234
10
4.5869042
20
61.3723211
11
4.7419167
21
61.3723211
0
LINE
8
DEFAULT_255_1_234
10
4.7419167
20
61.3723211
11
5.3322495
21
60.4671442
0
LINE
8
DEFAULT_255_1_234
10
5.3322495
20
60.4671442
11
5.3322495
21
61.3723211
0
LINE
8
DEFAULT_255_1_234
10
5.3322495
20
61.3723211
11
5.4856557
21
61.3723211
0
ARC
8
DEFAULT_255_1_234
10
6.147964
20
61.0645703
40
0.2822356
50
338.8763615
51
0.5166041
0
ARC
8
DEFAULT_255_1_234
10
6.1648294
20
61.0600208
40
0.2648703
50
325.8412414
51
338.4795939
0
ARC
8
DEFAULT_255_1_234
10
6.1257662
20
61.0871042
40
0.3124019
50
296.7586019
51
325.753654
0
ARC
8
DEFAULT_255_1_234
10
6.096977
20
61.1355789
40
0.368668
50
296.0902311
51
297.3618122
0
ARC
8
DEFAULT_255_1_234
10
6.1227228
20
60.4801041
40
0.3518806
50
47.9009248
51
67.1946869
0
ARC
8
DEFAULT_255_1_234
10
6.142347
20
60.5047395
40
0.320451
50
35.236241
51
47.551371
0
ARC
8
DEFAULT_255_1_234
10
6.1685088
20
60.5221993
40
0.2890103
50
359.2759738
51
35.4014081
0
ARC
8
DEFAULT_255_1_234
10
6.0940119
20
60.5148826
40
0.3635026
50
343.1294516
51
0.5776525
0
ARC
8
DEFAULT_255_1_234
10
6.1664664
20
60.494933
40
0.2883832
50
310.8497458
51
342.744803
0
ARC
8
DEFAULT_255_1_234
10
6.1246777
20
60.5426294
40
0.3517954
50
281.5473923
51
310.9169905
0
ARC
8
DEFAULT_255_1_234
10
6.0890227
20
60.6979084
40
0.5110832
50
269.6192722
51
281.9789957
0
ARC
8
DEFAULT_255_1_234
10
6.0818016
20
60.6979828
40
0.5111606
50
257.4584469
51
270.4287458
0
ARC
8
DEFAULT_255_1_234
10
6.0437159
20
60.5376344
40
0.3463762
50
228.7553743
51
257.8484423
0
ARC
8
DEFAULT_255_1_234
10
6.0127357
20
60.5003442
40
0.297916
50
184.0104442
51
228.5071787
0
ARC
8
DEFAULT_255_1_234
10
6.1290301
20
60.5180512
40
0.4152734
50
179.9315461
51
185.3254504
0
ARC
8
DEFAULT_255_1_234
10
6.0113947
20
60.5217992
40
0.2976554
50
145.6795913
51
180.6259649
0
ARC
8
DEFAULT_255_1_234
10
6.0277296
20
60.5103929
40
0.3175776
50
115.5537925
51
145.6416199
0
ARC
8
DEFAULT_255_1_234
10
6.0618227
20
60.4493028
40
0.3874232
50
113.2437915
51
116.2054627
0
ARC
8
DEFAULT_255_1_234
10
6.0465439
20
61.089158
40
0.3154751
50
222.9548379
51
244.1372485
0
ARC
8
DEFAULT_255_1_234
10
6.0343514
20
61.0754834
40
0.2972382
50
213.3439227
51
222.6271327
0
ARC
8
DEFAULT_255_1_234
10
6.0151449
20
61.0624308
40
0.274019
50
180.4316517
51
213.2713999
0
ARC
8
DEFAULT_255_1_234
10
6.072645
20
61.067111
40
0.33158
50
179.9992944
51
181.1655061
0
ARC
8
DEFAULT_255_1_234
10
6.1135867
20
61.0705561
40
0.3725376
50
164.6186108
51
180.5292368
0
ARC
8
DEFAULT_255_1_234
10
6.023773
20
61.0947101
40
0.2795349
50
132.2454369
51
164.5092287
0
ARC
8
DEFAULT_255_1_234
10
6.0524834
20
61.0622028
40
0.3229019
50
100.7052766
51
132.1387266
0
ARC
8
DEFAULT_255_1_234
10
6.0829806
20
60.9244086
40
0.4639835
50
89.6732617
51
101.2449487
0
ARC
8
DEFAULT_255_1_234
10
6.0892004
20
60.941899
40
0.4464999
50
76.2876631
51
90.4586123
0
ARC
8
DEFAULT_255_1_234
10
6.1198236
20
61.064122
40
0.3205023
50
47.8240157
51
76.4266918
0
ARC
8
DEFAULT_255_1_234
10
6.1420786
20
61.090159
40
0.2862661
50
6.9168658
51
47.6261438
0
ARC
8
DEFAULT_255_1_234
10
6.0234189
20
61.068237
40
0.4067708
50
359.8419705
51
7.9694496
0
ARC
8
DEFAULT_255_1_234
10
6.0576086
20
60.5241925
40
0.2513121
50
359.4454068
51
16.9256425
0
ARC
8
DEFAULT_255_1_234
10
6.1044897
20
60.5371033
40
0.2027071
50
17.292259
51
45.462717
0
ARC
8
DEFAULT_255_1_234
10
6.0990833
20
60.5324434
40
0.2098212
50
45.3028762
51
83.1921472
0
ARC
8
DEFAULT_255_1_234
10
6.0847517
20
60.4522895
40
0.2911472
50
82.2614531
51
90.143954
0
ARC
8
DEFAULT_255_1_234
10
6.0816637
20
60.475595
40
0.2678513
50
89.4959189
51
104.8579811
0
ARC
8
DEFAULT_255_1_234
10
6.0639896
20
60.542589
40
0.1985654
50
104.8855873
51
135.2448349
0
ARC
8
DEFAULT_255_1_234
10
6.0689669
20
60.5381336
40
0.2052373
50
135.3398955
51
172.104394
0
ARC
8
DEFAULT_255_1_234
10
6.1496727
20
60.5226925
40
0.2873299
50
171.2651929
51
180.1859362
0
ARC
8
DEFAULT_255_1_234
10
6.1327428
20
60.5194733
40
0.2704083
50
179.515471
51
193.6466734
0
ARC
8
DEFAULT_255_1_234
10
6.0511197
20
60.4986777
40
0.1861855
50
193.3540587
51
225.8256931
0
ARC
8
DEFAULT_255_1_234
10
6.0551955
20
60.5057524
40
0.1941102
50
226.418029
51
255.8553723
0
ARC
8
DEFAULT_255_1_234
10
6.0808387
20
60.5993998
40
0.2911917
50
255.4655572
51
268.7985967
0
ARC
8
DEFAULT_255_1_234
10
6.0855579
20
60.6832491
40
0.3751331
50
268.3464808
51
270.0104874
0
ARC
8
DEFAULT_255_1_234
10
6.0878967
20
60.6148138
40
0.3067064
50
269.575914
51
282.0823146
0
ARC
8
DEFAULT_255_1_234
10
6.1103876
20
60.5153803
40
0.2047712
50
281.7522535
51
306.6056425
0
ARC
8
DEFAULT_255_1_234
10
6.1202302
20
60.4992487
40
0.1859604
50
307.1350025
51
314.0277951
0
ARC
8
DEFAULT_255_1_234
10
6.1166386
20
60.5018766
40
0.1903475
50
314.2553419
51
350.169324
0
ARC
8
DEFAULT_255_1_234
10
6.0314855
20
60.5203409
40
0.2774269
50
349.4145679
51
0.2930737
0
ARC
8
DEFAULT_255_1_234
10
6.0835288
20
61.0362353
40
0.2300764
50
89.477591
51
105.729794
0
ARC
8
DEFAULT_255_1_234
10
6.0699202
20
61.0867637
40
0.1777519
50
105.922966
51
135.1662921
0
ARC
8
DEFAULT_255_1_234
10
6.0719704
20
61.0853419
40
0.1802087
50
135.3053131
51
168.9882338
0
ARC
8
DEFAULT_255_1_234
10
6.1547277
20
61.0663721
40
0.2650806
50
168.3802067
51
180.3602358
0
ARC
8
DEFAULT_255_1_234
10
6.1318856
20
61.0626041
40
0.2422425
50
179.5029707
51
194.9126783
0
ARC
8
DEFAULT_255_1_234
10
6.0733517
20
61.047211
40
0.1817188
50
194.9722181
51
224.1943972
0
ARC
8
DEFAULT_255_1_234
10
6.0705384
20
61.0449169
40
0.1781027
50
224.2961434
51
262.0157375
0
ARC
8
DEFAULT_255_1_234
10
6.0847627
20
61.1180661
40
0.2525492
50
261.1250369
51
270.1959853
0
ARC
8
DEFAULT_255_1_234
10
6.0877382
20
61.0993339
40
0.233825
50
269.4825617
51
285.0988277
0
ARC
8
DEFAULT_255_1_234
10
6.1031541
20
61.041499
40
0.1739712
50
285.1585659
51
315.9484648
0
ARC
8
DEFAULT_255_1_234
10
6.0942553
20
61.0496886
40
0.1860616
50
316.0412958
51
351.9162715
0
ARC
8
DEFAULT_255_1_234
10
6.0209508
20
61.0638245
40
0.2606517
50
351.1056823
51
0.1936567
0
ARC
8
DEFAULT_255_1_234
10
6.0472337
20
61.0668369
40
0.234377
50
359.4789506
51
16.0679113
0
ARC
8
DEFAULT_255_1_234
10
6.0948296
20
61.079681
40
0.1850875
50
16.3251951
51
44.791304
0
ARC
8
DEFAULT_255_1_234
10
6.0930577
20
61.0797339
40
0.186312
50
44.3958661
51
88.2498933
0
ARC
8
DEFAULT_255_1_234
10
6.0857131
20
61.0186154
40
0.2476868
50
86.9833827
51
90.0200148
0
LINE
8
DEFAULT_255_1_234
10
4.3049902
20
69.3098211
11
4.3049902
21
68.1404
0
LINE
8
DEFAULT_255_1_234
10
4.3049902
20
68.1404
11
4.1507808
21
68.1404
0
LINE
8
DEFAULT_255_1_234
10
4.1507808
20
68.1404
11
4.1507808
21
69.3098211
0
LINE
8
DEFAULT_255_1_234
10
4.1507808
20
69.3098211
11
4.3049902
21
69.3098211
0
LINE
8
DEFAULT_255_1_234
10
5.4856557
20
69.3098211
11
5.4856557
21
68.1404
0
LINE
8
DEFAULT_255_1_234
10
5.4856557
20
68.1404
11
5.3306432
21
68.1404
0
LINE
8
DEFAULT_255_1_234
10
5.3306432
20
68.1404
11
4.7419167
21
69.041561
0
LINE
8
DEFAULT_255_1_234
10
4.7419167
20
69.041561
11
4.7419167
21
68.1404
0
LINE
8
DEFAULT_255_1_234
10
4.7419167
20
68.1404
11
4.5869042
21
68.1404
0
LINE
8
DEFAULT_255_1_234
10
4.5869042
20
68.1404
11
4.5869042
21
69.3098211
0
LINE
8
DEFAULT_255_1_234
10
4.5869042
20
69.3098211
11
4.7419167
21
69.3098211
0
LINE
8
DEFAULT_255_1_234
10
4.7419167
20
69.3098211
11
5.3322495
21
68.4046442
0
LINE
8
DEFAULT_255_1_234
10
5.3322495
20
68.4046442
11
5.3322495
21
69.3098211
0
LINE
8
DEFAULT_255_1_234
10
5.3322495
20
69.3098211
11
5.4856557
21
69.3098211
0
LINE
8
DEFAULT_255_1_234
10
6.475969
20
69.3098211
11
6.475969
21
69.226291
0
LINE
8
DEFAULT_255_1_234
10
6.475969
20
69.226291
11
5.9916552
21
68.1404
0
LINE
8
DEFAULT_255_1_234
10
5.9916552
20
68.1404
11
5.8358395
21
68.1404
0
LINE
8
DEFAULT_255_1_234
10
5.8358395
20
68.1404
11
6.318547
21
69.1877387
0
LINE
8
DEFAULT_255_1_234
10
6.318547
20
69.1877387
11
5.685646
21
69.1877387
0
LINE
8
DEFAULT_255_1_234
10
5.685646
20
69.1877387
11
5.685646
21
69.3098211
0
LINE
8
DEFAULT_255_1_234
10
5.685646
20
69.3098211
11
6.475969
21
69.3098211
0
LINE
8
DEFAULT_255_1_234
10
4.3049902
20
77.2473211
11
4.3049902
21
76.0779
0
LINE
8
DEFAULT_255_1_234
10
4.3049902
20
76.0779
11
4.1507808
21
76.0779
0
LINE
8
DEFAULT_255_1_234
10
4.1507808
20
76.0779
11
4.1507808
21
77.2473211
0
LINE
8
DEFAULT_255_1_234
10
4.1507808
20
77.2473211
11
4.3049902
21
77.2473211
0
LINE
8
DEFAULT_255_1_234
10
5.4856557
20
77.2473211
11
5.4856557
21
76.0779
0
LINE
8
DEFAULT_255_1_234
10
5.4856557
20
76.0779
11
5.3306432
21
76.0779
0
LINE
8
DEFAULT_255_1_234
10
5.3306432
20
76.0779
11
4.7419167
21
76.979061
0
LINE
8
DEFAULT_255_1_234
10
4.7419167
20
76.979061
11
4.7419167
21
76.0779
0
LINE
8
DEFAULT_255_1_234
10
4.7419167
20
76.0779
11
4.5869042
21
76.0779
0
LINE
8
DEFAULT_255_1_234
10
4.5869042
20
76.0779
11
4.5869042
21
77.2473211
0
LINE
8
DEFAULT_255_1_234
10
4.5869042
20
77.2473211
11
4.7419167
21
77.2473211
0
LINE
8
DEFAULT_255_1_234
10
4.7419167
20
77.2473211
11
5.3322495
21
76.3421442
0
LINE
8
DEFAULT_255_1_234
10
5.3322495
20
76.3421442
11
5.3322495
21
77.2473211
0
LINE
8
DEFAULT_255_1_234
10
5.3322495
20
77.2473211
11
5.4856557
21
77.2473211
0
LINE
8
DEFAULT_255_1_234
10
6.2775851
20
77.2481243
11
6.3040898
21
77.2481243
0
LINE
8
DEFAULT_255_1_234
10
6.3040898
20
77.2481243
11
6.3040898
21
77.122026
0
LINE
8
DEFAULT_255_1_234
10
6.3040898
20
77.122026
11
6.2767819
21
77.122026
0
LINE
8
DEFAULT_255_1_234
10
5.7298206
20
76.5228583
11
5.7298206
21
76.5798836
0
LINE
8
DEFAULT_255_1_234
10
5.8792109
20
76.5606075
11
5.8792109
21
76.5059917
0
ARC
8
DEFAULT_255_1_234
10
6.2820167
20
76.6222455
40
0.4998079
50
90.6001036
51
104.514704
0
ARC
8
DEFAULT_255_1_234
10
6.2431683
20
76.7667131
40
0.3502176
50
104.2855254
51
133.862935
0
ARC
8
DEFAULT_255_1_234
10
6.259544
20
76.755883
40
0.3693984
50
134.5302688
51
161.6210873
0
ARC
8
DEFAULT_255_1_234
10
6.4248629
20
76.6975895
40
0.5446739
50
161.2849839
51
174.2076652
0
ARC
8
DEFAULT_255_1_234
10
6.5655566
20
76.6781787
40
0.6866274
50
173.7810589
51
174.9254635
0
ARC
8
DEFAULT_255_1_234
10
6.1105398
20
76.5398839
40
0.3033419
50
95.8330959
51
138.9954921
0
ARC
8
DEFAULT_255_1_234
10
6.1328754
20
76.4120375
40
0.4328947
50
89.8753725
51
97.0544009
0
ARC
8
DEFAULT_255_1_234
10
6.137622
20
76.4955748
40
0.3493769
50
71.6407809
51
90.6240094
0
ARC
8
DEFAULT_255_1_234
10
6.1526793
20
76.5510082
40
0.2920396
50
39.6367836
51
71.019018
0
ARC
8
DEFAULT_255_1_234
10
6.0890266
20
76.4959998
40
0.3761538
50
10.658731
51
39.9043955
0
ARC
8
DEFAULT_255_1_234
10
5.9342349
20
76.4623686
40
0.5345136
50
359.682601
51
11.132623
0
ARC
8
DEFAULT_255_1_234
10
5.930248
20
76.455301
40
0.5385081
50
347.2486944
51
0.4369317
0
ARC
8
DEFAULT_255_1_234
10
6.0969957
20
76.4151807
40
0.3670249
50
318.1409698
51
347.6118597
0
ARC
8
DEFAULT_255_1_234
10
6.129495
20
76.3884702
40
0.3250007
50
275.6342139
51
317.8248465
0
ARC
8
DEFAULT_255_1_234
10
6.1074062
20
76.5184219
40
0.4565864
50
269.8874292
51
276.7917694
0
ARC
8
DEFAULT_255_1_234
10
6.1019132
20
76.4158743
40
0.3540676
50
246.9140195
51
270.7437342
0
ARC
8
DEFAULT_255_1_234
10
6.1025522
20
76.4016384
40
0.3412781
50
218.1665114
51
245.878116
0
ARC
8
DEFAULT_255_1_234
10
6.1904983
20
76.4752279
40
0.455911
50
191.4115814
51
218.6077802
0
ARC
8
DEFAULT_255_1_234
10
6.3843072
20
76.5186833
40
0.6545001
50
179.6345085
51
191.7836486
0
ARC
8
DEFAULT_255_1_234
10
6.9425409
20
76.5865697
40
1.2127388
50
171.4525249
51
180.3158839
0
ARC
8
DEFAULT_255_1_234
10
6.5030285
20
76.6549608
40
0.7679464
50
157.9802646
51
171.6246686
0
ARC
8
DEFAULT_255_1_234
10
6.2816306
20
76.7432421
40
0.5296008
50
141.4298019
51
157.854097
0
ARC
8
DEFAULT_255_1_234
10
6.2174627
20
76.7886381
40
0.4511509
50
102.8715806
51
140.8564722
0
ARC
8
DEFAULT_255_1_234
10
6.2822242
20
76.5446552
40
0.7034845
50
90.3778349
51
103.5869322
0
ARC
8
DEFAULT_255_1_234
10
6.1084018
20
76.484173
40
0.2370698
50
89.8751008
51
126.2071704
0
ARC
8
DEFAULT_255_1_234
10
6.1129808
20
76.4687303
40
0.2522934
50
124.9745049
51
144.895901
0
ARC
8
DEFAULT_255_1_234
10
6.0953999
20
76.483056
40
0.2296779
50
145.2974905
51
160.2660252
0
ARC
8
DEFAULT_255_1_234
10
6.4026537
20
76.5028071
40
0.5234525
50
179.6514266
51
190.2855912
0
ARC
8
DEFAULT_255_1_234
10
6.2332675
20
76.4708786
40
0.3510893
50
190.0945431
51
207.5098196
0
ARC
8
DEFAULT_255_1_234
10
6.1766944
20
76.4439623
40
0.288489
50
207.9583163
51
216.3251085
0
ARC
8
DEFAULT_255_1_234
10
6.1427052
20
76.4160105
40
0.2445587
50
215.7661442
51
232.5456785
0
ARC
8
DEFAULT_255_1_234
10
6.1044035
20
76.3673482
40
0.1826382
50
232.8005391
51
270.6605633
0
ARC
8
DEFAULT_255_1_234
10
6.1089736
20
76.4037612
40
0.2190529
50
269.35537
51
288.4744281
0
ARC
8
DEFAULT_255_1_234
10
6.1182633
20
76.3688118
40
0.1829749
50
289.1833337
51
322.9683818
0
ARC
8
DEFAULT_255_1_234
10
6.0571155
20
76.4170391
40
0.2608399
50
322.6007884
51
346.5182367
0
ARC
8
DEFAULT_255_1_234
10
5.9413751
20
76.4465616
40
0.3802777
50
346.2582162
51
358.7741648
0
ARC
8
DEFAULT_255_1_234
10
5.839542
20
76.4520965
40
0.4822176
50
358.3755224
51
0.0098023
0
ARC
8
DEFAULT_255_1_234
10
5.9151607
20
76.4548657
40
0.4066078
50
359.6214041
51
11.2839074
0
ARC
8
DEFAULT_255_1_234
10
6.0428754
20
76.4815066
40
0.2761514
50
11.0482309
51
31.8146458
0
ARC
8
DEFAULT_255_1_234
10
6.0737797
20
76.4982584
40
0.2410679
50
32.3035391
51
38.082671
0
ARC
8
DEFAULT_255_1_234
10
6.1158457
20
76.5363662
40
0.1844966
50
36.825067
51
85.7415724
0
ARC
8
DEFAULT_255_1_234
10
6.109129
20
76.4863301
40
0.2349122
50
85.0140713
51
90.0513278
0
LINE
8
DEFAULT_255_1_234
10
4.3049902
20
85.1848211
11
4.3049902
21
84.0154
0
LINE
8
DEFAULT_255_1_234
10
4.3049902
20
84.0154
11
4.1507808
21
84.0154
0
LINE
8
DEFAULT_255_1_234
10
4.1507808
20
84.0154
11
4.1507808
21
85.1848211
0
LINE
8
DEFAULT_255_1_234
10
4.1507808
20
85.1848211
11
4.3049902
21
85.1848211
0
LINE
8
DEFAULT_255_1_234
10
5.4856557
20
85.1848211
11
5.4856557
21
84.0154
0
LINE
8
DEFAULT_255_1_234
10
5.4856557
20
84.0154
11
5.3306432
21
84.0154
0
LINE
8
DEFAULT_255_1_234
10
5.3306432
20
84.0154
11
4.7419167
21
84.916561
0
LINE
8
DEFAULT_255_1_234
10
4.7419167
20
84.916561
11
4.7419167
21
84.0154
0
LINE
8
DEFAULT_255_1_234
10
4.7419167
20
84.0154
11
4.5869042
21
84.0154
0
LINE
8
DEFAULT_255_1_234
10
4.5869042
20
84.0154
11
4.5869042
21
85.1848211
0
LINE
8
DEFAULT_255_1_234
10
4.5869042
20
85.1848211
11
4.7419167
21
85.1848211
0
LINE
8
DEFAULT_255_1_234
10
4.7419167
20
85.1848211
11
5.3322495
21
84.2796442
0
LINE
8
DEFAULT_255_1_234
10
5.3322495
20
84.2796442
11
5.3322495
21
85.1848211
0
LINE
8
DEFAULT_255_1_234
10
5.3322495
20
85.1848211
11
5.4856557
21
85.1848211
0
LINE
8
DEFAULT_255_1_234
10
5.9081251
20
84.5711963
11
5.7892554
21
84.6017169
0
LINE
8
DEFAULT_255_1_234
10
5.7892554
20
84.6017169
11
5.8486903
21
85.1848211
0
LINE
8
DEFAULT_255_1_234
10
5.8486903
20
85.1848211
11
6.447858
21
85.1848211
0
LINE
8
DEFAULT_255_1_234
10
6.447858
20
85.1848211
11
6.447858
21
85.0474784
0
LINE
8
DEFAULT_255_1_234
10
6.447858
20
85.0474784
11
5.9747886
21
85.0474784
0
LINE
8
DEFAULT_255_1_234
10
5.9747886
20
85.0474784
11
5.9394489
21
84.7286184
0
LINE
8
DEFAULT_255_1_234
10
5.7474904
20
84.3230156
11
5.8880458
21
84.3230156
0
LINE
8
DEFAULT_255_1_234
10
5.9474807
20
84.6033232
11
5.9081251
21
84.5711963
0
ARC
8
DEFAULT_255_1_234
10
6.1249273
20
84.410623
40
0.3681349
50
93.7182161
51
120.2538958
0
ARC
8
DEFAULT_255_1_234
10
6.1343536
20
84.3298394
40
0.449379
50
89.9660152
51
94.2496022
0
ARC
8
DEFAULT_255_1_234
10
6.138427
20
84.3887549
40
0.390482
50
73.8043271
51
90.5585896
0
ARC
8
DEFAULT_255_1_234
10
6.1619167
20
84.4745602
40
0.3015334
50
41.3071453
51
73.5430202
0
ARC
8
DEFAULT_255_1_234
10
6.1202994
20
84.4387324
40
0.3564457
50
13.5075983
51
41.2174222
0
ARC
8
DEFAULT_255_1_234
10
5.9561198
20
84.3957486
40
0.5261351
50
1.1331335
51
13.8829381
0
ARC
8
DEFAULT_255_1_234
10
5.8149567
20
84.3881665
40
0.6674378
50
359.9919444
51
1.544251
0
ARC
8
DEFAULT_255_1_234
10
5.9426393
20
84.384028
40
0.5397702
50
347.8572367
51
0.4293338
0
ARC
8
DEFAULT_255_1_234
10
6.1176711
20
84.3443736
40
0.3603188
50
323.673004
51
348.1672506
0
ARC
8
DEFAULT_255_1_234
10
6.1471219
20
84.3264168
40
0.3259678
50
316.8171152
51
323.1492751
0
ARC
8
DEFAULT_255_1_234
10
6.1532408
20
84.322746
40
0.3189975
50
281.8396411
51
316.5457803
0
ARC
8
DEFAULT_255_1_234
10
6.1156672
20
84.4782762
40
0.4789527
50
269.5770101
51
282.4214771
0
ARC
8
DEFAULT_255_1_234
10
6.1085483
20
84.4569125
40
0.45759
50
256.2427136
51
270.4486331
0
ARC
8
DEFAULT_255_1_234
10
6.0786386
20
84.3369229
40
0.3339303
50
228.9023911
51
256.3314342
0
ARC
8
DEFAULT_255_1_234
10
6.0712618
20
84.3252746
40
0.32031
50
193.753695
51
228.5271154
0
ARC
8
DEFAULT_255_1_234
10
6.1950572
20
84.36158
40
0.4492253
50
184.924711
51
194.497588
0
ARC
8
DEFAULT_255_1_234
10
6.2143139
20
84.3651591
40
0.3289787
50
187.3600538
51
198.6732863
0
ARC
8
DEFAULT_255_1_234
10
6.1093433
20
84.3287674
40
0.217884
50
198.4451669
51
217.794479
0
ARC
8
DEFAULT_255_1_234
10
6.0797608
20
84.3078085
40
0.1816698
50
218.2887171
51
228.5612368
0
ARC
8
DEFAULT_255_1_234
10
6.0895395
20
84.3209963
40
0.1980329
50
228.9654866
51
258.1234728
0
ARC
8
DEFAULT_255_1_234
10
6.1101105
20
84.4090833
40
0.2884748
50
257.7258293
51
270.401361
0
ARC
8
DEFAULT_255_1_234
10
6.1145992
20
84.3645821
40
0.2439788
50
269.4204404
51
286.4209037
0
ARC
8
DEFAULT_255_1_234
10
6.1294479
20
84.3106657
40
0.1880666
50
286.7251356
51
320.600362
0
ARC
8
DEFAULT_255_1_234
10
6.0911304
20
84.3417595
40
0.2374121
50
320.6712579
51
344.5441685
0
ARC
8
DEFAULT_255_1_234
10
5.975463
20
84.3757045
40
0.3579479
50
344.2412205
51
356.7357071
0
ARC
8
DEFAULT_255_1_234
10
5.8505779
20
84.3860444
40
0.4832297
50
356.3548756
51
0.0500261
0
ARC
8
DEFAULT_255_1_234
10
5.9842288
20
84.389165
40
0.3495889
50
359.5576869
51
12.953486
0
ARC
8
DEFAULT_255_1_234
10
6.0897185
20
84.4147434
40
0.2410532
50
12.6490276
51
41.6081334
0
ARC
8
DEFAULT_255_1_234
10
6.1127556
20
84.4343321
40
0.2108218
50
41.7850273
51
85.9892764
0
ARC
8
DEFAULT_255_1_234
10
6.1004293
20
84.3530462
40
0.2928454
50
84.6957577
51
90.0676183
0
ARC
8
DEFAULT_255_1_234
10
6.0980777
20
84.2861716
40
0.3597255
50
89.6804936
51
99.1614436
0
ARC
8
DEFAULT_255_1_234
10
6.0775408
20
84.4089131
40
0.235281
50
98.9830931
51
113.8908934
0
ARC
8
DEFAULT_255_1_234
10
6.0545818
20
84.4630587
40
0.176479
50
114.1950727
51
127.3641004
0
LINE
8
DEFAULT_255_1_234
10
4.4107902
20
93.1223211
11
4.4107902
21
91.9529
0
LINE
8
DEFAULT_255_1_234
10
4.4107902
20
91.9529
11
4.2565808
21
91.9529
0
LINE
8
DEFAULT_255_1_234
10
4.2565808
20
91.9529
11
4.2565808
21
93.1223211
0
LINE
8
DEFAULT_255_1_234
10
4.2565808
20
93.1223211
11
4.4107902
21
93.1223211
0
LINE
8
DEFAULT_255_1_234
10
5.5914557
20
93.1223211
11
5.5914557
21
91.9529
0
LINE
8
DEFAULT_255_1_234
10
5.5914557
20
91.9529
11
5.4364432
21
91.9529
0
LINE
8
DEFAULT_255_1_234
10
5.4364432
20
91.9529
11
4.8477167
21
92.854061
0
LINE
8
DEFAULT_255_1_234
10
4.8477167
20
92.854061
11
4.8477167
21
91.9529
0
LINE
8
DEFAULT_255_1_234
10
4.8477167
20
91.9529
11
4.6927042
21
91.9529
0
LINE
8
DEFAULT_255_1_234
10
4.6927042
20
91.9529
11
4.6927042
21
93.1223211
0
LINE
8
DEFAULT_255_1_234
10
4.6927042
20
93.1223211
11
4.8477167
21
93.1223211
0
LINE
8
DEFAULT_255_1_234
10
4.8477167
20
93.1223211
11
5.4380495
21
92.2171442
0
LINE
8
DEFAULT_255_1_234
10
5.4380495
20
92.2171442
11
5.4380495
21
93.1223211
0
LINE
8
DEFAULT_255_1_234
10
5.4380495
20
93.1223211
11
5.5914557
21
93.1223211
0
LINE
8
DEFAULT_255_1_234
10
6.4540644
20
93.1223211
11
6.4540644
21
92.345652
0
LINE
8
DEFAULT_255_1_234
10
6.4540644
20
92.345652
11
6.6163055
21
92.345652
0
LINE
8
DEFAULT_255_1_234
10
6.6163055
20
92.345652
11
6.6163055
21
92.2243728
0
LINE
8
DEFAULT_255_1_234
10
6.6163055
20
92.2243728
11
6.4540644
21
92.2243728
0
LINE
8
DEFAULT_255_1_234
10
6.4540644
20
92.2243728
11
6.4540644
21
91.9529
0
LINE
8
DEFAULT_255_1_234
10
6.4540644
20
91.9529
11
6.3046741
21
91.9529
0
LINE
8
DEFAULT_255_1_234
10
6.3046741
20
91.9529
11
6.3046741
21
92.2243728
0
LINE
8
DEFAULT_255_1_234
10
6.3046741
20
92.2243728
11
5.7721698
21
92.2243728
0
LINE
8
DEFAULT_255_1_234
10
5.7721698
20
92.2243728
11
5.7721698
21
92.3119187
0
LINE
8
DEFAULT_255_1_234
10
5.7721698
20
92.3119187
11
6.2958392
21
93.1223211
0
LINE
8
DEFAULT_255_1_234
10
6.2958392
20
93.1223211
11
6.4540644
21
93.1223211
0
LINE
8
DEFAULT_255_1_234
10
6.2870042
20
92.8869912
11
5.9408363
21
92.345652
0
LINE
8
DEFAULT_255_1_234
10
5.9408363
20
92.345652
11
6.3046741
21
92.345652
0
LINE
8
DEFAULT_255_1_234
10
6.3046741
20
92.345652
11
6.3046741
21
92.9191181
0
LINE
8
DEFAULT_255_1_234
10
6.3046741
20
92.9191181
11
6.2870042
21
92.8869912
0
LINE
8
DEFAULT_255_1_234
10
4.3049902
20
101.0598211
11
4.3049902
21
99.8904
0
LINE
8
DEFAULT_255_1_234
10
4.3049902
20
99.8904
11
4.1507808
21
99.8904
0
LINE
8
DEFAULT_255_1_234
10
4.1507808
20
99.8904
11
4.1507808
21
101.0598211
0
LINE
8
DEFAULT_255_1_234
10
4.1507808
20
101.0598211
11
4.3049902
21
101.0598211
0
LINE
8
DEFAULT_255_1_234
10
5.4856557
20
101.0598211
11
5.4856557
21
99.8904
0
LINE
8
DEFAULT_255_1_234
10
5.4856557
20
99.8904
11
5.3306432
21
99.8904
0
LINE
8
DEFAULT_255_1_234
10
5.3306432
20
99.8904
11
4.7419167
21
100.791561
0
LINE
8
DEFAULT_255_1_234
10
4.7419167
20
100.791561
11
4.7419167
21
99.8904
0
LINE
8
DEFAULT_255_1_234
10
4.7419167
20
99.8904
11
4.5869042
21
99.8904
0
LINE
8
DEFAULT_255_1_234
10
4.5869042
20
99.8904
11
4.5869042
21
101.0598211
0
LINE
8
DEFAULT_255_1_234
10
4.5869042
20
101.0598211
11
4.7419167
21
101.0598211
0
LINE
8
DEFAULT_255_1_234
10
4.7419167
20
101.0598211
11
5.3322495
21
100.1546442
0
LINE
8
DEFAULT_255_1_234
10
5.3322495
20
100.1546442
11
5.3322495
21
101.0598211
0
LINE
8
DEFAULT_255_1_234
10
5.3322495
20
101.0598211
11
5.4856557
21
101.0598211
0
LINE
8
DEFAULT_255_1_234
10
5.9370394
20
100.4261169
11
5.9370394
21
100.5473962
0
LINE
8
DEFAULT_255_1_234
10
5.9370394
20
100.5473962
11
6.0486806
21
100.5473962
0
LINE
8
DEFAULT_255_1_234
10
5.8583284
20
100.7530087
11
5.7097412
21
100.7530087
0
LINE
8
DEFAULT_255_1_234
10
5.6993
20
100.1988188
11
5.8486903
21
100.1988188
0
LINE
8
DEFAULT_255_1_234
10
6.0486806
20
100.4261169
11
5.9370394
21
100.4261169
0
ARC
8
DEFAULT_255_1_234
10
6.0457672
20
100.8866713
40
0.3392876
50
270.4919872
51
281.8951556
0
ARC
8
DEFAULT_255_1_234
10
6.0698934
20
100.7764702
40
0.2264817
50
281.6691735
51
301.2943132
0
ARC
8
DEFAULT_255_1_234
10
6.0869144
20
100.7453304
40
0.1910381
50
301.7833094
51
311.7545298
0
ARC
8
DEFAULT_255_1_234
10
6.096072
20
100.7351748
40
0.1773635
50
311.7323931
51
354.2802411
0
ARC
8
DEFAULT_255_1_234
10
6.0234345
20
100.7476722
40
0.2509385
50
353.0937916
51
0.1181479
0
ARC
8
DEFAULT_255_1_234
10
5.977313
20
100.7524386
40
0.2970898
50
359.1805295
51
15.0453146
0
ARC
8
DEFAULT_255_1_234
10
6.1118967
20
100.7916992
40
0.1569564
50
13.9577229
51
77.6713066
0
ARC
8
DEFAULT_255_1_234
10
6.0732496
20
100.6531949
40
0.3006298
50
76.1116566
51
90.7026153
0
ARC
8
DEFAULT_255_1_234
10
6.0673334
20
100.6805545
40
0.2732568
50
89.5324876
51
103.531937
0
ARC
8
DEFAULT_255_1_234
10
6.0472779
20
100.7604884
40
0.1908508
50
103.2931773
51
133.5619022
0
ARC
8
DEFAULT_255_1_234
10
6.0428267
20
100.7664375
40
0.1834746
50
133.8349307
51
173.5344437
0
ARC
8
DEFAULT_255_1_234
10
6.115131
20
100.7536213
40
0.2568033
50
172.5096846
51
180.1366907
0
ARC
8
DEFAULT_255_1_234
10
6.0200204
20
100.7570622
40
0.3103056
50
155.3484492
51
180.7484736
0
ARC
8
DEFAULT_255_1_234
10
6.0151293
20
100.7541846
40
0.3070957
50
131.5744599
51
154.4798489
0
ARC
8
DEFAULT_255_1_234
10
6.046444
20
100.722531
40
0.3515643
50
96.9875458
51
131.9690667
0
ARC
8
DEFAULT_255_1_234
10
6.068392
20
100.5979636
40
0.4779224
50
89.8596053
51
97.7825159
0
ARC
8
DEFAULT_255_1_234
10
6.0731983
20
100.5717616
40
0.5041361
50
78.3655447
51
90.4131539
0
ARC
8
DEFAULT_255_1_234
10
6.1089901
20
100.7376887
40
0.3344039
50
56.6229102
51
78.638727
0
ARC
8
DEFAULT_255_1_234
10
6.1304845
20
100.7752805
40
0.2912001
50
47.0253525
51
56.0854072
0
ARC
8
DEFAULT_255_1_234
10
6.1324625
20
100.7792223
40
0.2869704
50
10.9208013
51
46.7778124
0
ARC
8
DEFAULT_255_1_234
10
5.9960691
20
100.7476857
40
0.426899
50
359.6364486
51
11.6087304
0
ARC
8
DEFAULT_255_1_234
10
6.1795536
20
100.7461752
40
0.243409
50
332.3549906
51
359.7179418
0
ARC
8
DEFAULT_255_1_234
10
6.1145137
20
100.7770142
40
0.3153459
50
325.2333722
51
332.8745602
0
ARC
8
DEFAULT_255_1_234
10
6.1297761
20
100.7663828
40
0.2967456
50
292.9802137
51
325.2392345
0
ARC
8
DEFAULT_255_1_234
10
6.1023135
20
100.8197863
40
0.3566604
50
292.5402179
51
293.6924929
0
ARC
8
DEFAULT_255_1_234
10
6.141573
20
100.1743091
40
0.3307468
50
57.6435486
51
72.8625112
0
ARC
8
DEFAULT_255_1_234
10
6.177023
20
100.2317549
40
0.2632492
50
36.7248896
51
57.4697979
0
ARC
8
DEFAULT_255_1_234
10
6.1758863
20
100.233022
40
0.2634081
50
8.0545065
51
36.356114
0
ARC
8
DEFAULT_255_1_234
10
6.0896048
20
100.2175174
40
0.3510261
50
359.8320645
51
8.5869982
0
ARC
8
DEFAULT_255_1_234
10
6.0520824
20
100.2127101
40
0.3885653
50
343.9829931
51
0.5571613
0
ARC
8
DEFAULT_255_1_234
10
6.1407022
20
100.1884438
40
0.2966924
50
311.6359546
51
343.7651759
0
ARC
8
DEFAULT_255_1_234
10
6.1028591
20
100.2311102
40
0.3537231
50
279.7829875
51
311.6255694
0
ARC
8
DEFAULT_255_1_234
10
6.0727367
20
100.374828
40
0.5004971
50
269.7286406
51
280.3856417
0
ARC
8
DEFAULT_255_1_234
10
6.0665439
20
100.3706996
40
0.4963778
50
256.6828919
51
270.4412052
0
ARC
8
DEFAULT_255_1_234
10
6.0326735
20
100.2322394
40
0.3538406
50
229.4223008
51
256.8556159
0
ARC
8
DEFAULT_255_1_234
10
5.9912128
20
100.1855736
40
0.2914296
50
181.818294
51
229.6455059
0
ARC
8
DEFAULT_255_1_234
10
6.0952084
20
100.1986496
40
0.3959084
50
179.9755256
51
183.2323064
0
ARC
8
DEFAULT_255_1_234
10
6.077983
20
100.1966037
40
0.2293034
50
179.4465117
51
196.2869258
0
ARC
8
DEFAULT_255_1_234
10
6.0292238
20
100.1832651
40
0.1787621
50
196.5661473
51
227.705904
0
ARC
8
DEFAULT_255_1_234
10
6.0456333
20
100.2016155
40
0.2033784
50
227.7652068
51
257.8762805
0
ARC
8
DEFAULT_255_1_234
10
6.0681303
20
100.2959156
40
0.3003081
50
257.4584385
51
270.426602
0
ARC
8
DEFAULT_255_1_234
10
6.0726869
20
100.3248996
40
0.329292
50
269.5962073
51
280.8789248
0
ARC
8
DEFAULT_255_1_234
10
6.0956398
20
100.2102685
40
0.2123908
50
280.6346389
51
299.8595945
0
ARC
8
DEFAULT_255_1_234
10
6.1147305
20
100.1740212
40
0.171457
50
300.3576302
51
314.5517981
0
ARC
8
DEFAULT_255_1_234
10
6.1064365
20
100.1800919
40
0.1816095
50
315.0728369
51
345.0431014
0
ARC
8
DEFAULT_255_1_234
10
6.0141179
20
100.2069841
40
0.2777492
50
344.5986631
51
357.9269593
0
ARC
8
DEFAULT_255_1_234
10
5.9245506
20
100.2131276
40
0.3674917
50
357.4748886
51
0.0231117
0
ARC
8
DEFAULT_255_1_234
10
6.0268615
20
100.2155679
40
0.2651907
50
359.5047933
51
13.4239635
0
ARC
8
DEFAULT_255_1_234
10
6.1135259
20
100.2377478
40
0.1757509
50
12.9498199
51
48.7551375
0
ARC
8
DEFAULT_255_1_234
10
6.0952993
20
100.21284
40
0.2065134
50
49.5088623
51
72.1836453
0
ARC
8
DEFAULT_255_1_234
10
6.0595145
20
100.1066291
40
0.3185836
50
71.9010081
51
84.3554254
0
ARC
8
DEFAULT_255_1_234
10
6.0433777
20
99.9705326
40
0.4556151
50
84.0193428
51
89.333121
0
LINE
8
DEFAULT_255_1_234
10
4.3049902
20
108.9973211
11
4.3049902
21
107.8279
0
LINE
8
DEFAULT_255_1_234
10
4.3049902
20
107.8279
11
4.1507808
21
107.8279
0
LINE
8
DEFAULT_255_1_234
10
4.1507808
20
107.8279
11
4.1507808
21
108.9973211
0
LINE
8
DEFAULT_255_1_234
10
4.1507808
20
108.9973211
11
4.3049902
21
108.9973211
0
LINE
8
DEFAULT_255_1_234
10
5.4856557
20
108.9973211
11
5.4856557
21
107.8279
0
LINE
8
DEFAULT_255_1_234
10
5.4856557
20
107.8279
11
5.3306432
21
107.8279
0
LINE
8
DEFAULT_255_1_234
10
5.3306432
20
107.8279
11
4.7419167
21
108.729061
0
LINE
8
DEFAULT_255_1_234
10
4.7419167
20
108.729061
11
4.7419167
21
107.8279
0
LINE
8
DEFAULT_255_1_234
10
4.7419167
20
107.8279
11
4.5869042
21
107.8279
0
LINE
8
DEFAULT_255_1_234
10
4.5869042
20
107.8279
11
4.5869042
21
108.9973211
0
LINE
8
DEFAULT_255_1_234
10
4.5869042
20
108.9973211
11
4.7419167
21
108.9973211
0
LINE
8
DEFAULT_255_1_234
10
4.7419167
20
108.9973211
11
5.3322495
21
108.0921442
0
LINE
8
DEFAULT_255_1_234
10
5.3322495
20
108.0921442
11
5.3322495
21
108.9973211
0
LINE
8
DEFAULT_255_1_234
10
5.3322495
20
108.9973211
11
5.4856557
21
108.9973211
0
LINE
8
DEFAULT_255_1_234
10
6.4872135
20
107.9491792
11
6.4872135
21
107.8279
0
LINE
8
DEFAULT_255_1_234
10
6.4872135
20
107.8279
11
5.7209856
21
107.8279
0
LINE
8
DEFAULT_255_1_234
10
5.7209856
20
107.8279
11
5.7209856
21
107.9347221
0
LINE
8
DEFAULT_255_1_234
10
5.7209856
20
107.9347221
11
6.1257853
21
108.3844995
0
LINE
8
DEFAULT_255_1_234
10
5.8470839
20
108.6527595
11
5.6984968
21
108.6527595
0
LINE
8
DEFAULT_255_1_234
10
6.2133312
20
108.2889218
11
5.9000934
21
107.9491792
0
LINE
8
DEFAULT_255_1_234
10
5.9000934
20
107.9491792
11
6.4872135
21
107.9491792
0
ARC
8
DEFAULT_255_1_234
10
4.7767686
20
109.5774527
40
1.8008286
50
318.5132453
51
320.7828378
0
ARC
8
DEFAULT_255_1_234
10
5.305466
20
109.1471426
40
1.1191493
50
320.7372736
51
323.9737074
0
ARC
8
DEFAULT_255_1_234
10
5.6974517
20
108.8631361
40
0.6350923
50
323.8961724
51
328.6421089
0
ARC
8
DEFAULT_255_1_234
10
5.9021112
20
108.7369031
40
0.3946393
50
328.8299013
51
331.789948
0
ARC
8
DEFAULT_255_1_234
10
6.0018291
20
108.6854509
40
0.2824501
50
331.4255242
51
352.9364833
0
ARC
8
DEFAULT_255_1_234
10
6.0154791
20
108.6823976
40
0.2685315
50
353.2248685
51
0.0169286
0
ARC
8
DEFAULT_255_1_234
10
6.0364668
20
108.684695
40
0.2475536
50
359.4866256
51
15.9339782
0
ARC
8
DEFAULT_255_1_234
10
6.0871653
20
108.6983286
40
0.1950618
50
16.1714718
51
43.5284424
0
ARC
8
DEFAULT_255_1_234
10
6.0948962
20
108.7060573
40
0.184134
50
43.4415429
51
83.1661404
0
ARC
8
DEFAULT_255_1_234
10
6.081488
20
108.6323771
40
0.258926
50
82.160215
51
90.1505798
0
ARC
8
DEFAULT_255_1_234
10
6.0783308
20
108.5786865
40
0.3126255
50
89.5460705
51
102.5418777
0
ARC
8
DEFAULT_255_1_234
10
6.0540394
20
108.6817665
40
0.2067346
50
102.1739365
51
129.2061916
0
ARC
8
DEFAULT_255_1_234
10
6.0461465
20
108.6942094
40
0.1921118
50
129.7279328
51
135.7542026
0
ARC
8
DEFAULT_255_1_234
10
6.0582993
20
108.6845045
40
0.2075944
50
136.175737
51
166.3674722
0
ARC
8
DEFAULT_255_1_234
10
6.1589912
20
108.6575182
40
0.3118201
50
165.9092917
51
178.8683903
0
ARC
8
DEFAULT_255_1_234
10
6.2454774
20
108.6528179
40
0.3983935
50
178.438168
51
180.0083905
0
ARC
8
DEFAULT_255_1_234
10
6.1053376
20
108.6567231
40
0.4068601
50
163.2878735
51
180.5581814
0
ARC
8
DEFAULT_255_1_234
10
6.0251637
20
108.678784
40
0.3237344
50
133.454115
51
162.9470031
0
ARC
8
DEFAULT_255_1_234
10
6.0430178
20
108.6598
40
0.349795
50
100.7869394
51
133.4384016
0
ARC
8
DEFAULT_255_1_234
10
6.077795
20
108.5049319
40
0.5084616
50
89.6605301
51
101.3704185
0
ARC
8
DEFAULT_255_1_234
10
6.0844289
20
108.5110496
40
0.502348
50
78.2171172
51
90.4130393
0
ARC
8
DEFAULT_255_1_234
10
6.1199367
20
108.6734637
40
0.3361092
50
55.9268222
51
78.4888551
0
ARC
8
DEFAULT_255_1_234
10
6.1395807
20
108.7073324
40
0.2970617
50
47.9292255
51
55.4054003
0
ARC
8
DEFAULT_255_1_234
10
6.1497368
20
108.7176502
40
0.2825983
50
4.3347696
51
48.0560701
0
ARC
8
DEFAULT_255_1_234
10
6.0401761
20
108.7006601
40
0.393225
50
359.925209
51
5.5967654
0
ARC
8
DEFAULT_255_1_234
10
6.0830653
20
108.7062816
40
0.3503892
50
337.8914096
51
358.9967724
0
ARC
8
DEFAULT_255_1_234
10
5.8117065
20
108.8109706
40
0.6412172
50
326.9135351
51
338.3505194
0
ARC
8
DEFAULT_255_1_234
10
5.4131369
20
109.0664284
40
1.1146189
50
319.6472867
51
327.095818
0
ARC
8
DEFAULT_255_1_234
10
5.0298372
20
109.3826
40
1.6114559
50
317.2586784
51
319.9046139
0
LINE
8
DEFAULT_255_1_234
10
4.2958902
20
116.9348211
11
4.2958902
21
115.7654
0
LINE
8
DEFAULT_255_1_234
10
4.2958902
20
115.7654
11
4.1416808
21
115.7654
0
LINE
8
DEFAULT_255_1_234
10
4.1416808
20
115.7654
11
4.1416808
21
116.9348211
0
LINE
8
DEFAULT_255_1_234
10
4.1416808
20
116.9348211
11
4.2958902
21
116.9348211
0
LINE
8
DEFAULT_255_1_234
10
5.4765557
20
116.9348211
11
5.4765557
21
115.7654
0
LINE
8
DEFAULT_255_1_234
10
5.4765557
20
115.7654
11
5.3215432
21
115.7654
0
LINE
8
DEFAULT_255_1_234
10
5.3215432
20
115.7654
11
4.7328167
21
116.666561
0
LINE
8
DEFAULT_255_1_234
10
4.7328167
20
116.666561
11
4.7328167
21
115.7654
0
LINE
8
DEFAULT_255_1_234
10
4.7328167
20
115.7654
11
4.5778042
21
115.7654
0
LINE
8
DEFAULT_255_1_234
10
4.5778042
20
115.7654
11
4.5778042
21
116.9348211
0
LINE
8
DEFAULT_255_1_234
10
4.5778042
20
116.9348211
11
4.7328167
21
116.9348211
0
LINE
8
DEFAULT_255_1_234
10
4.7328167
20
116.9348211
11
5.3231495
21
116.0296442
0
LINE
8
DEFAULT_255_1_234
10
5.3231495
20
116.0296442
11
5.3231495
21
116.9348211
0
LINE
8
DEFAULT_255_1_234
10
5.3231495
20
116.9348211
11
5.4765557
21
116.9348211
0
LINE
8
DEFAULT_255_1_234
10
6.2002153
20
116.9404433
11
6.2002153
21
115.7654
0
LINE
8
DEFAULT_255_1_234
10
6.2002153
20
115.7654
11
6.050825
21
115.7654
0
LINE
8
DEFAULT_255_1_234
10
6.050825
20
115.7654
11
6.050825
21
116.7557133
0
LINE
8
DEFAULT_255_1_234
10
6.050825
20
116.7557133
11
5.7512412
21
116.6456785
0
LINE
8
DEFAULT_255_1_234
10
5.7512412
20
116.6456785
11
5.7512412
21
116.7806117
0
LINE
8
DEFAULT_255_1_234
10
5.7512412
20
116.7806117
11
6.1769233
21
116.9404433
0
LINE
8
DEFAULT_255_1_234
10
6.1769233
20
116.9404433
11
6.2002153
21
116.9404433
0
LINE
8
DEFAULT_255_1_234
10
4.3049902
20
124.8723211
11
4.3049902
21
123.7029
0
LINE
8
DEFAULT_255_1_234
10
4.3049902
20
123.7029
11
4.1507808
21
123.7029
0
LINE
8
DEFAULT_255_1_234
10
4.1507808
20
123.7029
11
4.1507808
21
124.8723211
0
LINE
8
DEFAULT_255_1_234
10
4.1507808
20
124.8723211
11
4.3049902
21
124.8723211
0
LINE
8
DEFAULT_255_1_234
10
5.4856557
20
124.8723211
11
5.4856557
21
123.7029
0
LINE
8
DEFAULT_255_1_234
10
5.4856557
20
123.7029
11
5.3306432
21
123.7029
0
LINE
8
DEFAULT_255_1_234
10
5.3306432
20
123.7029
11
4.7419167
21
124.604061
0
LINE
8
DEFAULT_255_1_234
10
4.7419167
20
124.604061
11
4.7419167
21
123.7029
0
LINE
8
DEFAULT_255_1_234
10
4.7419167
20
123.7029
11
4.5869042
21
123.7029
0
LINE
8
DEFAULT_255_1_234
10
4.5869042
20
123.7029
11
4.5869042
21
124.8723211
0
LINE
8
DEFAULT_255_1_234
10
4.5869042
20
124.8723211
11
4.7419167
21
124.8723211
0
LINE
8
DEFAULT_255_1_234
10
4.7419167
20
124.8723211
11
5.3322495
21
123.9671442
0
LINE
8
DEFAULT_255_1_234
10
5.3322495
20
123.9671442
11
5.3322495
21
124.8723211
0
LINE
8
DEFAULT_255_1_234
10
5.3322495
20
124.8723211
11
5.4856557
21
124.8723211
0
LINE
8
DEFAULT_255_1_234
10
6.4542833
20
124.3944327
11
6.4542833
21
124.2016709
0
LINE
8
DEFAULT_255_1_234
10
5.7161666
20
124.1815916
11
5.7161666
21
124.3799755
0
LINE
8
DEFAULT_255_1_234
10
6.3056962
20
124.1615123
11
6.3056962
21
124.4048739
0
LINE
8
DEFAULT_255_1_234
10
5.8647538
20
124.4161184
11
5.8647538
21
124.1783789
0
ARC
8
DEFAULT_255_1_234
10
5.2295723
20
124.1967805
40
1.2247208
50
353.8441951
51
0.2287902
0
ARC
8
DEFAULT_255_1_234
10
5.6935227
20
124.1449806
40
0.7578929
50
344.4934747
51
353.9765454
0
ARC
8
DEFAULT_255_1_234
10
5.9927817
20
124.0598981
40
0.4467846
50
329.2803592
51
344.7472793
0
ARC
8
DEFAULT_255_1_234
10
6.0920642
20
124.0054018
40
0.3336173
50
324.9352394
51
328.6160465
0
ARC
8
DEFAULT_255_1_234
10
6.1297751
20
123.9790427
40
0.2876076
50
280.580143
51
324.9173126
0
ARC
8
DEFAULT_255_1_234
10
6.0896543
20
124.1461099
40
0.4592847
50
269.5977311
51
281.6734359
0
ARC
8
DEFAULT_255_1_234
10
6.0824449
20
124.1341173
40
0.4472986
50
256.6228859
51
270.51044
0
ARC
8
DEFAULT_255_1_234
10
6.0422427
20
123.9792877
40
0.2873874
50
215.8618325
51
257.2788573
0
ARC
8
DEFAULT_255_1_234
10
6.1443458
20
124.0477977
40
0.4102928
50
197.9693508
51
215.2623606
0
ARC
8
DEFAULT_255_1_234
10
6.3928574
20
124.1316709
40
0.6725652
50
187.8816417
51
198.2346507
0
ARC
8
DEFAULT_255_1_234
10
6.7886782
20
124.1888079
40
1.0724845
50
180.8976217
51
188.0055519
0
ARC
8
DEFAULT_255_1_234
10
7.068697
20
124.1991777
40
1.3526448
50
180.7449369
51
181.1510016
0
ARC
8
DEFAULT_255_1_234
10
6.9109699
20
124.3848042
40
1.1948131
50
173.7675579
51
180.231553
0
ARC
8
DEFAULT_255_1_234
10
6.4591846
20
124.4358666
40
0.7401564
50
164.3058563
51
173.9002247
0
ARC
8
DEFAULT_255_1_234
10
6.1679915
20
124.5197656
40
0.4371288
50
148.7922025
51
164.568378
0
ARC
8
DEFAULT_255_1_234
10
6.0728367
20
124.5728929
40
0.3282386
50
144.5883898
51
148.1176286
0
ARC
8
DEFAULT_255_1_234
10
6.0385265
20
124.5968315
40
0.2864044
50
101.6440918
51
144.514236
0
ARC
8
DEFAULT_255_1_234
10
6.0810332
20
124.4279069
40
0.4604934
50
89.5284041
51
102.5819763
0
ARC
8
DEFAULT_255_1_234
10
6.0889419
20
124.4240018
40
0.464401
50
77.0437873
51
90.5081339
0
ARC
8
DEFAULT_255_1_234
10
6.1291421
20
124.5882615
40
0.2953195
50
48.2778575
51
77.4994676
0
ARC
8
DEFAULT_255_1_234
10
6.1364052
20
124.6011746
40
0.2808655
50
36.3142134
51
47.6305865
0
ARC
8
DEFAULT_255_1_234
10
6.0495359
20
124.5426515
40
0.3855453
50
18.2931786
51
35.6769206
0
ARC
8
DEFAULT_255_1_234
10
5.7952118
20
124.4553593
40
0.654423
50
8.024666
51
18.5605216
0
ARC
8
DEFAULT_255_1_234
10
5.3789038
20
124.3938792
40
1.0752407
50
1.1274072
51
8.1718305
0
ARC
8
DEFAULT_255_1_234
10
5.0553229
20
124.3811885
40
1.3990231
50
0.5424119
51
1.3863029
0
ARC
8
DEFAULT_255_1_234
10
5.2374607
20
124.4084342
40
1.0682415
50
359.8090433
51
4.9407866
0
ARC
8
DEFAULT_255_1_234
10
5.6584621
20
124.4460113
40
0.6455691
50
4.8362157
51
12.2904523
0
ARC
8
DEFAULT_255_1_234
10
5.9339735
20
124.5073965
40
0.3633074
50
12.0805627
51
23.8173984
0
ARC
8
DEFAULT_255_1_234
10
6.0513441
20
124.5570919
40
0.2358723
50
24.2871213
51
31.3935614
0
ARC
8
DEFAULT_255_1_234
10
6.1038138
20
124.5914233
40
0.1732111
50
30.7407893
51
82.4657128
0
ARC
8
DEFAULT_255_1_234
10
6.0858272
20
124.5030691
40
0.263235
50
81.1060089
51
90.2184952
0
ARC
8
DEFAULT_255_1_234
10
6.0822571
20
124.5288924
40
0.2374236
50
89.3806855
51
105.6762551
0
ARC
8
DEFAULT_255_1_234
10
6.0639202
20
124.5955567
40
0.1682847
50
105.7981136
51
149.7388061
0
ARC
8
DEFAULT_255_1_234
10
6.170328
20
124.531595
40
0.2924306
50
149.4208916
51
163.6286378
0
ARC
8
DEFAULT_255_1_234
10
6.3794168
20
124.467825
40
0.5110213
50
163.3763315
51
172.1410975
0
ARC
8
DEFAULT_255_1_234
10
6.7094887
20
124.4205518
40
0.8444586
50
172.0259487
51
178.0703232
0
ARC
8
DEFAULT_255_1_234
10
7.0124977
20
124.4061906
40
1.1477868
50
177.8631668
51
179.5044149
0
ARC
8
DEFAULT_255_1_234
10
6.9052381
20
124.1747389
40
1.0404907
50
179.7995573
51
185.2460446
0
ARC
8
DEFAULT_255_1_234
10
6.500942
20
124.1364513
40
0.6343885
50
185.1411642
51
193.0079639
0
ARC
8
DEFAULT_255_1_234
10
6.2365893
20
124.0739641
40
0.3627568
50
192.7897626
51
205.2507664
0
ARC
8
DEFAULT_255_1_234
10
6.131944
20
124.0272415
40
0.2481908
50
205.8005384
51
211.2537509
0
ARC
8
DEFAULT_255_1_234
10
6.079588
20
123.992158
40
0.1852521
50
210.3789793
51
238.4008143
0
ARC
8
DEFAULT_255_1_234
10
6.0776402
20
123.9968376
40
0.1882621
50
239.6520629
51
265.9793761
0
ARC
8
DEFAULT_255_1_234
10
6.0861602
20
124.0640427
40
0.2559272
50
265.1315437
51
270.060332
0
ARC
8
DEFAULT_255_1_234
10
6.0890381
20
124.0316534
40
0.2235528
50
269.3314664
51
287.2178029
0
ARC
8
DEFAULT_255_1_234
10
6.1028233
20
123.9813279
40
0.1714108
50
287.7958004
51
329.080874
0
ARC
8
DEFAULT_255_1_234
10
6.007069
20
124.041093
40
0.2842745
50
328.6634704
51
343.3325132
0
ARC
8
DEFAULT_255_1_234
10
5.789771
20
124.1087863
40
0.5118644
50
343.0499468
51
351.9393422
0
ARC
8
DEFAULT_255_1_234
10
5.443101
20
124.1598949
40
0.8622784
50
351.8069023
51
357.7959224
0
ARC
8
DEFAULT_255_1_234
10
5.1195566
20
124.1766721
40
1.1862365
50
357.5871873
51
359.2677531
0
LINE
8
DEFAULT_255_1_234
10
23.1643817
20
132.3319327
11
23.1643817
21
132.1391709
0
LINE
8
DEFAULT_255_1_234
10
22.426265
20
132.1190916
11
22.426265
21
132.3174755
0
LINE
8
DEFAULT_255_1_234
10
23.0157946
20
132.0990123
11
23.0157946
21
132.3423739
0
LINE
8
DEFAULT_255_1_234
10
22.5748521
20
132.3536184
11
22.5748521
21
132.1158789
0
ARC
8
DEFAULT_255_1_234
10
21.9396707
20
132.1342805
40
1.2247208
50
353.8441951
51
0.2287902
0
ARC
8
DEFAULT_255_1_234
10
22.4036211
20
132.0824806
40
0.7578929
50
344.4934747
51
353.9765454
0
ARC
8
DEFAULT_255_1_234
10
22.7028801
20
131.9973981
40
0.4467846
50
329.2803592
51
344.7472793
0
ARC
8
DEFAULT_255_1_234
10
22.8021626
20
131.9429018
40
0.3336173
50
324.9352394
51
328.6160465
0
ARC
8
DEFAULT_255_1_234
10
22.8398734
20
131.9165427
40
0.2876076
50
280.580143
51
324.9173126
0
ARC
8
DEFAULT_255_1_234
10
22.7997527
20
132.0836099
40
0.4592847
50
269.5977311
51
281.6734359
0
ARC
8
DEFAULT_255_1_234
10
22.7925433
20
132.0716173
40
0.4472986
50
256.6228859
51
270.51044
0
ARC
8
DEFAULT_255_1_234
10
22.752341
20
131.9167877
40
0.2873874
50
215.8618325
51
257.2788573
0
ARC
8
DEFAULT_255_1_234
10
22.8544442
20
131.9852977
40
0.4102928
50
197.9693508
51
215.2623606
0
ARC
8
DEFAULT_255_1_234
10
23.1029558
20
132.0691709
40
0.6725652
50
187.8816417
51
198.2346507
0
ARC
8
DEFAULT_255_1_234
10
23.4987766
20
132.1263079
40
1.0724845
50
180.8976217
51
188.0055519
0
ARC
8
DEFAULT_255_1_234
10
23.7787954
20
132.1366777
40
1.3526448
50
180.7449369
51
181.1510016
0
ARC
8
DEFAULT_255_1_234
10
23.6210683
20
132.3223042
40
1.1948131
50
173.7675579
51
180.231553
0
ARC
8
DEFAULT_255_1_234
10
23.169283
20
132.3733666
40
0.7401564
50
164.3058563
51
173.9002247
0
ARC
8
DEFAULT_255_1_234
10
22.8780899
20
132.4572656
40
0.4371288
50
148.7922025
51
164.568378
0
ARC
8
DEFAULT_255_1_234
10
22.7829351
20
132.5103929
40
0.3282386
50
144.5883898
51
148.1176286
0
ARC
8
DEFAULT_255_1_234
10
22.7486249
20
132.5343315
40
0.2864044
50
101.6440918
51
144.514236
0
ARC
8
DEFAULT_255_1_234
10
22.7911315
20
132.3654069
40
0.4604934
50
89.5284041
51
102.5819763
0
ARC
8
DEFAULT_255_1_234
10
22.7990403
20
132.3615018
40
0.464401
50
77.0437873
51
90.5081339
0
ARC
8
DEFAULT_255_1_234
10
22.8392405
20
132.5257615
40
0.2953195
50
48.2778575
51
77.4994676
0
ARC
8
DEFAULT_255_1_234
10
22.8465036
20
132.5386746
40
0.2808655
50
36.3142134
51
47.6305865
0
ARC
8
DEFAULT_255_1_234
10
22.7596343
20
132.4801515
40
0.3855453
50
18.2931786
51
35.6769206
0
ARC
8
DEFAULT_255_1_234
10
22.5053102
20
132.3928593
40
0.654423
50
8.024666
51
18.5605216
0
ARC
8
DEFAULT_255_1_234
10
22.0890022
20
132.3313792
40
1.0752407
50
1.1274072
51
8.1718305
0
ARC
8
DEFAULT_255_1_234
10
21.7654213
20
132.3186885
40
1.3990231
50
0.5424119
51
1.3863029
0
ARC
8
DEFAULT_255_1_234
10
21.947559
20
132.3459342
40
1.0682415
50
359.8090433
51
4.9407866
0
ARC
8
DEFAULT_255_1_234
10
22.3685604
20
132.3835113
40
0.6455691
50
4.8362157
51
12.2904523
0
ARC
8
DEFAULT_255_1_234
10
22.6440719
20
132.4448965
40
0.3633074
50
12.0805627
51
23.8173984
0
ARC
8
DEFAULT_255_1_234
10
22.7614425
20
132.4945919
40
0.2358723
50
24.2871213
51
31.3935614
0
ARC
8
DEFAULT_255_1_234
10
22.8139122
20
132.5289233
40
0.1732111
50
30.7407893
51
82.4657128
0
ARC
8
DEFAULT_255_1_234
10
22.7959256
20
132.4405691
40
0.263235
50
81.1060089
51
90.2184952
0
ARC
8
DEFAULT_255_1_234
10
22.7923555
20
132.4663924
40
0.2374236
50
89.3806855
51
105.6762551
0
ARC
8
DEFAULT_255_1_234
10
22.7740186
20
132.5330567
40
0.1682847
50
105.7981136
51
149.7388061
0
ARC
8
DEFAULT_255_1_234
10
22.8804264
20
132.469095
40
0.2924306
50
149.4208916
51
163.6286378
0
ARC
8
DEFAULT_255_1_234
10
23.0895152
20
132.405325
40
0.5110213
50
163.3763315
51
172.1410975
0
ARC
8
DEFAULT_255_1_234
10
23.4195871
20
132.3580518
40
0.8444586
50
172.0259487
51
178.0703232
0
ARC
8
DEFAULT_255_1_234
10
23.722596
20
132.3436906
40
1.1477868
50
177.8631668
51
179.5044149
0
ARC
8
DEFAULT_255_1_234
10
23.6153365
20
132.1122389
40
1.0404907
50
179.7995573
51
185.2460446
0
ARC
8
DEFAULT_255_1_234
10
23.2110404
20
132.0739513
40
0.6343885
50
185.1411642
51
193.0079639
0
ARC
8
DEFAULT_255_1_234
10
22.9466877
20
132.0114641
40
0.3627568
50
192.7897626
51
205.2507664
0
ARC
8
DEFAULT_255_1_234
10
22.8420424
20
131.9647415
40
0.2481908
50
205.8005384
51
211.2537509
0
ARC
8
DEFAULT_255_1_234
10
22.7896864
20
131.929658
40
0.1852521
50
210.3789793
51
238.4008143
0
ARC
8
DEFAULT_255_1_234
10
22.7877386
20
131.9343376
40
0.1882621
50
239.6520629
51
265.9793761
0
ARC
8
DEFAULT_255_1_234
10
22.7962586
20
132.0015427
40
0.2559272
50
265.1315437
51
270.060332
0
ARC
8
DEFAULT_255_1_234
10
22.7991365
20
131.9691534
40
0.2235528
50
269.3314664
51
287.2178029
0
ARC
8
DEFAULT_255_1_234
10
22.8129217
20
131.9188279
40
0.1714108
50
287.7958004
51
329.080874
0
ARC
8
DEFAULT_255_1_234
10
22.7171674
20
131.978593
40
0.2842745
50
328.6634704
51
343.3325132
0
ARC
8
DEFAULT_255_1_234
10
22.4998694
20
132.0462863
40
0.5118644
50
343.0499468
51
351.9393422
0
ARC
8
DEFAULT_255_1_234
10
22.1531994
20
132.0973949
40
0.8622784
50
351.8069023
51
357.7959224
0
ARC
8
DEFAULT_255_1_234
10
21.829655
20
132.1141721
40
1.1862365
50
357.5871873
51
359.2677531
0
LINE
8
DEFAULT_255_1_234
10
23.4479021
20
132.8098211
11
23.7804161
21
131.8452093
0
LINE
8
DEFAULT_255_1_234
10
23.7804161
20
131.8452093
11
24.1145364
21
132.8098211
0
LINE
8
DEFAULT_255_1_234
10
24.1145364
20
132.8098211
11
24.2832029
21
132.8098211
0
LINE
8
DEFAULT_255_1_234
10
24.2832029
20
132.8098211
11
23.849489
21
131.6404
0
LINE
8
DEFAULT_255_1_234
10
23.849489
20
131.6404
11
23.7129495
21
131.6404
0
LINE
8
DEFAULT_255_1_234
10
23.7129495
20
131.6404
11
23.2800388
21
132.8098211
0
LINE
8
DEFAULT_255_1_234
10
23.2800388
20
132.8098211
11
23.4479021
21
132.8098211
0
ENDSEC
0
EOF