0
SECTION
2
HEADER
9
$MEASUREMENT
70
1
0
ENDSEC
0
SECTION
2
TABLES
0
TABLE
2
LTYPE
0
LTYPE
72
65
70
64
2
CONTINUOUS
3
______
73
0
40
0
0
ENDTAB
0
TABLE
2
LAYER
0
LAYER
2
DEFAULT_255_2_778
70
0
62
255
6
CONTINUOUS
0
ENDTAB
0
ENDSEC
0
SECTION
2
ENTITIES
0
ARC
8
DEFAULT_255_2_778
10
62.0611351
20
92.5872654
40
0.500375
50
53.1444065
51
89.9856775
0
LINE
8
DEFAULT_255_2_778
10
28.1238602
20
95.0876404
11
28.1238602
21
95.9877404
0
LINE
8
DEFAULT_255_2_778
10
28.1238602
20
95.9877404
11
28.9237602
21
95.9877404
0
LINE
8
DEFAULT_255_2_778
10
28.9237602
20
95.9877404
11
28.9237602
21
96.3875404
0
LINE
8
DEFAULT_255_2_778
10
28.9237602
20
96.3875404
11
29.9238602
21
96.3875404
0
LINE
8
DEFAULT_255_2_778
10
29.9238602
20
96.3875404
11
29.9238602
21
96.7875404
0
LINE
8
DEFAULT_255_2_778
10
29.9238602
20
96.7875404
11
31.1240602
21
96.7875404
0
LINE
8
DEFAULT_255_2_778
10
31.1240602
20
96.7875404
11
31.1240602
21
97.1876404
0
LINE
8
DEFAULT_255_2_778
10
31.1240602
20
97.1876404
11
32.6239602
21
97.1876404
0
LINE
8
DEFAULT_255_2_778
10
32.6239602
20
97.1876404
11
32.6239602
21
97.5876404
0
LINE
8
DEFAULT_255_2_778
10
32.6239602
20
97.5876404
11
37.6240602
21
97.5876404
0
LINE
8
DEFAULT_255_2_778
10
37.6240602
20
97.5876404
11
37.6240602
21
97.1876404
0
LINE
8
DEFAULT_255_2_778
10
37.6240602
20
97.1876404
11
39.1239602
21
97.1876404
0
LINE
8
DEFAULT_255_2_778
10
39.1239602
20
97.1876404
11
39.1239602
21
96.7875404
0
LINE
8
DEFAULT_255_2_778
10
39.1239602
20
96.7875404
11
40.3238602
21
96.7875404
0
LINE
8
DEFAULT_255_2_778
10
40.3238602
20
96.7875404
11
40.3238602
21
96.3875404
0
LINE
8
DEFAULT_255_2_778
10
40.3238602
20
96.3875404
11
41.3239602
21
96.3875404
0
LINE
8
DEFAULT_255_2_778
10
41.3239602
20
96.3875404
11
41.3239602
21
95.9877404
0
LINE
8
DEFAULT_255_2_778
10
41.3239602
20
95.9877404
11
42.1240602
21
95.9877404
0
LINE
8
DEFAULT_255_2_778
10
42.1240602
20
95.9877404
11
42.1240602
21
95.0876404
0
LINE
8
DEFAULT_255_2_778
10
7.4112602
20
82.8876404
11
8.6113602
21
82.8876404
0
LINE
8
DEFAULT_255_2_778
10
8.6113602
20
82.8876404
11
8.6113602
21
74.8877404
0
LINE
8
DEFAULT_255_2_778
10
8.6113602
20
74.8877404
11
7.4112602
21
74.8877404
0
LINE
8
DEFAULT_255_2_778
10
7.4112602
20
63.6876404
11
8.6113602
21
63.6876404
0
LINE
8
DEFAULT_255_2_778
10
8.6113602
20
63.6876404
11
8.6113602
21
55.6877404
0
LINE
8
DEFAULT_255_2_778
10
8.6113602
20
55.6877404
11
7.4112602
21
55.6877404
0
LINE
8
DEFAULT_255_2_778
10
61.2113602
20
64.0075404
11
61.2113602
21
68.0876404
0
LINE
8
DEFAULT_255_2_778
10
61.2113602
20
32.6877404
11
61.2113602
21
61.9678404
0
LINE
8
DEFAULT_255_2_778
10
65.2113602
20
68.0876404
11
65.2113602
21
70.5877404
0
LINE
8
DEFAULT_255_2_778
10
65.2113602
20
70.5877404
11
65.0613602
21
70.5877404
0
LINE
8
DEFAULT_255_2_778
10
62.0612602
20
93.0876404
11
65.2110602
21
93.0876404
0
LINE
8
DEFAULT_255_2_778
10
65.2110602
20
93.0876404
11
65.2110602
21
94.7878404
0
LINE
8
DEFAULT_255_2_778
10
61.2113602
20
32.6877404
11
62.7112602
21
32.6877404
0
LINE
8
DEFAULT_255_2_778
10
62.7112602
20
32.6877404
11
65.2113602
21
32.1876404
0
LINE
8
DEFAULT_255_2_778
10
65.2113602
20
32.1876404
11
65.2113602
21
5.3877404
0
LINE
8
DEFAULT_255_2_778
10
30.9112602
20
95.0876404
11
29.9111602
21
93.0876404
0
LINE
8
DEFAULT_255_2_778
10
29.9111602
20
93.0876404
11
16.9113602
21
93.0876404
0
LINE
8
DEFAULT_255_2_778
10
16.9113602
20
93.0876404
11
15.9112602
21
95.0876404
0
LINE
8
DEFAULT_255_2_778
10
29.911417
20
95.0875675
11
29.911417
21
93.0875675
0
LINE
8
DEFAULT_255_2_778
10
16.911317
20
95.0875675
11
16.911317
21
93.0875675
0
LINE
8
DEFAULT_255_2_778
10
14.910517
20
5.0874675
11
14.910517
21
7.9875675
0
LINE
8
DEFAULT_255_2_778
10
14.910517
20
7.9875675
11
8.111317
21
7.9875675
0
LINE
8
DEFAULT_255_2_778
10
8.111317
20
7.9875675
11
8.111317
21
7.8875675
0
LINE
8
DEFAULT_255_2_778
10
8.111317
20
7.9875675
11
7.411217
21
8.6876675
0
LINE
8
DEFAULT_255_2_778
10
14.9105653
20
95.0875434
11
14.9105653
21
92.1877434
0
LINE
8
DEFAULT_255_2_778
10
14.9105653
20
92.1877434
11
8.1113653
21
92.1877434
0
LINE
8
DEFAULT_255_2_778
10
8.1113653
20
92.1877434
11
7.4112653
21
91.4876434
0
LINE
8
DEFAULT_255_2_778
10
61.4111653
20
93.0875434
11
61.4111653
21
92.6872434
0
LINE
8
DEFAULT_255_2_778
10
61.4111653
20
70.9877434
11
61.4111653
21
70.5876434
0
ARC
8
DEFAULT_255_2_778
10
60.6612445
20
70.7877254
40
0.200009
50
180.0025627
51
269.9974171
0
LINE
8
DEFAULT_255_2_778
10
60.6612355
20
70.5877164
11
65.2113355
21
70.5877164
0
LINE
8
DEFAULT_255_2_778
10
65.2115355
20
68.0877164
11
61.2116355
21
68.0877164
0
LINE
8
DEFAULT_255_2_778
10
65.0612355
20
93.0876164
11
65.0612355
21
92.9876164
0
LINE
8
DEFAULT_255_2_778
10
65.2113355
20
1.7876164
11
61.3113355
21
1.7876164
0
LINE
8
DEFAULT_255_2_778
10
65.2113073
20
4.8376267
11
63.2113073
21
4.8376267
0
LINE
8
DEFAULT_255_2_778
10
63.2113073
20
4.8376267
11
63.2113073
21
5.0877267
0
LINE
8
DEFAULT_255_2_778
10
65.2113073
20
31.1875267
11
65.2113073
21
30.9306267
0
LINE
8
DEFAULT_255_2_778
10
61.3113753
20
5.0876962
11
61.3113753
21
-0.2124038
0
LINE
8
DEFAULT_255_2_778
10
61.3113753
20
-0.2124038
11
65.2112753
21
-0.2124038
0
LINE
8
DEFAULT_255_2_778
10
65.2112753
20
-0.2124038
11
65.2112753
21
31.6373962
0
LINE
8
DEFAULT_255_2_778
10
64.8363753
20
32.2625962
11
63.4116753
21
34.6374962
0
LINE
8
DEFAULT_255_2_778
10
63.4116753
20
34.6374962
11
62.4114753
21
34.6374962
0
LINE
8
DEFAULT_255_2_778
10
62.4114753
20
34.6374962
11
62.2342753
21
32.6877962
0
LINE
8
DEFAULT_255_2_778
10
45.7612753
20
42.8876962
11
47.0111753
21
42.8876962
0
LINE
8
DEFAULT_255_2_778
10
52.7113753
20
42.8876962
11
53.9612753
21
42.8876962
0
LINE
8
DEFAULT_255_2_778
10
51.5114753
20
45.7877962
11
51.5114753
21
44.1375962
0
LINE
8
DEFAULT_255_2_778
10
51.5114753
20
44.1375962
11
48.2112753
21
44.1375962
0
LINE
8
DEFAULT_255_2_778
10
48.2112753
20
44.1375962
11
48.2112753
21
45.7877962
0
LINE
8
DEFAULT_255_2_778
10
48.2112753
20
45.7877962
11
51.5114753
21
45.7877962
0
LINE
8
DEFAULT_255_2_778
10
48.2115753
20
15.1873962
11
45.7615753
21
15.1873962
0
LINE
8
DEFAULT_255_2_778
10
45.7615753
20
15.1873962
11
45.7615753
21
17.8874962
0
LINE
8
DEFAULT_255_2_778
10
45.7615753
20
17.8874962
11
47.0116753
21
17.8874962
0
ARC
8
DEFAULT_255_2_778
10
5.9113059
20
91.7876518
40
0.5000969
50
89.9996485
51
180.0003515
0
ARC
8
DEFAULT_255_2_778
10
5.9112846
20
91.7877244
40
0.5000756
50
180.0086621
51
270.0028016
0
LINE
8
DEFAULT_255_2_778
10
45.761509
20
42.8876488
11
45.761509
21
45.5877488
0
LINE
8
DEFAULT_255_2_778
10
45.761509
20
45.5877488
11
48.211509
21
45.5877488
0
LINE
8
DEFAULT_255_2_778
10
51.511409
20
45.5877488
11
53.961209
21
45.5877488
0
LINE
8
DEFAULT_255_2_778
10
53.961209
20
45.5877488
11
53.961209
21
42.8876488
0
LINE
8
DEFAULT_255_2_778
10
52.711309
20
17.8874488
11
53.961209
21
17.8874488
0
LINE
8
DEFAULT_255_2_778
10
53.961209
20
17.8874488
11
53.961209
21
15.1873488
0
LINE
8
DEFAULT_255_2_778
10
53.961209
20
15.1873488
11
51.511409
21
15.1873488
0
LINE
8
DEFAULT_255_2_778
10
28.123809
20
5.0874488
11
28.123809
21
4.1875488
0
LINE
8
DEFAULT_255_2_778
10
28.123809
20
4.1875488
11
28.923709
21
4.1875488
0
LINE
8
DEFAULT_255_2_778
10
28.923709
20
4.1875488
11
28.923709
21
3.7878488
0
LINE
8
DEFAULT_255_2_778
10
28.923709
20
3.7878488
11
29.923809
21
3.7878488
0
LINE
8
DEFAULT_255_2_778
10
29.923809
20
3.7878488
11
29.923809
21
3.3874488
0
LINE
8
DEFAULT_255_2_778
10
29.923809
20
3.3874488
11
31.123909
21
3.3874488
0
LINE
8
DEFAULT_255_2_778
10
31.123909
20
3.3874488
11
31.123909
21
2.9877488
0
LINE
8
DEFAULT_255_2_778
10
31.123909
20
2.9877488
11
32.623909
21
2.9877488
0
LINE
8
DEFAULT_255_2_778
10
32.623909
20
2.9877488
11
32.623909
21
2.5876488
0
LINE
8
DEFAULT_255_2_778
10
32.623909
20
2.5876488
11
37.624009
21
2.5876488
0
LINE
8
DEFAULT_255_2_778
10
37.624009
20
2.5876488
11
37.624009
21
2.9874488
0
LINE
8
DEFAULT_255_2_778
10
37.624009
20
2.9874488
11
39.123909
21
2.9874488
0
LINE
8
DEFAULT_255_2_778
10
39.123909
20
2.9874488
11
39.123909
21
3.3872488
0
LINE
8
DEFAULT_255_2_778
10
39.123909
20
3.3872488
11
40.323809
21
3.3872488
0
LINE
8
DEFAULT_255_2_778
10
40.323809
20
3.3872488
11
40.323809
21
3.7875488
0
LINE
8
DEFAULT_255_2_778
10
40.323809
20
3.7875488
11
41.323909
21
3.7875488
0
LINE
8
DEFAULT_255_2_778
10
41.323909
20
3.7875488
11
41.323909
21
4.1873488
0
LINE
8
DEFAULT_255_2_778
10
41.323909
20
4.1873488
11
42.124009
21
4.1873488
0
LINE
8
DEFAULT_255_2_778
10
42.124009
20
4.1873488
11
42.124009
21
5.0871488
0
LINE
8
DEFAULT_255_2_778
10
5.911509
20
8.8876488
11
7.411409
21
8.8876488
0
LINE
8
DEFAULT_255_2_778
10
13.411409
20
7.8875488
11
13.411409
21
5.0874488
0
LINE
8
DEFAULT_255_2_778
10
7.411409
20
8.8876488
11
7.411409
21
91.2876488
0
LINE
8
DEFAULT_255_2_778
10
13.413309
20
92.2877488
11
5.911309
21
92.2877488
0
LINE
8
DEFAULT_255_2_778
10
5.911309
20
91.2876488
11
7.411209
21
91.2876488
0
ARC
8
DEFAULT_255_2_778
10
5.9113262
20
8.3875594
40
0.5000758
50
90.008676
51
180.0027763
0
ARC
8
DEFAULT_255_2_778
10
5.9112408
20
8.3875256
40
0.4999904
50
179.9989007
51
270.0011051
0
ARC
8
DEFAULT_255_2_778
10
0.4317466
20
5.3789103
40
0.2914298
50
178.2647434
51
268.1326983
0
ARC
8
DEFAULT_255_2_778
10
64.9282388
20
5.3607257
40
0.2730947
50
270.3171424
51
317.3032127
0
ARC
8
DEFAULT_255_2_778
10
64.9019227
20
5.3860827
40
0.3096318
50
317.1568946
51
0.013427
0
ARC
8
DEFAULT_255_2_778
10
64.8994778
20
5.3861551
40
0.3120767
50
0.0000374
51
0.2901038
0
ARC
8
DEFAULT_255_2_778
10
0.3626416
20
94.9370689
40
0.1512919
50
135.2208757
51
179.8233966
0
ARC
8
DEFAULT_255_2_778
10
0.3618169
20
94.9362432
40
0.1512926
50
90.1766415
51
134.7789079
0
LINE
8
DEFAULT_255_2_778
10
5.9112505
20
7.8875352
11
13.4132505
21
7.8875352
0
LINE
8
DEFAULT_255_2_778
10
0.4222505
20
5.0876352
11
64.9297505
21
5.0876352
0
LINE
8
DEFAULT_255_2_778
10
0.3613505
20
95.0875352
11
64.9117505
21
95.0875352
0
ARC
8
DEFAULT_255_2_778
10
64.91123
20
94.7877581
40
0.3001094
50
0.0208901
51
89.9791099
0
ARC
8
DEFAULT_255_2_778
10
47.5612481
20
8.2878762
40
0.2000087
50
180.0025037
51
269.9975106
0
ARC
8
DEFAULT_255_2_778
10
34.2138209
20
50.0912372
40
2.0023845
50
156.5733489
51
180.0992821
0
ARC
8
DEFAULT_255_2_778
10
34.2066429
20
50.0921842
40
1.9954226
50
100.1929838
51
156.5163563
0
ARC
8
DEFAULT_255_2_778
10
34.2104189
20
50.0599639
40
2.0278038
50
89.9711642
51
100.1368845
0
ARC
8
DEFAULT_255_2_778
10
34.2149092
20
50.085386
40
2.0023845
50
66.5733489
51
90.0992821
0
ARC
8
DEFAULT_255_2_778
10
34.2158562
20
50.092564
40
1.9954226
50
10.1929838
51
66.5163563
0
ARC
8
DEFAULT_255_2_778
10
34.1836358
20
50.0887881
40
2.0278038
50
359.9711642
51
10.1368845
0
ARC
8
DEFAULT_255_2_778
10
34.2092329
20
50.0843067
40
2.0022096
50
336.5287151
51
0.0990339
0
ARC
8
DEFAULT_255_2_778
10
34.2161511
20
50.0834351
40
1.9955175
50
280.1882983
51
336.4725563
0
ARC
8
DEFAULT_255_2_778
10
34.2124585
20
50.1153798
40
2.0276126
50
269.9712038
51
280.131326
0
ARC
8
DEFAULT_255_2_778
10
34.2079778
20
50.0900257
40
2.0022612
50
246.5715666
51
270.0990563
0
ARC
8
DEFAULT_255_2_778
10
34.2071306
20
50.0830683
40
1.9955414
50
190.1944457
51
246.5144618
0
ARC
8
DEFAULT_255_2_778
10
34.2389847
20
50.0867502
40
2.0275455
50
179.9712527
51
190.1375314
0
LINE
8
DEFAULT_255_2_778
10
0.2114394
20
94.9402675
11
0.2114394
21
5.0877675
0
LINE
8
DEFAULT_255_2_778
10
13.4115394
20
95.0875675
11
13.4115394
21
92.2875675
0
LINE
8
DEFAULT_255_2_778
10
32.2114394
20
50.0877675
11
32.2114394
21
50.0877675
0
ARC
8
DEFAULT_255_2_778
10
60.661636
20
92.8863891
40
0.2012237
50
90.0992231
51
134.8238335
0
ARC
8
DEFAULT_255_2_778
10
60.6603753
20
92.8881468
40
0.1990886
50
134.9231062
51
180.1537693
0
ARC
8
DEFAULT_255_2_778
10
60.1144851
20
62.9867406
40
1.4973095
50
317.1166681
51
336.8396037
0
ARC
8
DEFAULT_255_2_778
10
60.1104948
20
62.9870623
40
1.5011054
50
336.8882178
51
0.0213789
0
LINE
8
DEFAULT_255_2_778
10
61.6116
20
62.9876224
11
61.6116
21
62.9877975
0
ARC
8
DEFAULT_255_2_778
10
60.1135719
20
62.9886898
40
1.4980283
50
359.9658692
51
31.1309717
0
ARC
8
DEFAULT_255_2_778
10
60.1081433
20
62.9838302
40
1.5051883
50
31.1824838
51
42.8515163
0
LINE
8
DEFAULT_255_2_778
10
35.838325
20
97.7876099
11
35.838325
21
97.5876099
0
LINE
8
DEFAULT_255_2_778
10
33.068425
20
97.5876099
11
33.068425
21
97.7876099
0
LINE
8
DEFAULT_255_2_778
10
33.068425
20
97.7876099
11
37.223925
21
97.7876099
0
LINE
8
DEFAULT_255_2_778
10
37.223925
20
97.7876099
11
37.223925
21
97.5876099
0
LINE
8
DEFAULT_255_2_778
10
52.161025
20
89.0876099
11
47.561225
21
89.0876099
0
ARC
8
DEFAULT_255_2_778
10
31.5100948
20
10.887561
40
0.2009348
50
0.0081154
51
44.8172635
0
ARC
8
DEFAULT_255_2_778
10
31.5115341
20
10.8879466
40
0.1996433
50
45.0299223
51
90.144816
0
ARC
8
DEFAULT_255_2_778
10
26.9112618
20
10.886888
40
0.2007015
50
90.0092024
51
134.8447182
0
ARC
8
DEFAULT_255_2_778
10
26.9105496
20
10.8881276
40
0.1993207
50
134.9508428
51
180.1546843
0
LINE
8
DEFAULT_255_2_778
10
52.1609295
20
92.0876895
11
47.5612295
21
92.0876895
0
LINE
8
DEFAULT_255_2_778
10
31.5110295
20
11.0875895
11
26.9112295
21
11.0875895
0
LINE
8
DEFAULT_255_2_778
10
31.5110295
20
8.0874895
11
26.9112295
21
8.0874895
0
LINE
8
DEFAULT_255_2_778
10
31.5110295
20
89.0875895
11
26.9112295
21
89.0875895
0
ARC
8
DEFAULT_255_2_778
10
52.1609883
20
8.2877984
40
0.2000089
50
270.0025627
51
359.9974373
0
ARC
8
DEFAULT_255_2_778
10
52.1600625
20
10.887561
40
0.2009348
50
0.0081154
51
44.8172635
0
ARC
8
DEFAULT_255_2_778
10
52.161502
20
10.8879468
40
0.1996431
50
45.0299082
51
90.1448563
0
ARC
8
DEFAULT_255_2_778
10
47.5612295
20
10.886888
40
0.2007015
50
90.0092024
51
134.8447182
0
ARC
8
DEFAULT_255_2_778
10
47.5605173
20
10.8881276
40
0.1993207
50
134.9508428
51
180.1546843
0
ARC
8
DEFAULT_255_2_778
10
52.1609491
20
91.8864673
40
0.2012224
50
45.1759781
51
89.9008786
0
ARC
8
DEFAULT_255_2_778
10
52.1622089
20
91.8882236
40
0.199089
50
359.8462714
51
45.0768184
0
ARC
8
DEFAULT_255_2_778
10
52.1613523
20
89.2878343
40
0.1999449
50
269.9842058
51
0.0157942
0
LINE
8
DEFAULT_255_2_778
10
31.5110972
20
92.0876895
11
26.9112972
21
92.0876895
0
LINE
8
DEFAULT_255_2_778
10
52.3609972
20
8.2877895
11
52.3609972
21
10.8875895
0
LINE
8
DEFAULT_255_2_778
10
52.1609972
20
11.0875895
11
47.5611972
21
11.0875895
0
LINE
8
DEFAULT_255_2_778
10
52.1609972
20
8.0874895
11
47.5611972
21
8.0874895
0
LINE
8
DEFAULT_255_2_778
10
47.3611972
20
10.8875895
11
47.3611972
21
8.2877895
0
LINE
8
DEFAULT_255_2_778
10
52.3612972
20
91.8876895
11
52.3612972
21
89.2878895
0
LINE
8
DEFAULT_255_2_778
10
47.3612642
20
89.2878895
11
47.3612642
21
91.8876895
0
LINE
8
DEFAULT_255_2_778
10
31.7113642
20
8.2877895
11
31.7113642
21
10.8875895
0
LINE
8
DEFAULT_255_2_778
10
26.7112642
20
10.8875895
11
26.7112642
21
8.2877895
0
LINE
8
DEFAULT_255_2_778
10
31.7113642
20
91.8876895
11
31.7113642
21
89.2878895
0
LINE
8
DEFAULT_255_2_778
10
26.7112642
20
89.2878895
11
26.7112642
21
91.8876895
0
LINE
8
DEFAULT_255_2_778
10
11.9112642
20
7.9874895
11
11.9112642
21
7.8874895
0
LINE
8
DEFAULT_255_2_778
10
11.4112642
20
7.9874895
11
11.4112642
21
7.8874895
0
LINE
8
DEFAULT_255_2_778
10
10.4113642
20
7.9874895
11
10.4113642
21
7.8874895
0
LINE
8
DEFAULT_255_2_778
10
9.5112642
20
7.9874895
11
9.5112642
21
7.8874895
0
LINE
8
DEFAULT_255_2_778
10
55.1613642
20
28.8874895
11
56.6613642
21
28.7874895
0
LINE
8
DEFAULT_255_2_778
10
56.6613642
20
28.7874895
11
56.6613642
21
12.4875895
0
LINE
8
DEFAULT_255_2_778
10
56.6613642
20
12.4875895
11
43.0612642
21
12.4875895
0
LINE
8
DEFAULT_255_2_778
10
43.0612642
20
12.4875895
11
43.0612642
21
48.2877895
0
LINE
8
DEFAULT_255_2_778
10
43.0612642
20
48.2877895
11
56.6613642
21
48.2877895
0
LINE
8
DEFAULT_255_2_778
10
56.6613642
20
48.2877895
11
56.6613642
21
31.9875895
0
LINE
8
DEFAULT_255_2_778
10
56.6613642
20
31.9875895
11
55.1613642
21
31.8875895
0
ARC
8
DEFAULT_255_2_778
10
14.9607608
20
65.3375898
40
0.4999215
50
179.9970476
51
225.0123762
0
ARC
8
DEFAULT_255_2_778
10
14.9609135
20
65.3374369
40
0.4999214
50
224.9876146
51
270.0029556
0
ARC
8
DEFAULT_255_2_778
10
54.4610423
20
65.3376125
40
0.5000969
50
269.9996485
51
0.0003515
0
ARC
8
DEFAULT_255_2_778
10
54.4610423
20
84.8376186
40
0.5000969
50
359.9996485
51
90.0003515
0
ARC
8
DEFAULT_255_2_778
10
14.9609136
20
84.8377937
40
0.4999219
50
89.9970574
51
135.0123564
0
ARC
8
DEFAULT_255_2_778
10
14.9607608
20
84.8376413
40
0.4999216
50
134.987625
51
180.0029491
0
LINE
8
DEFAULT_255_2_778
10
44.5614392
20
13.9878156
11
55.1614392
21
13.9878156
0
LINE
8
DEFAULT_255_2_778
10
55.1614392
20
13.9878156
11
55.1614392
21
46.7879156
0
LINE
8
DEFAULT_255_2_778
10
55.1614392
20
46.7879156
11
44.5614392
21
46.7879156
0
LINE
8
DEFAULT_255_2_778
10
44.5614392
20
46.7879156
11
44.5614392
21
13.9878156
0
LINE
8
DEFAULT_255_2_778
10
62.5319392
20
93.0876156
11
60.6113392
21
93.0876156
0
LINE
8
DEFAULT_255_2_778
10
61.7114392
20
92.9876156
11
65.2113392
21
92.9876156
0
LINE
8
DEFAULT_255_2_778
10
65.2113392
20
92.9876156
11
65.2113392
21
70.6874156
0
LINE
8
DEFAULT_255_2_778
10
65.2113392
20
70.6874156
11
61.7114392
21
70.6874156
0
LINE
8
DEFAULT_255_2_778
10
61.7114392
20
70.6874156
11
60.7113392
21
71.6876156
0
LINE
8
DEFAULT_255_2_778
10
60.7113392
20
71.6876156
11
60.7113392
21
81.5875156
0
LINE
8
DEFAULT_255_2_778
10
60.7113392
20
81.5875156
11
63.5603392
21
81.5875156
0
LINE
8
DEFAULT_255_2_778
10
63.5603392
20
81.5875156
11
63.5603392
21
82.0875156
0
LINE
8
DEFAULT_255_2_778
10
63.5603392
20
82.0875156
11
60.7113392
21
82.0875156
0
LINE
8
DEFAULT_255_2_778
10
60.7113392
20
82.0875156
11
60.7113392
21
91.9875156
0
LINE
8
DEFAULT_255_2_778
10
60.7113392
20
91.9875156
11
61.7114392
21
92.9876156
0
LINE
8
DEFAULT_255_2_778
10
61.4111392
20
82.0875156
11
61.4111392
21
81.5875156
0
LINE
8
DEFAULT_255_2_778
10
62.5613392
20
82.0875156
11
62.5613392
21
81.5875156
0
LINE
8
DEFAULT_255_2_778
10
60.4613392
20
92.8876156
11
60.4613392
21
70.7875156
0
LINE
8
DEFAULT_255_2_778
10
14.9609392
20
64.8375156
11
54.4610392
21
64.8375156
0
LINE
8
DEFAULT_255_2_778
10
54.9611392
20
65.3376156
11
54.9611392
21
84.8376156
0
LINE
8
DEFAULT_255_2_778
10
54.4610392
20
85.3377156
11
14.9609392
21
85.3377156
0
LINE
8
DEFAULT_255_2_778
10
14.4608392
20
84.8376156
11
14.4608392
21
65.3376156
0
ARC
8
DEFAULT_255_2_778
10
54.4612074
20
65.337588
40
0.5000755
50
270.0086483
51
0.0028154
0
ARC
8
DEFAULT_255_2_778
10
14.961285
20
65.33726
40
0.4997474
50
224.9793514
51
270.0112208
0
ARC
8
DEFAULT_255_2_778
10
14.9612044
20
65.3375868
40
0.4999215
50
179.9970476
51
225.0123762
0
ARC
8
DEFAULT_255_2_778
10
14.9610303
20
84.8377105
40
0.4997474
50
134.9793514
51
180.0112208
0
ARC
8
DEFAULT_255_2_778
10
14.961285
20
84.8379652
40
0.4997474
50
89.9887792
51
135.0206486
0
ARC
8
DEFAULT_255_2_778
10
54.4612074
20
84.8376372
40
0.5000754
50
359.9971846
51
89.9913517
0
LINE
8
DEFAULT_255_2_778
10
54.4612829
20
64.8375126
11
14.9613829
21
64.8375126
0
LINE
8
DEFAULT_255_2_778
10
14.4612829
20
65.3376126
11
14.4612829
21
84.8376126
0
LINE
8
DEFAULT_255_2_778
10
14.9613829
20
85.3377126
11
54.4612829
21
85.3377126
0
LINE
8
DEFAULT_255_2_778
10
54.9612829
20
84.8376126
11
54.9612829
21
65.3376126
0
LINE
8
DEFAULT_255_2_778
10
52.7112829
20
42.2876126
11
54.0614829
21
42.2876126
0
LINE
8
DEFAULT_255_2_778
10
54.0614829
20
42.2876126
11
54.0614829
21
18.4875126
0
LINE
8
DEFAULT_255_2_778
10
54.0614829
20
18.4875126
11
52.7112829
21
18.4875126
0
LINE
8
DEFAULT_255_2_778
10
52.7112829
20
18.4875126
11
52.7112829
21
43.3875126
0
LINE
8
DEFAULT_255_2_778
10
52.7112829
20
43.3875126
11
47.0113829
21
43.3875126
0
LINE
8
DEFAULT_255_2_778
10
47.0113829
20
43.3875126
11
47.0113829
21
17.3877126
0
LINE
8
DEFAULT_255_2_778
10
47.0114284
20
18.4874797
11
45.6612284
21
18.4874797
0
LINE
8
DEFAULT_255_2_778
10
45.6612284
20
18.4874797
11
45.6612284
21
42.2875797
0
LINE
8
DEFAULT_255_2_778
10
45.6612284
20
42.2875797
11
47.0114284
21
42.2875797
0
LINE
8
DEFAULT_255_2_778
10
52.7110284
20
18.4874797
11
52.7110284
21
17.3873797
0
LINE
8
DEFAULT_255_2_778
10
52.7110284
20
17.3873797
11
47.0114284
21
17.3873797
0
LINE
8
DEFAULT_255_2_778
10
47.0114284
20
17.3873797
11
47.0114284
21
18.4874797
0
LINE
8
DEFAULT_255_2_778
10
51.5114284
20
16.6375797
11
51.5114284
21
14.9875797
0
LINE
8
DEFAULT_255_2_778
10
51.5114284
20
14.9875797
11
48.2113284
21
14.9875797
0
LINE
8
DEFAULT_255_2_778
10
48.2113284
20
14.9875797
11
48.2113284
21
16.6375797
0
LINE
8
DEFAULT_255_2_778
10
48.2113284
20
16.6375797
11
51.5114284
21
16.6375797
0
LINE
8
DEFAULT_255_2_778
10
35.8383284
20
2.3875797
11
35.8383284
21
2.5876797
0
ARC
8
DEFAULT_255_2_778
10
26.9112644
20
89.287615
40
0.200009
50
180.0025627
51
269.9974171
0
LINE
8
DEFAULT_255_2_778
10
33.0683554
20
2.5876061
11
33.0683554
21
2.3876061
0
LINE
8
DEFAULT_255_2_778
10
33.0683554
20
2.3876061
11
37.2239554
21
2.3876061
0
LINE
8
DEFAULT_255_2_778
10
37.2239554
20
2.3876061
11
37.2239554
21
2.5876061
0
ARC
8
DEFAULT_255_2_778
10
26.911636
20
91.8864891
40
0.2012237
50
90.0992231
51
134.8238335
0
ARC
8
DEFAULT_255_2_778
10
26.9103753
20
91.8882468
40
0.1990886
50
134.9231062
51
180.1537693
0
ARC
8
DEFAULT_255_2_778
10
31.5113465
20
89.2876642
40
0.200009
50
270.0025627
51
359.9974171
0
ARC
8
DEFAULT_255_2_778
10
31.5102286
20
91.8875475
40
0.201127
50
0.059154
51
44.7946969
0
ARC
8
DEFAULT_255_2_778
10
31.5118222
20
91.8882627
40
0.199493
50
44.9714167
51
90.1340596
0
ARC
8
DEFAULT_255_2_778
10
47.5612644
20
89.287664
40
0.200009
50
180.0025382
51
269.9974272
0
ARC
8
DEFAULT_255_2_778
10
47.561536
20
91.8864891
40
0.2012237
50
90.0992231
51
134.8238335
0
ARC
8
DEFAULT_255_2_778
10
47.5602753
20
91.8882468
40
0.1990886
50
134.9231062
51
180.1537693
0
ARC
8
DEFAULT_255_2_778
10
26.9112939
20
8.2878194
40
0.200009
50
180.0025382
51
269.9974272
0
ARC
8
DEFAULT_255_2_778
10
31.5113761
20
8.2878193
40
0.2000087
50
270.0025281
51
359.9975005
0
ARC
8
DEFAULT_255_2_778
10
62.0611359
20
71.087858
40
0.5004474
50
270.0056075
51
306.8528098
0
LINE
8
DEFAULT_255_2_778
10
65.0612849
20
70.6874106
11
65.0612849
21
70.5874106
0
ENDSEC
0
EOF