0
SECTION
2
HEADER
9
$MEASUREMENT
70
1
0
ENDSEC
0
SECTION
2
TABLES
0
TABLE
2
LTYPE
0
LTYPE
72
65
70
64
2
CONTINUOUS
3
______
73
0
40
0
0
ENDTAB
0
TABLE
2
LAYER
0
LAYER
2
DEFAULT_255_2_778
70
0
62
255
6
CONTINUOUS
0
ENDTAB
0
ENDSEC
0
SECTION
2
ENTITIES
0
LINE
8
DEFAULT_255_2_778
10
31.2426473
20
94.6020675
11
0.2427473
21
94.6020675
0
LINE
8
DEFAULT_255_2_778
10
0.2427473
20
94.6020675
11
0.2427473
21
4.6019675
0
LINE
8
DEFAULT_255_2_778
10
0.2427473
20
4.6019675
11
31.2426473
21
4.6019675
0
LINE
8
DEFAULT_255_2_778
10
31.2426473
20
4.6019675
11
31.2426473
21
94.6020675
0
LINE
8
DEFAULT_255_2_778
10
14.7927439
20
4.6021353
11
14.7927439
21
1.8020353
0
LINE
8
DEFAULT_255_2_778
10
14.7927439
20
1.8020353
11
16.7927439
21
-0.1979647
0
LINE
8
DEFAULT_255_2_778
10
16.7927439
20
-0.1979647
11
24.7926439
21
-0.1979647
0
LINE
8
DEFAULT_255_2_778
10
24.7926439
20
-0.1979647
11
26.7926439
21
1.8020353
0
LINE
8
DEFAULT_255_2_778
10
26.7926439
20
1.8020353
11
26.7926439
21
4.6021353
0
LINE
8
DEFAULT_255_2_778
10
24.3928656
20
28.40195
11
24.6127656
21
28.40195
0
LINE
8
DEFAULT_255_2_778
10
24.6127656
20
28.40195
11
24.6127656
21
29.20205
0
LINE
8
DEFAULT_255_2_778
10
24.6127656
20
29.20205
11
24.3928656
21
29.20205
0
LINE
8
DEFAULT_255_2_778
10
24.3928656
20
29.20205
11
24.3928656
21
28.40195
0
ARC
8
DEFAULT_255_2_778
10
11.8798415
20
89.5018085
40
0.8001903
50
350.0106189
51
355.0414404
0
ARC
8
DEFAULT_255_2_778
10
11.8804041
20
89.5017503
40
0.7996247
50
355.0421162
51
0.0003184
0
ARC
8
DEFAULT_255_2_778
10
11.8783086
20
89.5016098
40
0.8017203
50
0.0103544
51
39.9400612
0
ARC
8
DEFAULT_255_2_778
10
11.8804575
20
89.5025039
40
0.7994991
50
39.9897989
51
90.0183932
0
ARC
8
DEFAULT_255_2_778
10
9.4433774
20
89.5016344
40
0.8003686
50
90.0197948
51
169.9864784
0
ARC
8
DEFAULT_255_2_778
10
8.3147602
20
83.1019975
40
0.8001903
50
170.0106189
51
175.0414404
0
ARC
8
DEFAULT_255_2_778
10
8.3141977
20
83.1020558
40
0.7996247
50
175.0421162
51
180.0003184
0
ARC
8
DEFAULT_255_2_778
10
8.3162931
20
83.1021962
40
0.8017203
50
180.0103544
51
219.9400612
0
ARC
8
DEFAULT_255_2_778
10
8.3141442
20
83.1013021
40
0.7994991
50
219.9897989
51
270.0183932
0
ARC
8
DEFAULT_255_2_778
10
10.7512247
20
83.1021715
40
0.8003686
50
270.0197735
51
349.9864792
0
LINE
8
DEFAULT_255_2_778
10
12.0469009
20
85.841703
11
11.5865009
21
86.302003
0
LINE
8
DEFAULT_255_2_778
10
11.5865009
20
86.302003
11
12.2440009
21
86.959503
0
LINE
8
DEFAULT_255_2_778
10
12.2440009
20
86.959503
11
12.6679009
21
89.363003
0
LINE
8
DEFAULT_255_2_778
10
11.8802009
20
90.302003
11
9.4431009
21
90.302003
0
LINE
8
DEFAULT_255_2_778
10
8.6552009
20
89.640803
11
8.1477009
21
86.762103
0
LINE
8
DEFAULT_255_2_778
10
8.1477009
20
86.762103
11
8.6081009
21
86.301803
0
LINE
8
DEFAULT_255_2_778
10
8.6081009
20
86.301803
11
7.9506009
21
85.644303
0
LINE
8
DEFAULT_255_2_778
10
7.9506009
20
85.644303
11
7.5267009
21
83.240803
0
LINE
8
DEFAULT_255_2_778
10
8.3144009
20
82.301803
11
10.7515009
21
82.301803
0
LINE
8
DEFAULT_255_2_778
10
11.5394009
20
82.963003
11
12.0469009
21
85.841703
0
LINE
8
DEFAULT_255_2_778
10
10.7515052
20
83.1018427
11
11.2452052
21
85.9019427
0
LINE
8
DEFAULT_255_2_778
10
11.2452052
20
85.9019427
11
8.8081052
21
85.9019427
0
LINE
8
DEFAULT_255_2_778
10
8.8081052
20
85.9019427
11
8.3144052
21
83.1018427
0
LINE
8
DEFAULT_255_2_778
10
8.3144052
20
83.1018427
11
10.7515052
21
83.1018427
0
LINE
8
DEFAULT_255_2_778
10
11.3862052
20
86.7020427
11
11.8799052
21
89.5021427
0
LINE
8
DEFAULT_255_2_778
10
11.8799052
20
89.5021427
11
9.4428052
21
89.5021427
0
LINE
8
DEFAULT_255_2_778
10
9.4428052
20
89.5021427
11
8.9491052
21
86.7020427
0
LINE
8
DEFAULT_255_2_778
10
8.9491052
20
86.7020427
11
11.3862052
21
86.7020427
0
LINE
8
DEFAULT_255_2_778
10
19.0864052
20
86.7020427
11
19.5801052
21
89.5021427
0
LINE
8
DEFAULT_255_2_778
10
19.5801052
20
89.5021427
11
17.1430052
21
89.5021427
0
LINE
8
DEFAULT_255_2_778
10
17.1430052
20
89.5021427
11
16.6493052
21
86.7020427
0
LINE
8
DEFAULT_255_2_778
10
16.6493052
20
86.7020427
11
19.0864052
21
86.7020427
0
LINE
8
DEFAULT_255_2_778
10
18.4517052
20
83.1018427
11
18.9454052
21
85.9019427
0
LINE
8
DEFAULT_255_2_778
10
18.9454052
20
85.9019427
11
16.5083052
21
85.9019427
0
LINE
8
DEFAULT_255_2_778
10
16.5083052
20
85.9019427
11
16.0146052
21
83.1018427
0
LINE
8
DEFAULT_255_2_778
10
16.0146052
20
83.1018427
11
18.4517052
21
83.1018427
0
ARC
8
DEFAULT_255_2_778
10
19.5797414
20
89.5018085
40
0.8001903
50
350.0106189
51
355.0414404
0
ARC
8
DEFAULT_255_2_778
10
19.580304
20
89.5017503
40
0.7996247
50
355.0421162
51
0.0003184
0
ARC
8
DEFAULT_255_2_778
10
19.5782085
20
89.5016098
40
0.8017203
50
0.0103544
51
39.9400612
0
ARC
8
DEFAULT_255_2_778
10
19.5803574
20
89.5025039
40
0.7994991
50
39.9897989
51
90.0183932
0
ARC
8
DEFAULT_255_2_778
10
17.1432773
20
89.5016344
40
0.8003686
50
90.0197948
51
169.9864784
0
ARC
8
DEFAULT_255_2_778
10
16.0146601
20
83.1019975
40
0.8001903
50
170.0106189
51
175.0414404
0
ARC
8
DEFAULT_255_2_778
10
16.0140975
20
83.1020558
40
0.7996247
50
175.0421162
51
180.0003184
0
ARC
8
DEFAULT_255_2_778
10
16.016193
20
83.1021962
40
0.8017203
50
180.0103544
51
219.9400612
0
ARC
8
DEFAULT_255_2_778
10
16.0140441
20
83.1013021
40
0.7994991
50
219.9897989
51
270.0183932
0
ARC
8
DEFAULT_255_2_778
10
18.4511245
20
83.1021715
40
0.8003686
50
270.0197735
51
349.9864792
0
LINE
8
DEFAULT_255_2_778
10
19.7468008
20
85.841703
11
19.2864008
21
86.302003
0
LINE
8
DEFAULT_255_2_778
10
19.2864008
20
86.302003
11
19.9439008
21
86.959503
0
LINE
8
DEFAULT_255_2_778
10
19.9439008
20
86.959503
11
20.3678008
21
89.363003
0
LINE
8
DEFAULT_255_2_778
10
19.5801008
20
90.302003
11
17.1430008
21
90.302003
0
LINE
8
DEFAULT_255_2_778
10
16.3551008
20
89.640803
11
15.8476008
21
86.762103
0
LINE
8
DEFAULT_255_2_778
10
15.8476008
20
86.762103
11
16.3080008
21
86.301803
0
LINE
8
DEFAULT_255_2_778
10
16.3080008
20
86.301803
11
15.6505008
21
85.644303
0
LINE
8
DEFAULT_255_2_778
10
15.6505008
20
85.644303
11
15.2266008
21
83.240803
0
LINE
8
DEFAULT_255_2_778
10
16.0143008
20
82.301803
11
18.4514008
21
82.301803
0
LINE
8
DEFAULT_255_2_778
10
19.2393008
20
82.963003
11
19.7468008
21
85.841703
0
ARC
8
DEFAULT_255_2_778
10
12.5915854
20
82.8032145
40
0.4989492
50
89.8676947
51
180.1322858
0
ARC
8
DEFAULT_255_2_778
10
12.5938114
20
82.8032361
40
0.4989275
50
359.8652243
51
90.1233177
0
ARC
8
DEFAULT_255_2_778
10
12.5938327
20
82.8009673
40
0.4989061
50
269.8742308
51
0.1257692
0
ARC
8
DEFAULT_255_2_778
10
12.5915639
20
82.8009886
40
0.4989275
50
179.8766742
51
270.1347757
0
LINE
8
DEFAULT_255_2_778
10
12.0926375
20
82.8020625
11
12.0926375
21
82.8020625
0
ARC
8
DEFAULT_255_2_778
10
20.2917854
20
82.8032145
40
0.4989492
50
89.8676947
51
180.1322858
0
ARC
8
DEFAULT_255_2_778
10
20.2940114
20
82.8032361
40
0.4989275
50
359.8652243
51
90.1233177
0
ARC
8
DEFAULT_255_2_778
10
20.2940327
20
82.8009673
40
0.4989061
50
269.8742308
51
0.1257692
0
ARC
8
DEFAULT_255_2_778
10
20.2917639
20
82.8009886
40
0.4989275
50
179.8766742
51
270.1347757
0
LINE
8
DEFAULT_255_2_778
10
19.7928375
20
82.8020625
11
19.7928375
21
82.8020625
0
LINE
8
DEFAULT_255_2_778
10
0.8428459
20
3.7020427
11
4.3427459
21
3.7020427
0
LINE
8
DEFAULT_255_2_778
10
0.8428459
20
3.3020427
11
4.3427459
21
3.3020427
0
LINE
8
DEFAULT_255_2_778
10
0.8428459
20
2.9022427
11
4.3427459
21
2.9022427
0
LINE
8
DEFAULT_255_2_778
10
0.8428459
20
2.5021427
11
4.3427459
21
2.5021427
0
LINE
8
DEFAULT_255_2_778
10
0.8427907
20
4.6021569
11
0.8427907
21
1.9020569
0
LINE
8
DEFAULT_255_2_778
10
0.8427907
20
1.9020569
11
4.3426907
21
1.9020569
0
LINE
8
DEFAULT_255_2_778
10
4.3426907
20
1.9020569
11
4.3426907
21
4.6021569
0
LINE
8
DEFAULT_255_2_778
10
5.7425907
20
32.4521569
11
5.7425907
21
8.3520569
0
LINE
8
DEFAULT_255_2_778
10
4.7427907
20
32.4521569
11
4.7427907
21
8.3520569
0
LINE
8
DEFAULT_255_2_778
10
24.3928656
20
24.60205
11
24.6127656
21
24.60205
0
LINE
8
DEFAULT_255_2_778
10
24.6127656
20
24.60205
11
24.6127656
21
25.40215
0
LINE
8
DEFAULT_255_2_778
10
24.6127656
20
25.40215
11
24.3928656
21
25.40215
0
LINE
8
DEFAULT_255_2_778
10
24.3928656
20
25.40215
11
24.3928656
21
24.60205
0
LINE
8
DEFAULT_255_2_778
10
24.3928656
20
20.80205
11
24.6127656
21
20.80205
0
LINE
8
DEFAULT_255_2_778
10
24.6127656
20
20.80205
11
24.6127656
21
21.60215
0
LINE
8
DEFAULT_255_2_778
10
24.6127656
20
21.60215
11
24.3928656
21
21.60215
0
LINE
8
DEFAULT_255_2_778
10
24.3928656
20
21.60215
11
24.3928656
21
20.80205
0
ARC
8
DEFAULT_255_2_778
10
22.3618529
20
75.5061014
40
3.3691445
50
163.0076808
51
180.0648254
0
ARC
8
DEFAULT_255_2_778
10
22.3364175
20
75.5085766
40
3.3441001
50
108.4256332
51
162.9208801
0
ARC
8
DEFAULT_255_2_778
10
22.337387
20
75.4913743
40
3.36073
50
91.0970897
51
108.3486178
0
ARC
8
DEFAULT_255_2_778
10
22.3425859
20
75.4030367
40
3.4491528
50
89.9995905
51
91.1553386
0
ARC
8
DEFAULT_255_2_778
10
22.3464224
20
75.4830471
40
3.3691445
50
73.0076808
51
90.0648254
0
ARC
8
DEFAULT_255_2_778
10
22.3488976
20
75.5084825
40
3.3441001
50
18.4256332
51
72.9208801
0
ARC
8
DEFAULT_255_2_778
10
22.3316953
20
75.507513
40
3.36073
50
1.0970897
51
18.3486178
0
ARC
8
DEFAULT_255_2_778
10
22.2433577
20
75.5023141
40
3.4491528
50
359.9995905
51
1.1553386
0
ARC
8
DEFAULT_255_2_778
10
22.3233682
20
75.4984776
40
3.3691445
50
343.0076808
51
0.0648254
0
ARC
8
DEFAULT_255_2_778
10
22.3488035
20
75.4960024
40
3.3441001
50
288.4256332
51
342.9208801
0
ARC
8
DEFAULT_255_2_778
10
22.347834
20
75.5132047
40
3.36073
50
271.0970897
51
288.3486178
0
ARC
8
DEFAULT_255_2_778
10
22.3426352
20
75.6015423
40
3.4491528
50
269.9995905
51
271.1553386
0
ARC
8
DEFAULT_255_2_778
10
22.3387986
20
75.5215318
40
3.3691445
50
253.0076808
51
270.0648254
0
ARC
8
DEFAULT_255_2_778
10
22.3363234
20
75.4960965
40
3.3441001
50
198.4256332
51
252.9208801
0
ARC
8
DEFAULT_255_2_778
10
22.3535257
20
75.497066
40
3.36073
50
181.0970897
51
198.3486178
0
ARC
8
DEFAULT_255_2_778
10
22.4418633
20
75.5022648
40
3.4491528
50
179.9995905
51
181.1553386
0
LINE
8
DEFAULT_255_2_778
10
18.9927105
20
75.5022895
11
18.9927105
21
75.5022895
0
ARC
8
DEFAULT_255_2_778
10
22.3408702
20
75.5054256
40
1.5482241
50
152.2763776
51
180.1167252
0
ARC
8
DEFAULT_255_2_778
10
22.3389025
20
75.5056219
40
1.5463911
50
98.5949312
51
152.2488995
0
ARC
8
DEFAULT_255_2_778
10
22.3420628
20
75.4776512
40
1.5745204
50
89.9786577
51
98.5565274
0
ARC
8
DEFAULT_255_2_778
10
22.3457909
20
75.503908
40
1.5482667
50
62.2785329
51
90.1162603
0
ARC
8
DEFAULT_255_2_778
10
22.3460816
20
75.5059586
40
1.5463164
50
8.5974974
51
62.252723
0
ARC
8
DEFAULT_255_2_778
10
22.3182914
20
75.5028593
40
1.574258
50
359.9786084
51
8.5578284
0
ARC
8
DEFAULT_255_2_778
10
22.3442983
20
75.4991195
40
1.5482542
50
332.2768762
51
0.1166456
0
ARC
8
DEFAULT_255_2_778
10
22.3463234
20
75.4988669
40
1.5463442
50
278.5655561
51
332.2502544
0
ARC
8
DEFAULT_255_2_778
10
22.343233
20
75.5266164
40
1.5742448
50
269.9787547
51
278.5263546
0
ARC
8
DEFAULT_255_2_778
10
22.3394958
20
75.5008556
40
1.5484872
50
242.2805429
51
270.1166837
0
ARC
8
DEFAULT_255_2_778
10
22.3390817
20
75.4985803
40
1.5462806
50
188.5661278
51
242.2549099
0
ARC
8
DEFAULT_255_2_778
10
22.3669936
20
75.5016896
40
1.5743445
50
179.9788204
51
188.5267184
0
LINE
8
DEFAULT_255_2_778
10
20.7926493
20
75.5022716
11
20.7926493
21
75.5022716
0
LINE
8
DEFAULT_255_2_778
10
4.3427493
20
95.5020716
11
0.8428493
21
95.5020716
0
LINE
8
DEFAULT_255_2_778
10
4.3427493
20
95.9021716
11
0.8428493
21
95.9021716
0
LINE
8
DEFAULT_255_2_778
10
4.3427493
20
96.3021716
11
0.8428493
21
96.3021716
0
LINE
8
DEFAULT_255_2_778
10
4.3427493
20
96.7019716
11
0.8428493
21
96.7019716
0
LINE
8
DEFAULT_255_2_778
10
4.3427493
20
94.6019716
11
4.3427493
21
97.3020716
0
LINE
8
DEFAULT_255_2_778
10
4.3427493
20
97.3020716
11
0.8428493
21
97.3020716
0
LINE
8
DEFAULT_255_2_778
10
0.8428493
20
97.3020716
11
0.8428493
21
94.6019716
0
LINE
8
DEFAULT_255_2_778
10
24.3928493
20
90.5019716
11
24.3928493
21
89.7018716
0
LINE
8
DEFAULT_255_2_778
10
24.3928493
20
89.7018716
11
24.6127493
21
89.7018716
0
LINE
8
DEFAULT_255_2_778
10
24.6127493
20
89.7018716
11
24.6127493
21
90.5019716
0
LINE
8
DEFAULT_255_2_778
10
24.6127493
20
90.5019716
11
24.3928493
21
90.5019716
0
LINE
8
DEFAULT_255_2_778
10
24.3928656
20
88.10205
11
24.6127656
21
88.10205
0
LINE
8
DEFAULT_255_2_778
10
24.6127656
20
88.10205
11
24.6127656
21
88.90215
0
LINE
8
DEFAULT_255_2_778
10
24.6127656
20
88.90215
11
24.3928656
21
88.90215
0
LINE
8
DEFAULT_255_2_778
10
24.3928656
20
88.90215
11
24.3928656
21
88.10205
0
LINE
8
DEFAULT_255_2_778
10
24.3928656
20
86.50205
11
24.6127656
21
86.50205
0
LINE
8
DEFAULT_255_2_778
10
24.6127656
20
86.50205
11
24.6127656
21
87.30215
0
LINE
8
DEFAULT_255_2_778
10
24.6127656
20
87.30215
11
24.3928656
21
87.30215
0
LINE
8
DEFAULT_255_2_778
10
24.3928656
20
87.30215
11
24.3928656
21
86.50205
0
LINE
8
DEFAULT_255_2_778
10
5.7426273
20
12.9018507
11
17.2427273
21
12.9018507
0
LINE
8
DEFAULT_255_2_778
10
17.2427273
20
12.9018507
11
17.2427273
21
20.4019507
0
LINE
8
DEFAULT_255_2_778
10
5.7426273
20
27.9021507
11
17.2427273
21
27.9021507
0
LINE
8
DEFAULT_255_2_778
10
17.2427273
20
27.9021507
11
17.2427273
21
20.4022507
0
LINE
8
DEFAULT_255_2_778
10
4.1927273
20
20.4022507
11
4.1927273
21
32.4521507
0
LINE
8
DEFAULT_255_2_778
10
4.1927273
20
32.4521507
11
6.2927273
21
32.4521507
0
LINE
8
DEFAULT_255_2_778
10
6.2927273
20
32.4521507
11
6.2927273
21
29.5020507
0
LINE
8
DEFAULT_255_2_778
10
6.2927273
20
29.5020507
11
20.6926273
21
29.5020507
0
LINE
8
DEFAULT_255_2_778
10
20.6926273
20
29.5020507
11
20.6926273
21
20.4019507
0
LINE
8
DEFAULT_255_2_778
10
4.1927273
20
20.4019507
11
4.1927273
21
8.3520507
0
LINE
8
DEFAULT_255_2_778
10
4.1927273
20
8.3520507
11
6.2927273
21
8.3520507
0
LINE
8
DEFAULT_255_2_778
10
6.2927273
20
8.3520507
11
6.2927273
21
11.3021507
0
LINE
8
DEFAULT_255_2_778
10
6.2927273
20
11.3021507
11
20.6926273
21
11.3021507
0
LINE
8
DEFAULT_255_2_778
10
20.6926273
20
11.3021507
11
20.6926273
21
20.4022507
0
LINE
8
DEFAULT_255_2_778
10
11.3230273
20
14.4020507
11
6.4729273
21
14.4020507
0
LINE
8
DEFAULT_255_2_778
10
6.4729273
20
14.4020507
11
6.4729273
21
26.4019507
0
LINE
8
DEFAULT_255_2_778
10
6.4729273
20
26.4019507
11
11.3230273
21
26.4019507
0
LINE
8
DEFAULT_255_2_778
10
11.3227273
20
14.4020507
11
13.1727273
21
14.4020507
0
LINE
8
DEFAULT_255_2_778
10
13.1727273
20
14.4020507
11
13.1727273
21
17.2521507
0
LINE
8
DEFAULT_255_2_778
10
13.1727273
20
17.2521507
11
14.6726273
21
17.2521507
0
LINE
8
DEFAULT_255_2_778
10
14.6726273
20
17.2521507
11
14.6726273
21
18.4019507
0
LINE
8
DEFAULT_255_2_778
10
14.6726273
20
18.4019507
11
16.1725273
21
18.4019507
0
LINE
8
DEFAULT_255_2_778
10
16.1725273
20
18.4019507
11
16.1725273
21
22.4019507
0
LINE
8
DEFAULT_255_2_778
10
16.1725273
20
22.4019507
11
14.6726273
21
22.4019507
0
LINE
8
DEFAULT_255_2_778
10
14.6726273
20
22.4019507
11
14.6726273
21
23.5518507
0
LINE
8
DEFAULT_255_2_778
10
14.6726273
20
23.5518507
11
13.1727273
21
23.5518507
0
LINE
8
DEFAULT_255_2_778
10
13.1727273
20
23.5518507
11
13.1727273
21
26.4019507
0
LINE
8
DEFAULT_255_2_778
10
13.1727273
20
26.4019507
11
11.3227273
21
26.4019507
0
ENDSEC
0
EOF