0
SECTION
2
HEADER
9
$MEASUREMENT
70
1
0
ENDSEC
0
SECTION
2
TABLES
0
TABLE
2
LTYPE
0
LTYPE
72
65
70
64
2
CONTINUOUS
3
______
73
0
40
0
0
ENDTAB
0
TABLE
2
LAYER
0
LAYER
2
DEFAULT_255_2_778
70
0
62
255
6
CONTINUOUS
0
ENDTAB
0
ENDSEC
0
SECTION
2
ENTITIES
0
ARC
8
DEFAULT_255_2_778
10
22.3611066
20
75.9912482
40
3.3183856
50
162.8412041
51
180.0658203
0
ARC
8
DEFAULT_255_2_778
10
22.3364849
20
75.9936244
40
3.2941626
50
108.0972205
51
162.754351
0
ARC
8
DEFAULT_255_2_778
10
22.3380615
20
75.9737414
40
3.3135549
50
90.5218052
51
108.0163376
0
ARC
8
DEFAULT_255_2_778
10
22.3426213
20
75.8863552
40
3.400981
50
89.9999687
51
90.5852131
0
ARC
8
DEFAULT_255_2_778
10
22.3464094
20
75.9690972
40
3.3182411
50
72.8298509
51
90.0653758
0
ARC
8
DEFAULT_255_2_778
10
22.3486172
20
75.9929865
40
3.2947683
50
18.101865
51
72.7438941
0
ARC
8
DEFAULT_255_2_778
10
22.3300547
20
75.9919787
40
3.3127287
50
0.5221744
51
18.0186789
0
ARC
8
DEFAULT_255_2_778
10
22.2428622
20
75.987438
40
3.3999611
50
359.9999686
51
0.5853008
0
ARC
8
DEFAULT_255_2_778
10
22.3248526
20
75.9836371
40
3.3179728
50
342.8291516
51
0.0656025
0
ARC
8
DEFAULT_255_2_778
10
22.3488453
20
75.9814552
40
3.294409
50
288.0971057
51
342.7422173
0
ARC
8
DEFAULT_255_2_778
10
22.347475
20
76.0008343
40
3.3132584
50
270.5219318
51
288.0155319
0
ARC
8
DEFAULT_255_2_778
10
22.3429251
20
76.0874971
40
3.3999611
50
269.9999686
51
270.5853008
0
ARC
8
DEFAULT_255_2_778
10
22.3391242
20
76.0055067
40
3.3179728
50
252.8291516
51
270.0656025
0
ARC
8
DEFAULT_255_2_778
10
22.3369423
20
75.981514
40
3.294409
50
198.0971057
51
252.7422173
0
ARC
8
DEFAULT_255_2_778
10
22.3563214
20
75.9828843
40
3.3132584
50
180.5219318
51
198.0155319
0
ARC
8
DEFAULT_255_2_778
10
22.4429842
20
75.9874343
40
3.3999611
50
179.9999686
51
180.5853008
0
ARC
8
DEFAULT_255_2_778
10
9.3613173
20
67.791255
40
3.3185963
50
162.8527331
51
180.0659325
0
ARC
8
DEFAULT_255_2_778
10
9.3363764
20
67.793729
40
3.2940384
50
108.0986099
51
162.7659512
0
ARC
8
DEFAULT_255_2_778
10
9.3380568
20
67.7735918
40
3.3137045
50
90.5217898
51
108.0180626
0
ARC
8
DEFAULT_255_2_778
10
9.3426213
20
67.6853352
40
3.402001
50
89.9999687
51
90.5851254
0
ARC
8
DEFAULT_255_2_778
10
9.3464222
20
67.7693655
40
3.3179728
50
72.8291516
51
90.0656025
0
ARC
8
DEFAULT_255_2_778
10
9.3486041
20
67.7933582
40
3.294409
50
18.0971057
51
72.7422173
0
ARC
8
DEFAULT_255_2_778
10
9.329225
20
67.7919879
40
3.3132584
50
0.5219318
51
18.0155319
0
ARC
8
DEFAULT_255_2_778
10
9.2425622
20
67.787438
40
3.3999611
50
359.9999686
51
0.5853008
0
ARC
8
DEFAULT_255_2_778
10
9.3245526
20
67.7836371
40
3.3179728
50
342.8291516
51
0.0656025
0
ARC
8
DEFAULT_255_2_778
10
9.3485453
20
67.7814552
40
3.294409
50
288.0971057
51
342.7422173
0
ARC
8
DEFAULT_255_2_778
10
9.347175
20
67.8008343
40
3.3132584
50
270.5219318
51
288.0155319
0
ARC
8
DEFAULT_255_2_778
10
9.3426251
20
67.8874971
40
3.3999611
50
269.9999686
51
270.5853008
0
ARC
8
DEFAULT_255_2_778
10
9.3388242
20
67.8055067
40
3.3179728
50
252.8291516
51
270.0656025
0
ARC
8
DEFAULT_255_2_778
10
9.3366423
20
67.781514
40
3.294409
50
198.0971057
51
252.7422173
0
ARC
8
DEFAULT_255_2_778
10
9.3560214
20
67.7828843
40
3.3132584
50
180.5219318
51
198.0155319
0
ARC
8
DEFAULT_255_2_778
10
9.4426842
20
67.7874343
40
3.3999611
50
179.9999686
51
180.5853008
0
ARC
8
DEFAULT_255_2_778
10
22.3613173
20
67.791255
40
3.3185963
50
162.8527331
51
180.0659325
0
ARC
8
DEFAULT_255_2_778
10
22.3363764
20
67.793729
40
3.2940384
50
108.0986099
51
162.7659512
0
ARC
8
DEFAULT_255_2_778
10
22.3380568
20
67.7735918
40
3.3137045
50
90.5217898
51
108.0180626
0
ARC
8
DEFAULT_255_2_778
10
22.3426213
20
67.6853352
40
3.402001
50
89.9999687
51
90.5851254
0
ARC
8
DEFAULT_255_2_778
10
22.3464094
20
67.7690972
40
3.3182411
50
72.8298509
51
90.0653758
0
ARC
8
DEFAULT_255_2_778
10
22.3486172
20
67.7929865
40
3.2947683
50
18.101865
51
72.7438941
0
ARC
8
DEFAULT_255_2_778
10
22.3300547
20
67.7919787
40
3.3127287
50
0.5221744
51
18.0186789
0
ARC
8
DEFAULT_255_2_778
10
22.2428622
20
67.787438
40
3.3999611
50
359.9999686
51
0.5853008
0
ARC
8
DEFAULT_255_2_778
10
22.3248526
20
67.7836371
40
3.3179728
50
342.8291516
51
0.0656025
0
ARC
8
DEFAULT_255_2_778
10
22.3488453
20
67.7814552
40
3.294409
50
288.0971057
51
342.7422173
0
ARC
8
DEFAULT_255_2_778
10
22.347475
20
67.8008343
40
3.3132584
50
270.5219318
51
288.0155319
0
ARC
8
DEFAULT_255_2_778
10
22.3429251
20
67.8874971
40
3.3999611
50
269.9999686
51
270.5853008
0
ARC
8
DEFAULT_255_2_778
10
22.3391242
20
67.8055067
40
3.3179728
50
252.8291516
51
270.0656025
0
ARC
8
DEFAULT_255_2_778
10
22.3369423
20
67.781514
40
3.294409
50
198.0971057
51
252.7422173
0
ARC
8
DEFAULT_255_2_778
10
22.3563214
20
67.7828843
40
3.3132584
50
180.5219318
51
198.0155319
0
ARC
8
DEFAULT_255_2_778
10
22.4429842
20
67.7874343
40
3.3999611
50
179.9999686
51
180.5853008
0
LINE
8
DEFAULT_255_2_778
10
25.6428232
20
89.3872361
11
25.6428232
21
88.5871361
0
LINE
8
DEFAULT_255_2_778
10
25.6428232
20
88.5871361
11
26.8427232
21
88.5871361
0
LINE
8
DEFAULT_255_2_778
10
26.8427232
20
88.5871361
11
26.8427232
21
89.3872361
0
LINE
8
DEFAULT_255_2_778
10
26.8427232
20
89.3872361
11
25.6428232
21
89.3872361
0
LINE
8
DEFAULT_255_2_778
10
19.0430232
20
75.9874361
11
19.0427232
21
75.9874361
0
LINE
8
DEFAULT_255_2_778
10
6.0427232
20
67.7874361
11
6.0427232
21
67.7874361
0
LINE
8
DEFAULT_255_2_778
10
19.0430232
20
67.7874361
11
19.0427232
21
67.7874361
0
LINE
8
DEFAULT_255_2_778
10
21.5924315
20
90.18705
11
21.5924315
21
90.98715
0
LINE
8
DEFAULT_255_2_778
10
21.5924315
20
90.98715
11
20.3926315
21
90.98715
0
LINE
8
DEFAULT_255_2_778
10
20.3926315
20
90.98715
11
20.3926315
21
90.18705
0
LINE
8
DEFAULT_255_2_778
10
20.3926315
20
90.18705
11
21.5924315
21
90.18705
0
LINE
8
DEFAULT_255_2_778
10
21.5924315
20
88.58715
11
21.5924315
21
89.38725
0
LINE
8
DEFAULT_255_2_778
10
21.5924315
20
89.38725
11
20.3926315
21
89.38725
0
LINE
8
DEFAULT_255_2_778
10
20.3926315
20
89.38725
11
20.3926315
21
88.58715
0
LINE
8
DEFAULT_255_2_778
10
20.3926315
20
88.58715
11
21.5924315
21
88.58715
0
LINE
8
DEFAULT_255_2_778
10
16.3426315
20
88.58715
11
16.3426315
21
89.38725
0
LINE
8
DEFAULT_255_2_778
10
16.3426315
20
89.38725
11
15.1427315
21
89.38725
0
LINE
8
DEFAULT_255_2_778
10
15.1427315
20
89.38725
11
15.1427315
21
88.58715
0
LINE
8
DEFAULT_255_2_778
10
15.1427315
20
88.58715
11
16.3426315
21
88.58715
0
LINE
8
DEFAULT_255_2_778
10
16.3426315
20
90.18705
11
16.3426315
21
90.98715
0
LINE
8
DEFAULT_255_2_778
10
16.3426315
20
90.98715
11
15.1427315
21
90.98715
0
LINE
8
DEFAULT_255_2_778
10
15.1427315
20
90.98715
11
15.1427315
21
90.18705
0
LINE
8
DEFAULT_255_2_778
10
15.1427315
20
90.18705
11
16.3426315
21
90.18705
0
LINE
8
DEFAULT_255_2_778
10
4.6427315
20
90.98715
11
4.6427315
21
90.18705
0
LINE
8
DEFAULT_255_2_778
10
4.6427315
20
90.18705
11
5.8426315
21
90.18705
0
LINE
8
DEFAULT_255_2_778
10
5.8426315
20
90.18705
11
5.8426315
21
90.98715
0
LINE
8
DEFAULT_255_2_778
10
5.8426315
20
90.98715
11
4.6427315
21
90.98715
0
LINE
8
DEFAULT_255_2_778
10
4.6427315
20
89.38725
11
4.6427315
21
88.58715
0
LINE
8
DEFAULT_255_2_778
10
4.6427315
20
88.58715
11
5.8426315
21
88.58715
0
LINE
8
DEFAULT_255_2_778
10
5.8426315
20
88.58715
11
5.8426315
21
89.38725
0
LINE
8
DEFAULT_255_2_778
10
5.8426315
20
89.38725
11
4.6427315
21
89.38725
0
LINE
8
DEFAULT_255_2_778
10
9.8928315
20
90.18735
11
11.0927315
21
90.18735
0
LINE
8
DEFAULT_255_2_778
10
11.0927315
20
90.18735
11
11.0927315
21
90.98745
0
LINE
8
DEFAULT_255_2_778
10
11.0927315
20
90.98745
11
9.8928315
21
90.98745
0
LINE
8
DEFAULT_255_2_778
10
9.8928315
20
90.98745
11
9.8928315
21
90.18735
0
LINE
8
DEFAULT_255_2_778
10
11.0927315
20
89.38725
11
9.8928315
21
89.38725
0
LINE
8
DEFAULT_255_2_778
10
9.8928315
20
89.38725
11
9.8928315
21
88.58715
0
LINE
8
DEFAULT_255_2_778
10
9.8928315
20
88.58715
11
11.0927315
21
88.58715
0
LINE
8
DEFAULT_255_2_778
10
11.0927315
20
88.58715
11
11.0927315
21
89.38725
0
LINE
8
DEFAULT_255_2_778
10
31.2426473
20
95.0871352
11
31.2426473
21
5.0872352
0
LINE
8
DEFAULT_255_2_778
10
31.2426473
20
5.0872352
11
0.2427473
21
5.0872352
0
LINE
8
DEFAULT_255_2_778
10
0.2427473
20
5.0872352
11
0.2427473
21
95.0871352
0
LINE
8
DEFAULT_255_2_778
10
0.2427473
20
95.0871352
11
31.2426473
21
95.0871352
0
LINE
8
DEFAULT_255_2_778
10
6.2926952
20
32.9373059
11
4.1926952
21
32.9373059
0
LINE
8
DEFAULT_255_2_778
10
4.1926952
20
32.9373059
11
4.1926952
21
8.8372059
0
LINE
8
DEFAULT_255_2_778
10
4.1926952
20
8.8372059
11
6.2926952
21
8.8372059
0
LINE
8
DEFAULT_255_2_778
10
6.2926952
20
8.8372059
11
6.2926952
21
11.7873059
0
LINE
8
DEFAULT_255_2_778
10
6.2926952
20
11.7873059
11
20.6925952
21
11.7873059
0
LINE
8
DEFAULT_255_2_778
10
20.6925952
20
11.7873059
11
20.6925952
21
29.9872059
0
LINE
8
DEFAULT_255_2_778
10
20.6925952
20
29.9872059
11
6.2926952
21
29.9872059
0
LINE
8
DEFAULT_255_2_778
10
6.2926952
20
29.9872059
11
6.2926952
21
32.9373059
0
LINE
8
DEFAULT_255_2_778
10
19.2704952
20
22.4114059
11
16.5526952
21
22.4114059
0
LINE
8
DEFAULT_255_2_778
10
16.5526952
20
22.4114059
11
16.5526952
21
26.8437059
0
LINE
8
DEFAULT_255_2_778
10
16.5526952
20
26.8437059
11
8.9326952
21
26.8437059
0
LINE
8
DEFAULT_255_2_778
10
8.9326952
20
26.8437059
11
8.9326952
21
14.9311059
0
LINE
8
DEFAULT_255_2_778
10
8.9326952
20
14.9311059
11
16.5526952
21
14.9311059
0
LINE
8
DEFAULT_255_2_778
10
16.5526952
20
14.9311059
11
16.5526952
21
19.3634059
0
LINE
8
DEFAULT_255_2_778
10
16.5526952
20
19.3634059
11
19.2704952
21
19.3634059
0
LINE
8
DEFAULT_255_2_778
10
19.2704952
20
19.3634059
11
19.2704952
21
22.4114059
0
LINE
8
DEFAULT_255_2_778
10
8.9326952
20
17.2044059
11
17.7464952
21
17.2044059
0
LINE
8
DEFAULT_255_2_778
10
17.7464952
20
17.2044059
11
17.7464952
21
17.7124059
0
LINE
8
DEFAULT_255_2_778
10
17.7464952
20
17.7124059
11
18.2544952
21
17.7124059
0
LINE
8
DEFAULT_255_2_778
10
18.2544952
20
17.7124059
11
18.2544952
21
24.0624059
0
LINE
8
DEFAULT_255_2_778
10
18.2544952
20
24.0624059
11
17.7464952
21
24.0624059
0
LINE
8
DEFAULT_255_2_778
10
17.7464952
20
24.0624059
11
17.7464952
21
24.5704059
0
LINE
8
DEFAULT_255_2_778
10
17.7464952
20
24.5704059
11
8.9326952
21
24.5704059
0
LINE
8
DEFAULT_255_2_778
10
6.5180952
20
29.0789059
11
6.5180952
21
12.6959059
0
LINE
8
DEFAULT_255_2_778
10
6.5180952
20
12.6959059
11
19.6625952
21
12.6959059
0
LINE
8
DEFAULT_255_2_778
10
19.6625952
20
12.6959059
11
19.6625952
21
29.0789059
0
LINE
8
DEFAULT_255_2_778
10
19.6625952
20
29.0789059
11
6.5180952
21
29.0789059
0
LINE
8
DEFAULT_255_2_778
10
0.7927952
20
2.7872059
11
4.2926952
21
2.7872059
0
LINE
8
DEFAULT_255_2_778
10
0.7927952
20
3.1873059
11
4.2926952
21
3.1873059
0
LINE
8
DEFAULT_255_2_778
10
0.7927952
20
3.5873059
11
4.2926952
21
3.5873059
0
LINE
8
DEFAULT_255_2_778
10
0.7927952
20
5.0873059
11
0.7927952
21
2.3872059
0
LINE
8
DEFAULT_255_2_778
10
0.7927952
20
2.3872059
11
4.2926952
21
2.3872059
0
LINE
8
DEFAULT_255_2_778
10
4.2926952
20
2.3872059
11
4.2926952
21
5.0873059
0
LINE
8
DEFAULT_255_2_778
10
4.2926952
20
97.3872059
11
0.7927952
21
97.3872059
0
LINE
8
DEFAULT_255_2_778
10
4.2926952
20
96.9871059
11
0.7927952
21
96.9871059
0
LINE
8
DEFAULT_255_2_778
10
4.2926952
20
96.5871059
11
0.7927952
21
96.5871059
0
LINE
8
DEFAULT_255_2_778
10
4.2926952
20
95.0871059
11
4.2926952
21
97.7872059
0
LINE
8
DEFAULT_255_2_778
10
4.2926952
20
97.7872059
11
0.7927952
21
97.7872059
0
LINE
8
DEFAULT_255_2_778
10
0.7927952
20
97.7872059
11
0.7927952
21
95.0871059
0
LINE
8
DEFAULT_255_2_778
10
14.7926952
20
5.0873059
11
14.7926952
21
1.7874059
0
LINE
8
DEFAULT_255_2_778
10
14.7926952
20
1.7874059
11
16.7926952
21
-0.2125941
0
LINE
8
DEFAULT_255_2_778
10
16.7926952
20
-0.2125941
11
24.7925952
21
-0.2125941
0
LINE
8
DEFAULT_255_2_778
10
24.7925952
20
-0.2125941
11
26.7925952
21
1.7874059
0
LINE
8
DEFAULT_255_2_778
10
26.7925952
20
1.7874059
11
26.7925952
21
5.0873059
0
ENDSEC
0
EOF