0
SECTION
2
HEADER
9
$MEASUREMENT
70
1
0
ENDSEC
0
SECTION
2
TABLES
0
TABLE
2
LTYPE
0
LTYPE
72
65
70
64
2
CONTINUOUS
3
______
73
0
40
0
0
ENDTAB
0
TABLE
2
LAYER
0
LAYER
2
DEFAULT_255_2_778
70
0
62
255
6
CONTINUOUS
0
ENDTAB
0
ENDSEC
0
SECTION
2
ENTITIES
0
LINE
8
DEFAULT_255_2_778
10
65.1759394
20
4.6023675
11
0.1760394
21
4.6023675
0
LINE
8
DEFAULT_255_2_778
10
0.1760394
20
4.6023675
11
0.1760394
21
94.6024675
0
LINE
8
DEFAULT_255_2_778
10
0.1760394
20
94.6024675
11
65.1759394
21
94.6024675
0
LINE
8
DEFAULT_255_2_778
10
65.1759394
20
94.6024675
11
65.1759394
21
92.6024675
0
LINE
8
DEFAULT_255_2_778
10
65.1759394
20
92.6024675
11
60.4259394
21
92.6024675
0
LINE
8
DEFAULT_255_2_778
10
60.4259394
20
92.6024675
11
60.4259394
21
70.1025675
0
LINE
8
DEFAULT_255_2_778
10
60.4259394
20
70.1025675
11
65.1759394
21
70.1025675
0
LINE
8
DEFAULT_255_2_778
10
65.1759394
20
70.1025675
11
65.1759394
21
67.6025675
0
LINE
8
DEFAULT_255_2_778
10
65.1759394
20
67.6025675
11
61.1760394
21
67.6025675
0
LINE
8
DEFAULT_255_2_778
10
61.1760394
20
67.6025675
11
61.1760394
21
32.2025675
0
LINE
8
DEFAULT_255_2_778
10
61.1760394
20
32.2025675
11
65.1759394
21
32.2025675
0
LINE
8
DEFAULT_255_2_778
10
14.6760195
20
4.8025766
11
14.8760195
21
4.8025766
0
LINE
8
DEFAULT_255_2_778
10
31.6760195
20
10.6024766
11
31.6760195
21
7.6023766
0
LINE
8
DEFAULT_255_2_778
10
31.6760195
20
7.6023766
11
26.6759195
21
7.6023766
0
LINE
8
DEFAULT_255_2_778
10
26.6759195
20
7.6023766
11
26.6759195
21
10.6024766
0
LINE
8
DEFAULT_255_2_778
10
26.6759195
20
10.6024766
11
31.6760195
21
10.6024766
0
LINE
8
DEFAULT_255_2_778
10
42.0760195
20
4.6025766
11
42.0760195
21
3.7024766
0
LINE
8
DEFAULT_255_2_778
10
42.0760195
20
3.7024766
11
41.2759195
21
3.7024766
0
LINE
8
DEFAULT_255_2_778
10
41.2759195
20
3.7024766
11
41.2759195
21
3.3023766
0
LINE
8
DEFAULT_255_2_778
10
41.2759195
20
3.3023766
11
40.2758195
21
3.3023766
0
LINE
8
DEFAULT_255_2_778
10
40.2758195
20
3.3023766
11
40.2758195
21
2.9023766
0
LINE
8
DEFAULT_255_2_778
10
40.2758195
20
2.9023766
11
39.0759195
21
2.9023766
0
LINE
8
DEFAULT_255_2_778
10
39.0759195
20
2.9023766
11
39.0759195
21
2.5022766
0
LINE
8
DEFAULT_255_2_778
10
39.0759195
20
2.5022766
11
37.5760195
21
2.5022766
0
LINE
8
DEFAULT_255_2_778
10
37.5760195
20
2.5022766
11
37.5760195
21
1.9021766
0
LINE
8
DEFAULT_255_2_778
10
37.5760195
20
1.9021766
11
32.5759195
21
1.9021766
0
LINE
8
DEFAULT_255_2_778
10
32.5759195
20
1.9021766
11
32.5759195
21
2.5022766
0
LINE
8
DEFAULT_255_2_778
10
32.5759195
20
2.5022766
11
31.0759195
21
2.5022766
0
LINE
8
DEFAULT_255_2_778
10
31.0759195
20
2.5022766
11
31.0759195
21
2.9023766
0
LINE
8
DEFAULT_255_2_778
10
31.0759195
20
2.9023766
11
29.8760195
21
2.9023766
0
LINE
8
DEFAULT_255_2_778
10
29.8760195
20
2.9023766
11
29.8760195
21
3.3023766
0
LINE
8
DEFAULT_255_2_778
10
29.8760195
20
3.3023766
11
28.8759195
21
3.3023766
0
LINE
8
DEFAULT_255_2_778
10
28.8759195
20
3.3023766
11
28.8759195
21
3.7024766
0
LINE
8
DEFAULT_255_2_778
10
28.8759195
20
3.7024766
11
28.0758195
21
3.7024766
0
LINE
8
DEFAULT_255_2_778
10
28.0758195
20
3.7024766
11
28.0758195
21
4.6025766
0
LINE
8
DEFAULT_255_2_778
10
52.3262195
20
10.6024766
11
52.3262195
21
7.6023766
0
LINE
8
DEFAULT_255_2_778
10
52.3262195
20
7.6023766
11
47.3261195
21
7.6023766
0
LINE
8
DEFAULT_255_2_778
10
47.3261195
20
7.6023766
11
47.3261195
21
10.6024766
0
LINE
8
DEFAULT_255_2_778
10
47.3261195
20
10.6024766
11
52.3262195
21
10.6024766
0
LINE
8
DEFAULT_255_2_778
10
61.1760195
20
4.6022766
11
61.1760195
21
-0.1978234
0
LINE
8
DEFAULT_255_2_778
10
61.1760195
20
-0.1978234
11
65.1760195
21
-0.1978234
0
LINE
8
DEFAULT_255_2_778
10
65.1760195
20
-0.1978234
11
65.1760195
21
32.4023766
0
LINE
8
DEFAULT_255_2_778
10
65.1760195
20
32.4023766
11
63.6760195
21
34.9023766
0
LINE
8
DEFAULT_255_2_778
10
63.6760195
20
34.9023766
11
63.1760195
21
34.9023766
0
LINE
8
DEFAULT_255_2_778
10
63.1760195
20
34.9023766
11
63.1760195
21
32.2022766
0
LINE
8
DEFAULT_255_2_778
10
61.1760195
20
1.8025143
11
65.1760195
21
1.8025143
0
LINE
8
DEFAULT_255_2_778
10
14.8760195
20
94.4024143
11
14.6760195
21
94.4024143
0
LINE
8
DEFAULT_255_2_778
10
31.6760195
20
88.6025143
11
31.6760195
21
91.6026143
0
LINE
8
DEFAULT_255_2_778
10
31.6760195
20
91.6026143
11
26.6759195
21
91.6026143
0
LINE
8
DEFAULT_255_2_778
10
26.6759195
20
91.6026143
11
26.6759195
21
88.6025143
0
LINE
8
DEFAULT_255_2_778
10
26.6759195
20
88.6025143
11
31.6760195
21
88.6025143
0
LINE
8
DEFAULT_255_2_778
10
42.0760195
20
94.6024143
11
42.0760195
21
95.5025143
0
LINE
8
DEFAULT_255_2_778
10
42.0760195
20
95.5025143
11
41.2759195
21
95.5025143
0
LINE
8
DEFAULT_255_2_778
10
41.2759195
20
95.5025143
11
41.2759195
21
95.9026143
0
LINE
8
DEFAULT_255_2_778
10
41.2759195
20
95.9026143
11
40.2758195
21
95.9026143
0
LINE
8
DEFAULT_255_2_778
10
40.2758195
20
95.9026143
11
40.2758195
21
96.3024143
0
LINE
8
DEFAULT_255_2_778
10
40.2758195
20
96.3024143
11
39.0759195
21
96.3024143
0
LINE
8
DEFAULT_255_2_778
10
39.0759195
20
96.3024143
11
39.0759195
21
96.7024143
0
LINE
8
DEFAULT_255_2_778
10
39.0759195
20
96.7024143
11
37.5760195
21
96.7024143
0
LINE
8
DEFAULT_255_2_778
10
37.5760195
20
96.7024143
11
37.5760195
21
97.3025143
0
LINE
8
DEFAULT_255_2_778
10
37.5760195
20
97.3025143
11
32.5759195
21
97.3025143
0
LINE
8
DEFAULT_255_2_778
10
32.5759195
20
97.3025143
11
32.5759195
21
96.7024143
0
LINE
8
DEFAULT_255_2_778
10
32.5759195
20
96.7024143
11
31.0759195
21
96.7024143
0
LINE
8
DEFAULT_255_2_778
10
31.0759195
20
96.7024143
11
31.0759195
21
96.3024143
0
LINE
8
DEFAULT_255_2_778
10
31.0759195
20
96.3024143
11
29.8760195
21
96.3024143
0
LINE
8
DEFAULT_255_2_778
10
29.8760195
20
96.3024143
11
29.8760195
21
95.9023143
0
LINE
8
DEFAULT_255_2_778
10
29.8760195
20
95.9023143
11
28.8759195
21
95.9023143
0
LINE
8
DEFAULT_255_2_778
10
28.8759195
20
95.9023143
11
28.8759195
21
95.5023143
0
LINE
8
DEFAULT_255_2_778
10
28.8759195
20
95.5023143
11
28.0758195
21
95.5023143
0
LINE
8
DEFAULT_255_2_778
10
28.0758195
20
95.5023143
11
28.0758195
21
94.6022143
0
LINE
8
DEFAULT_255_2_778
10
52.3262195
20
88.6025143
11
52.3262195
21
91.6026143
0
LINE
8
DEFAULT_255_2_778
10
52.3262195
20
91.6026143
11
47.3261195
21
91.6026143
0
LINE
8
DEFAULT_255_2_778
10
47.3261195
20
91.6026143
11
47.3261195
21
88.6025143
0
LINE
8
DEFAULT_255_2_778
10
47.3261195
20
88.6025143
11
52.3262195
21
88.6025143
0
LINE
8
DEFAULT_255_2_778
10
65.1760195
20
92.3524143
11
60.6759195
21
92.3524143
0
LINE
8
DEFAULT_255_2_778
10
60.6759195
20
92.3524143
11
60.6759195
21
70.3523143
0
LINE
8
DEFAULT_255_2_778
10
60.6759195
20
70.3523143
11
65.1760195
21
70.3523143
0
LINE
8
DEFAULT_255_2_778
10
65.1760195
20
70.3523143
11
65.1760195
21
92.3524143
0
LINE
8
DEFAULT_255_2_778
10
64.9759925
20
70.3525675
11
64.9759925
21
70.1025675
0
LINE
8
DEFAULT_255_2_778
10
64.9759925
20
92.6024675
11
64.9759925
21
92.3524675
0
LINE
8
DEFAULT_255_2_778
10
14.8760925
20
4.6023675
11
14.8760925
21
7.5024675
0
LINE
8
DEFAULT_255_2_778
10
14.8760925
20
7.5024675
11
7.3761925
21
7.5024675
0
LINE
8
DEFAULT_255_2_778
10
7.3761925
20
7.5024675
11
7.3761925
21
91.7023675
0
LINE
8
DEFAULT_255_2_778
10
7.3761925
20
91.7023675
11
14.8760925
21
91.7023675
0
LINE
8
DEFAULT_255_2_778
10
14.8760925
20
91.7023675
11
14.8760925
21
94.6024675
0
LINE
8
DEFAULT_255_2_778
10
14.6760925
20
4.6023675
11
14.6760925
21
7.3023675
0
LINE
8
DEFAULT_255_2_778
10
14.6760925
20
7.3023675
11
7.1761925
21
7.3023675
0
LINE
8
DEFAULT_255_2_778
10
7.1761925
20
7.3023675
11
7.1761925
21
91.9023675
0
LINE
8
DEFAULT_255_2_778
10
7.1761925
20
91.9023675
11
14.6760925
21
91.9023675
0
LINE
8
DEFAULT_255_2_778
10
14.6760925
20
91.9023675
11
14.6760925
21
94.6024675
0
LINE
8
DEFAULT_255_2_778
10
51.3258925
20
45.1026675
11
51.3258925
21
44.0524675
0
LINE
8
DEFAULT_255_2_778
10
51.3258925
20
44.0524675
11
48.5260925
21
44.0524675
0
LINE
8
DEFAULT_255_2_778
10
48.5260925
20
44.0524675
11
48.5260925
21
45.1026675
0
LINE
8
DEFAULT_255_2_778
10
48.5260925
20
45.1026675
11
45.8259925
21
45.1026675
0
LINE
8
DEFAULT_255_2_778
10
45.8259925
20
45.1026675
11
45.8259925
21
42.4025675
0
LINE
8
DEFAULT_255_2_778
10
45.8259925
20
42.4025675
11
46.6260925
21
42.4025675
0
LINE
8
DEFAULT_255_2_778
10
46.6260925
20
42.4025675
11
46.6260925
21
17.4025675
0
LINE
8
DEFAULT_255_2_778
10
46.6260925
20
17.4025675
11
45.8259925
21
17.4025675
0
LINE
8
DEFAULT_255_2_778
10
45.8259925
20
17.4025675
11
45.8259925
21
14.7025675
0
LINE
8
DEFAULT_255_2_778
10
45.8259925
20
14.7025675
11
48.5260925
21
14.7025675
0
LINE
8
DEFAULT_255_2_778
10
48.5260925
20
14.7025675
11
48.5260925
21
15.7523675
0
LINE
8
DEFAULT_255_2_778
10
48.5260925
20
15.7523675
11
51.3261925
21
15.7523675
0
LINE
8
DEFAULT_255_2_778
10
51.3261925
20
15.7523675
11
51.3261925
21
14.7025675
0
LINE
8
DEFAULT_255_2_778
10
51.3261925
20
14.7025675
11
54.0261925
21
14.7025675
0
LINE
8
DEFAULT_255_2_778
10
54.0261925
20
14.7025675
11
54.0261925
21
17.4025675
0
LINE
8
DEFAULT_255_2_778
10
54.0261925
20
17.4025675
11
53.2260925
21
17.4025675
0
LINE
8
DEFAULT_255_2_778
10
53.2260925
20
17.4025675
11
53.2260925
21
42.4025675
0
LINE
8
DEFAULT_255_2_778
10
53.2260925
20
42.4025675
11
54.0261925
21
42.4025675
0
LINE
8
DEFAULT_255_2_778
10
54.0261925
20
42.4025675
11
54.0261925
21
45.1026675
0
LINE
8
DEFAULT_255_2_778
10
54.0261925
20
45.1026675
11
51.3261925
21
45.1026675
0
LINE
8
DEFAULT_255_2_778
10
55.2260925
20
46.3024675
11
44.6260925
21
46.3024675
0
LINE
8
DEFAULT_255_2_778
10
44.6260925
20
46.3024675
11
44.6260925
21
13.5023675
0
LINE
8
DEFAULT_255_2_778
10
44.6260925
20
13.5023675
11
55.2260925
21
13.5023675
0
LINE
8
DEFAULT_255_2_778
10
55.2260925
20
13.5023675
11
55.2260925
21
46.3024675
0
LINE
8
DEFAULT_255_2_778
10
55.2260925
20
31.4024675
11
56.7259925
21
31.4024675
0
LINE
8
DEFAULT_255_2_778
10
56.7259925
20
31.4024675
11
56.7259925
21
47.8024675
0
LINE
8
DEFAULT_255_2_778
10
56.7259925
20
47.8024675
11
43.1258925
21
47.8024675
0
LINE
8
DEFAULT_255_2_778
10
43.1258925
20
47.8024675
11
43.1258925
21
12.0024675
0
LINE
8
DEFAULT_255_2_778
10
43.1258925
20
12.0024675
11
56.7259925
21
12.0024675
0
LINE
8
DEFAULT_255_2_778
10
56.7259925
20
12.0024675
11
56.7259925
21
28.4023675
0
LINE
8
DEFAULT_255_2_778
10
56.7259925
20
28.4023675
11
55.2260925
21
28.4023675
0
LINE
8
DEFAULT_255_2_778
10
52.726047
20
42.9026371
11
47.126147
21
42.9026371
0
LINE
8
DEFAULT_255_2_778
10
47.126147
20
42.9026371
11
47.126147
21
16.9025371
0
LINE
8
DEFAULT_255_2_778
10
47.126147
20
16.9025371
11
52.726047
21
16.9025371
0
LINE
8
DEFAULT_255_2_778
10
52.726047
20
16.9025371
11
52.726047
21
42.9026371
0
LINE
8
DEFAULT_255_2_778
10
52.0259021
20
42.4025747
11
50.8260021
21
42.4025747
0
LINE
8
DEFAULT_255_2_778
10
50.8260021
20
42.4025747
11
50.8260021
21
17.4026747
0
LINE
8
DEFAULT_255_2_778
10
50.8260021
20
17.4026747
11
52.0259021
21
17.4026747
0
LINE
8
DEFAULT_255_2_778
10
52.0259021
20
17.4026747
11
52.0259021
21
42.4025747
0
LINE
8
DEFAULT_255_2_778
10
49.0258021
20
42.4025747
11
47.8259021
21
42.4025747
0
LINE
8
DEFAULT_255_2_778
10
47.8259021
20
42.4025747
11
47.8259021
21
17.4026747
0
LINE
8
DEFAULT_255_2_778
10
47.8259021
20
17.4026747
11
49.0258021
21
17.4026747
0
LINE
8
DEFAULT_255_2_778
10
49.0258021
20
17.4026747
11
49.0258021
21
42.4025747
0
ENDSEC
0
EOF