0
SECTION
2
HEADER
9
$MEASUREMENT
70
1
0
ENDSEC
0
SECTION
2
TABLES
0
TABLE
2
LTYPE
0
LTYPE
72
65
70
64
2
CONTINUOUS
3
______
73
0
40
0
0
ENDTAB
0
TABLE
2
LAYER
0
LAYER
2
DEFAULT_255_2_778
70
0
62
255
6
CONTINUOUS
0
LAYER
2
DEFAULT_255_1_234
70
0
62
255
6
CONTINUOUS
0
ENDTAB
0
ENDSEC
0
SECTION
2
ENTITIES
0
ARC
8
DEFAULT_255_2_778
10
3.5700693
20
59.9302032
40
0.7914215
50
129.1312896
51
180.1450914
0
ARC
8
DEFAULT_255_2_778
10
3.5703345
20
59.9306904
40
0.7912112
50
89.854026
51
129.1684493
0
ARC
8
DEFAULT_255_2_778
10
25.7993937
20
59.9303769
40
0.7915249
50
39.4792447
51
90.147911
0
ARC
8
DEFAULT_255_2_778
10
25.7999935
20
59.9302236
40
0.7911595
50
359.8533901
51
39.5154338
0
ARC
8
DEFAULT_255_2_778
10
25.7996693
20
-1.986349
40
0.7914836
50
309.4761667
51
0.1482649
0
ARC
8
DEFAULT_255_2_778
10
25.799398
20
-1.9867801
40
0.7913235
50
269.8517415
51
309.511178
0
ARC
8
DEFAULT_255_2_778
10
3.570342
20
-1.9867219
40
0.7913815
50
219.1282118
51
270.1454017
0
ARC
8
DEFAULT_255_2_778
10
3.5700247
20
-1.9863394
40
0.7913769
50
179.8524075
51
219.1641908
0
LINE
8
DEFAULT_255_2_778
10
3.5723503
20
60.7218991
11
25.7973503
21
60.7218991
0
LINE
8
DEFAULT_255_2_778
10
26.5911503
20
59.9281991
11
26.5911503
21
-1.9843009
0
LINE
8
DEFAULT_255_2_778
10
25.7973503
20
-2.7781009
11
3.5723503
21
-2.7781009
0
LINE
8
DEFAULT_255_2_778
10
2.7786503
20
-1.9843009
11
2.7786503
21
59.9281991
0
LINE
8
DEFAULT_255_1_234
10
8.922623
20
-0.2802337
11
9.0776355
21
-0.2802337
0
LINE
8
DEFAULT_255_1_234
10
8.1772777
20
-0.1212053
11
8.1772777
21
-0.0087609
0
LINE
8
DEFAULT_255_1_234
10
9.0776355
20
0.1422357
11
8.922623
21
0.1422357
0
LINE
8
DEFAULT_255_1_234
10
8.3322902
20
-0.0127768
11
8.3322902
21
-0.1260243
0
ARC
8
DEFAULT_255_1_234
10
8.5295742
20
-0.2205154
40
0.5513052
50
340.1774281
51
353.7814284
0
ARC
8
DEFAULT_255_1_234
10
8.6867095
20
-0.2790418
40
0.3836379
50
311.4558989
51
340.4421614
0
ARC
8
DEFAULT_255_1_234
10
8.6833763
20
-0.2679472
40
0.3941894
50
282.4333181
51
310.7513653
0
ARC
8
DEFAULT_255_1_234
10
8.6394502
20
-0.0864321
40
0.5809175
50
269.9358511
51
282.809604
0
ARC
8
DEFAULT_255_1_234
10
8.6342568
20
0.0593212
40
0.7266847
50
270.0021091
51
270.3581957
0
ARC
8
DEFAULT_255_1_234
10
8.6289985
20
-0.2007415
40
0.4666519
50
250.7884749
51
270.6489167
0
ARC
8
DEFAULT_255_1_234
10
8.612182
20
-0.2644681
40
0.4009729
50
219.3627325
51
250.0611886
0
ARC
8
DEFAULT_255_1_234
10
8.6951031
20
-0.1939958
40
0.5097822
50
193.5479632
51
219.5756669
0
ARC
8
DEFAULT_255_1_234
10
8.9322652
20
-0.1324081
40
0.7547848
50
181.1218675
51
193.87563
0
ARC
8
DEFAULT_255_1_234
10
9.1392833
20
-0.121342
40
0.9620055
50
179.9918545
51
181.5394234
0
ARC
8
DEFAULT_255_1_234
10
8.9541935
20
-0.0050212
40
0.7769248
50
169.5837241
51
180.2757934
0
ARC
8
DEFAULT_255_1_234
10
8.7704873
20
0.0289229
40
0.590109
50
155.0365899
51
169.6003176
0
ARC
8
DEFAULT_255_1_234
10
8.6569337
20
0.0836677
40
0.4640625
50
136.783148
51
155.2472683
0
ARC
8
DEFAULT_255_1_234
10
8.6179814
20
0.1167562
40
0.4130255
50
121.7633186
51
136.428115
0
ARC
8
DEFAULT_255_1_234
10
8.6314776
20
0.0918227
40
0.4413323
50
95.6459699
51
121.5490577
0
ARC
8
DEFAULT_255_1_234
10
8.6472058
20
-0.0190051
40
0.55319
50
89.924208
51
96.1377933
0
ARC
8
DEFAULT_255_1_234
10
8.6522491
20
-0.0071458
40
0.5413475
50
76.6779277
51
90.4563316
0
ARC
8
DEFAULT_255_1_234
10
8.6916114
20
0.1519114
40
0.3775041
50
47.485847
51
76.9287264
0
ARC
8
DEFAULT_255_1_234
10
8.6769087
20
0.1419159
40
0.3948286
50
16.5424086
51
46.8933463
0
ARC
8
DEFAULT_255_1_234
10
8.5161244
20
0.0890861
40
0.564021
50
5.4072051
51
17.0365086
0
ARC
8
DEFAULT_255_1_234
10
8.3722261
20
0.0659679
40
0.5556559
50
7.8891745
51
15.9239216
0
ARC
8
DEFAULT_255_1_234
10
8.5709274
20
0.1236631
40
0.3487515
50
15.7653144
51
27.9410532
0
ARC
8
DEFAULT_255_1_234
10
8.6813492
20
0.182779
40
0.2235026
50
27.8166557
51
46.4008329
0
ARC
8
DEFAULT_255_1_234
10
8.6863135
20
0.1822082
40
0.2205286
50
47.4371857
51
75.0698205
0
ARC
8
DEFAULT_255_1_234
10
8.6554529
20
0.0747765
40
0.3322915
50
74.7008593
51
87.8124495
0
ARC
8
DEFAULT_255_1_234
10
8.6481217
20
-0.0308156
40
0.4380987
50
87.3814673
51
90.0240855
0
ARC
8
DEFAULT_255_1_234
10
8.644276
20
0.0869291
40
0.3203749
50
89.3451631
51
108.5745436
0
ARC
8
DEFAULT_255_1_234
10
8.6305865
20
0.1382908
40
0.2673494
50
109.2998449
51
143.3037509
0
ARC
8
DEFAULT_255_1_234
10
8.7067938
20
0.0796881
40
0.3634757
50
143.0753173
51
163.1916937
0
ARC
8
DEFAULT_255_1_234
10
8.9019666
20
0.0180967
40
0.5681262
50
162.9373603
51
174.6208611
0
ARC
8
DEFAULT_255_1_234
10
9.1645708
20
-0.010699
40
0.8322832
50
174.3419979
51
180.1430411
0
ARC
8
DEFAULT_255_1_234
10
9.0714864
20
-0.1301302
40
0.7392076
50
179.6817502
51
189.150529
0
ARC
8
DEFAULT_255_1_234
10
8.8214112
20
-0.171781
40
0.4856932
50
188.9910863
51
203.5773039
0
ARC
8
DEFAULT_255_1_234
10
8.7134445
20
-0.2165789
40
0.3688271
50
203.9077269
51
215.1312379
0
ARC
8
DEFAULT_255_1_234
10
8.6211539
20
-0.2881059
40
0.2522457
50
213.9071664
51
263.8849284
0
ARC
8
DEFAULT_255_1_234
10
8.6336868
20
-0.2096482
40
0.3316174
50
263.1758525
51
270.1031083
0
ARC
8
DEFAULT_255_1_234
10
8.636896
20
-0.0849635
40
0.4563091
50
269.6719807
51
279.0609165
0
ARC
8
DEFAULT_255_1_234
10
8.6635728
20
-0.2462093
40
0.2928759
50
278.8750225
51
293.6346586
0
ARC
8
DEFAULT_255_1_234
10
8.6955936
20
-0.32141
40
0.2111472
50
293.8553404
51
310.0518804
0
ARC
8
DEFAULT_255_1_234
10
8.696079
20
-0.3276484
40
0.2060917
50
311.0646779
51
332.0108348
0
ARC
8
DEFAULT_255_1_234
10
8.5768517
20
-0.2619022
40
0.3422352
50
331.6588543
51
343.2878891
0
ARC
8
DEFAULT_255_1_234
10
8.3706032
20
-0.1985202
40
0.5580003
50
343.1446044
51
351.010618
0
ARC
8
DEFAULT_255_1_234
10
8.2164678
20
-0.1704129
40
0.7146438
50
350.7157277
51
351.1602153
0
LINE
8
DEFAULT_255_1_234
10
9.7780031
20
-0.3123606
11
9.7780031
21
0.5181211
0
LINE
8
DEFAULT_255_1_234
10
9.7780031
20
0.5181211
11
9.9330157
21
0.5181211
0
LINE
8
DEFAULT_255_1_234
10
9.9330157
20
0.5181211
11
9.9330157
21
-0.3099511
0
LINE
8
DEFAULT_255_1_234
10
9.1948989
20
-0.3284241
11
9.3491083
21
-0.3284241
0
ARC
8
DEFAULT_255_1_234
10
9.4839342
20
-0.3137911
40
0.4490979
50
346.3129415
51
0.4899112
0
ARC
8
DEFAULT_255_1_234
10
9.6207691
20
-0.3488271
40
0.3078632
50
313.3793358
51
346.6225026
0
ARC
8
DEFAULT_255_1_234
10
9.6006878
20
-0.3235478
40
0.3400404
50
281.1587967
51
312.9131091
0
ARC
8
DEFAULT_255_1_234
10
9.5666342
20
-0.1740815
40
0.4932916
50
269.6424364
51
281.6795951
0
ARC
8
DEFAULT_255_1_234
10
9.5597706
20
-0.1191618
40
0.5482147
50
258.9990078
51
270.3955952
0
ARC
8
DEFAULT_255_1_234
10
9.522301
20
-0.3040254
40
0.359601
50
239.6256123
51
259.238693
0
ARC
8
DEFAULT_255_1_234
10
9.4934093
20
-0.3585331
40
0.2979777
50
227.4959765
51
239.1188186
0
ARC
8
DEFAULT_255_1_234
10
9.4896659
20
-0.3646311
40
0.2909561
50
191.339631
51
227.2280909
0
ARC
8
DEFAULT_255_1_234
10
9.63013
20
-0.3313969
40
0.4352412
50
179.6086538
51
191.9934722
0
ARC
8
DEFAULT_255_1_234
10
9.6435322
20
-0.3306573
40
0.2944324
50
179.5654258
51
192.070398
0
ARC
8
DEFAULT_255_1_234
10
9.5463812
20
-0.3524921
40
0.194866
50
191.7656467
51
215.6461951
0
ARC
8
DEFAULT_255_1_234
10
9.5285313
20
-0.3632454
40
0.1741017
50
216.1938368
51
224.3931108
0
ARC
8
DEFAULT_255_1_234
10
9.5292199
20
-0.3605527
40
0.1764834
50
224.8613677
51
254.362656
0
ARC
8
DEFAULT_255_1_234
10
9.5562913
20
-0.271099
40
0.2699302
50
253.9471729
51
267.3949949
0
ARC
8
DEFAULT_255_1_234
10
9.563342
20
-0.1786933
40
0.362572
50
266.9456419
51
270.0337791
0
ARC
8
DEFAULT_255_1_234
10
9.56588
20
-0.294877
40
0.2463991
50
269.4595111
51
286.1822844
0
ARC
8
DEFAULT_255_1_234
10
9.580009
20
-0.3466953
40
0.1926982
50
286.4416479
51
315.8044008
0
ARC
8
DEFAULT_255_1_234
10
9.5745897
20
-0.3424793
40
0.1995241
50
316.0212565
51
345.4794351
0
ARC
8
DEFAULT_255_1_234
10
9.4775404
20
-0.3151425
40
0.3003349
50
345.0729543
51
358.325089
0
ARC
8
DEFAULT_255_1_234
10
9.3899375
20
-0.3095432
40
0.3880759
50
357.8767804
51
359.5840246
0
LINE
8
DEFAULT_255_1_234
10
10.6454309
20
0.5237433
11
10.6454309
21
-0.6513
0
LINE
8
DEFAULT_255_1_234
10
10.6454309
20
-0.6513
11
10.4960405
21
-0.6513
0
LINE
8
DEFAULT_255_1_234
10
10.4960405
20
-0.6513
11
10.4960405
21
0.3390133
0
LINE
8
DEFAULT_255_1_234
10
10.4960405
20
0.3390133
11
10.1964567
21
0.2289785
0
LINE
8
DEFAULT_255_1_234
10
10.1964567
20
0.2289785
11
10.1964567
21
0.3639117
0
LINE
8
DEFAULT_255_1_234
10
10.1964567
20
0.3639117
11
10.6221388
21
0.5237433
0
LINE
8
DEFAULT_255_1_234
10
10.6221388
20
0.5237433
11
10.6454309
21
0.5237433
0
LINE
8
DEFAULT_255_1_234
10
11.18677
20
0.5181211
11
11.3715
21
-0.2826432
0
LINE
8
DEFAULT_255_1_234
10
11.3715
20
-0.2826432
11
11.3939889
21
-0.4368526
0
LINE
8
DEFAULT_255_1_234
10
11.3939889
20
-0.4368526
11
11.426919
21
-0.2979035
0
LINE
8
DEFAULT_255_1_234
10
11.426919
20
-0.2979035
11
11.6582331
21
0.5181211
0
LINE
8
DEFAULT_255_1_234
10
11.6582331
20
0.5181211
11
11.7883472
21
0.5181211
0
LINE
8
DEFAULT_255_1_234
10
11.7883472
20
0.5181211
11
12.0140391
21
-0.2979035
0
LINE
8
DEFAULT_255_1_234
10
12.0140391
20
-0.2979035
11
12.046166
21
-0.4392621
0
LINE
8
DEFAULT_255_1_234
10
12.046166
20
-0.4392621
11
12.0710644
21
-0.28184
0
LINE
8
DEFAULT_255_1_234
10
12.0710644
20
-0.28184
11
12.2525817
21
0.5181211
0
LINE
8
DEFAULT_255_1_234
10
12.2525817
20
0.5181211
11
12.4075942
21
0.5181211
0
LINE
8
DEFAULT_255_1_234
10
12.4075942
20
0.5181211
11
12.1240739
21
-0.6513
0
LINE
8
DEFAULT_255_1_234
10
12.1240739
20
-0.6513
11
11.9835185
21
-0.6513
0
LINE
8
DEFAULT_255_1_234
10
11.9835185
20
-0.6513
11
11.7425663
21
0.2008674
0
LINE
8
DEFAULT_255_1_234
10
11.7425663
20
0.2008674
11
11.7240933
21
0.2900197
0
LINE
8
DEFAULT_255_1_234
10
11.7240933
20
0.2900197
11
11.7056203
21
0.2008674
0
LINE
8
DEFAULT_255_1_234
10
11.7056203
20
0.2008674
11
11.4558333
21
-0.6513
0
LINE
8
DEFAULT_255_1_234
10
11.4558333
20
-0.6513
11
11.3152778
21
-0.6513
0
LINE
8
DEFAULT_255_1_234
10
11.3152778
20
-0.6513
11
11.0325606
21
0.5181211
0
LINE
8
DEFAULT_255_1_234
10
11.0325606
20
0.5181211
11
11.18677
21
0.5181211
0
LINE
8
DEFAULT_255_1_234
10
12.8164097
20
-0.0938974
11
12.8164097
21
-0.2151766
0
LINE
8
DEFAULT_255_1_234
10
12.8164097
20
-0.2151766
11
12.4244609
21
-0.2151766
0
LINE
8
DEFAULT_255_1_234
10
12.4244609
20
-0.2151766
11
12.4244609
21
-0.0938974
0
LINE
8
DEFAULT_255_1_234
10
12.4244609
20
-0.0938974
11
12.8164097
21
-0.0938974
0
LINE
8
DEFAULT_255_1_234
10
13.760139
20
0.1799849
11
13.6051264
21
0.1799849
0
LINE
8
DEFAULT_255_1_234
10
12.9127906
20
-0.3123606
11
13.0678031
21
-0.3123606
0
ARC
8
DEFAULT_255_1_234
10
13.6710077
20
1.0746768
40
1.252368
50
248.9199003
51
254.1439814
0
ARC
8
DEFAULT_255_1_234
10
13.5029572
20
0.6420234
40
0.788226
50
241.633709
51
249.0064503
0
ARC
8
DEFAULT_255_1_234
10
13.3500966
20
0.3619317
40
0.4691427
50
230.498225
51
241.8087113
0
ARC
8
DEFAULT_255_1_234
10
13.271654
20
0.2619906
40
0.3421437
50
227.4064532
51
229.9881192
0
ARC
8
DEFAULT_255_1_234
10
13.2229061
20
0.2144088
40
0.2741476
50
200.6781896
51
228.1763934
0
ARC
8
DEFAULT_255_1_234
10
13.2301372
20
0.2129077
40
0.2804109
50
179.5061581
51
199.8694617
0
ARC
8
DEFAULT_255_1_234
10
13.2292123
20
0.220321
40
0.2795204
50
132.4834203
51
181.0242172
0
ARC
8
DEFAULT_255_1_234
10
13.2887706
20
0.1640704
40
0.3612768
50
129.2532479
51
133.4242687
0
ARC
8
DEFAULT_255_1_234
10
13.3034155
20
0.1420965
40
0.3875675
50
101.98776
51
128.8742646
0
ARC
8
DEFAULT_255_1_234
10
13.3432766
20
-0.0300259
40
0.5642249
50
89.5906553
51
102.3169264
0
ARC
8
DEFAULT_255_1_234
10
13.3503258
20
0.0018148
40
0.5323783
50
77.2360837
51
90.3248275
0
ARC
8
DEFAULT_255_1_234
10
13.3710337
20
0.09854
40
0.4334697
50
63.837784
51
77.0809408
0
ARC
8
DEFAULT_255_1_234
10
13.3988099
20
0.1502911
40
0.3747796
50
45.9864267
51
64.1607727
0
ARC
8
DEFAULT_255_1_234
10
13.424898
20
0.1800866
40
0.3352302
50
32.2747395
51
45.6547121
0
ARC
8
DEFAULT_255_1_234
10
13.4315421
20
0.181988
40
0.328603
50
359.6507365
51
32.6130309
0
ARC
8
DEFAULT_255_1_234
10
13.3372516
20
0.182466
40
0.2678863
50
359.469343
51
14.9832209
0
ARC
8
DEFAULT_255_1_234
10
13.4077579
20
0.2013539
40
0.1948938
50
14.9781179
51
48.2004265
0
ARC
8
DEFAULT_255_1_234
10
13.3913223
20
0.1806983
40
0.2212521
50
48.5927837
51
74.1241538
0
ARC
8
DEFAULT_255_1_234
10
13.3579712
20
0.0706248
40
0.3362561
50
73.7888341
51
86.6652678
0
ARC
8
DEFAULT_255_1_234
10
13.3477278
20
-0.0501119
40
0.4573953
50
86.2640471
51
90.0526343
0
ARC
8
DEFAULT_255_1_234
10
13.3448991
20
-0.0105808
40
0.4178709
50
89.6697524
51
99.2309573
0
ARC
8
DEFAULT_255_1_234
10
13.3206441
20
0.1338964
40
0.2713749
50
99.069534
51
113.7658566
0
ARC
8
DEFAULT_255_1_234
10
13.2932633
20
0.1984677
40
0.2012469
50
114.0401004
51
127.9850673
0
ARC
8
DEFAULT_255_1_234
10
13.2692197
20
0.228073
40
0.1631167
50
127.7287463
51
176.7105154
0
ARC
8
DEFAULT_255_1_234
10
13.3370914
20
0.2179693
40
0.2315392
50
175.1779447
51
180.0581938
0
ARC
8
DEFAULT_255_1_234
10
13.2527761
20
0.2167428
40
0.1472271
50
179.6142195
51
228.1246017
0
ARC
8
DEFAULT_255_1_234
10
13.2969429
20
0.2576308
40
0.2072299
50
226.5779593
51
230.8800004
0
ARC
8
DEFAULT_255_1_234
10
13.3440508
20
0.3201636
40
0.2854818
50
231.4635071
51
241.9260842
0
ARC
8
DEFAULT_255_1_234
10
13.4637686
20
0.54048
40
0.53622
50
241.7178533
51
248.3259551
0
ARC
8
DEFAULT_255_1_234
10
13.6023058
20
0.8837064
40
0.9063478
50
248.2007737
51
252.4528373
0
ARC
8
DEFAULT_255_1_234
10
13.7226783
20
1.2558441
40
1.2974635
50
252.3391078
51
254.3469452
0
ARC
8
DEFAULT_255_1_234
10
12.9684485
20
-1.4418852
40
1.5037162
50
71.0197183
51
74.4087047
0
ARC
8
DEFAULT_255_1_234
10
13.1379171
20
-0.9526889
40
0.9859993
50
66.1847285
51
71.086374
0
ARC
8
DEFAULT_255_1_234
10
13.2935483
20
-0.60228
40
0.6025855
50
59.3536294
51
66.2691831
0
ARC
8
DEFAULT_255_1_234
10
13.3824135
20
-0.4519391
40
0.4279449
50
49.1020879
51
59.3293958
0
ARC
8
DEFAULT_255_1_234
10
13.4642875
20
-0.3586166
40
0.3038015
50
32.7919921
51
49.2505539
0
ARC
8
DEFAULT_255_1_234
10
13.4963965
20
-0.3357809
40
0.264448
50
31.1181161
51
32.4005348
0
ARC
8
DEFAULT_255_1_234
10
13.4875503
20
-0.3393221
40
0.2738556
50
8.1116974
51
30.7958831
0
ARC
8
DEFAULT_255_1_234
10
13.4065171
20
-0.3531247
40
0.3560327
50
359.8389159
51
8.4706516
0
ARC
8
DEFAULT_255_1_234
10
13.4690963
20
-0.3579863
40
0.2934776
50
337.4731098
51
0.7537279
0
ARC
8
DEFAULT_255_1_234
10
13.4869657
20
-0.3599613
40
0.2762607
50
307.5917067
51
336.4315538
0
ARC
8
DEFAULT_255_1_234
10
13.4409485
20
-0.3086898
40
0.3449979
50
307.6551545
51
308.4529766
0
ARC
8
DEFAULT_255_1_234
10
13.4179204
20
-0.273175
40
0.3871988
50
284.3734338
51
307.1424381
0
ARC
8
DEFAULT_255_1_234
10
13.3684034
20
-0.0910068
40
0.5759636
50
272.4382747
51
284.646547
0
ARC
8
DEFAULT_255_1_234
10
13.3557243
20
0.0889893
40
0.7563528
50
269.9708387
51
272.8178037
0
ARC
8
DEFAULT_255_1_234
10
13.3514283
20
-0.1148284
40
0.5525489
50
248.2707594
51
270.4055579
0
ARC
8
DEFAULT_255_1_234
10
13.3460024
20
-0.1338808
40
0.5328452
50
246.1383403
51
248.0542782
0
ARC
8
DEFAULT_255_1_234
10
13.3041403
20
-0.2218157
40
0.4355005
50
233.1670131
51
246.4950969
0
ARC
8
DEFAULT_255_1_234
10
13.2487308
20
-0.2966188
40
0.3424126
50
215.3403242
51
233.0843104
0
ARC
8
DEFAULT_255_1_234
10
13.2214739
20
-0.3164451
40
0.3087104
50
179.2419209
51
215.2648451
0
ARC
8
DEFAULT_255_1_234
10
13.2982333
20
-0.3150334
40
0.2304457
50
179.335461
51
199.1045811
0
ARC
8
DEFAULT_255_1_234
10
13.2650009
20
-0.3237234
40
0.1962176
50
199.8828939
51
232.7063202
0
ARC
8
DEFAULT_255_1_234
10
13.3122278
20
-0.2643212
40
0.2720938
50
232.3738199
51
255.5136649
0
ARC
8
DEFAULT_255_1_234
10
13.3463145
20
-0.1399165
40
0.4010747
50
255.2446292
51
267.5320849
0
ARC
8
DEFAULT_255_1_234
10
13.3550768
20
-0.0166298
40
0.5246356
50
267.1557994
51
270.0286766
0
ARC
8
DEFAULT_255_1_234
10
13.357854
20
-0.061005
40
0.4802668
50
269.7000017
51
278.1660162
0
ARC
8
DEFAULT_255_1_234
10
13.3834545
20
-0.2340485
40
0.3053425
50
278.0231263
51
290.625471
0
ARC
8
DEFAULT_255_1_234
10
13.4182232
20
-0.3267975
40
0.206291
50
290.6619762
51
307.0370976
0
ARC
8
DEFAULT_255_1_234
10
13.4482621
20
-0.3636496
40
0.1587906
50
306.3943566
51
355.3030547
0
ARC
8
DEFAULT_255_1_234
10
13.3970553
20
-0.3559887
40
0.2104809
50
354.3660432
51
0.0698737
0
ARC
8
DEFAULT_255_1_234
10
13.4112898
20
-0.3537383
40
0.1962563
50
359.417946
51
16.1971788
0
ARC
8
DEFAULT_255_1_234
10
13.4568208
20
-0.3412582
40
0.149053
50
16.4723299
51
52.6262157
0
ARC
8
DEFAULT_255_1_234
10
13.3747262
20
-0.4496567
40
0.2850296
50
52.7386432
51
62.4979148
0
ARC
8
DEFAULT_255_1_234
10
13.2362339
20
-0.7102717
40
0.5801521
50
62.2515216
51
68.1220564
0
ARC
8
DEFAULT_255_1_234
10
13.064225
20
-1.1330128
40
1.0365451
50
68.0062803
51
71.8053402
0
ARC
8
DEFAULT_255_1_234
10
12.8846621
20
-1.6715242
40
1.6042013
50
71.7183119
51
73.9258742
0
LINE
8
DEFAULT_255_1_234
10
14.6653159
20
-0.2802337
11
14.8203284
21
-0.2802337
0
LINE
8
DEFAULT_255_1_234
10
13.9199706
20
-0.1212053
11
13.9199706
21
-0.0087609
0
LINE
8
DEFAULT_255_1_234
10
14.8203284
20
0.1422357
11
14.6653159
21
0.1422357
0
LINE
8
DEFAULT_255_1_234
10
14.0749831
20
-0.0127768
11
14.0749831
21
-0.1260243
0
ARC
8
DEFAULT_255_1_234
10
14.2722671
20
-0.2205154
40
0.5513052
50
340.1774281
51
353.7814284
0
ARC
8
DEFAULT_255_1_234
10
14.4294023
20
-0.2790418
40
0.3836379
50
311.4558989
51
340.4421614
0
ARC
8
DEFAULT_255_1_234
10
14.4260692
20
-0.2679472
40
0.3941894
50
282.4333181
51
310.7513653
0
ARC
8
DEFAULT_255_1_234
10
14.3821431
20
-0.0864321
40
0.5809175
50
269.9358511
51
282.809604
0
ARC
8
DEFAULT_255_1_234
10
14.3769497
20
0.0593212
40
0.7266847
50
270.0021091
51
270.3581957
0
ARC
8
DEFAULT_255_1_234
10
14.3716914
20
-0.2007415
40
0.4666519
50
250.7884749
51
270.6489167
0
ARC
8
DEFAULT_255_1_234
10
14.3548748
20
-0.2644681
40
0.4009729
50
219.3627325
51
250.0611886
0
ARC
8
DEFAULT_255_1_234
10
14.437796
20
-0.1939958
40
0.5097822
50
193.5479632
51
219.5756669
0
ARC
8
DEFAULT_255_1_234
10
14.674958
20
-0.1324081
40
0.7547848
50
181.1218675
51
193.87563
0
ARC
8
DEFAULT_255_1_234
10
14.8819761
20
-0.121342
40
0.9620055
50
179.9918545
51
181.5394234
0
ARC
8
DEFAULT_255_1_234
10
14.6968864
20
-0.0050212
40
0.7769248
50
169.5837241
51
180.2757934
0
ARC
8
DEFAULT_255_1_234
10
14.5131802
20
0.0289229
40
0.590109
50
155.0365899
51
169.6003176
0
ARC
8
DEFAULT_255_1_234
10
14.3996266
20
0.0836677
40
0.4640625
50
136.783148
51
155.2472683
0
ARC
8
DEFAULT_255_1_234
10
14.3606743
20
0.1167562
40
0.4130255
50
121.7633186
51
136.428115
0
ARC
8
DEFAULT_255_1_234
10
14.3741705
20
0.0918227
40
0.4413323
50
95.6459699
51
121.5490577
0
ARC
8
DEFAULT_255_1_234
10
14.3898986
20
-0.0190051
40
0.55319
50
89.924208
51
96.1377933
0
ARC
8
DEFAULT_255_1_234
10
14.3949419
20
-0.0071458
40
0.5413475
50
76.6779277
51
90.4563316
0
ARC
8
DEFAULT_255_1_234
10
14.4343043
20
0.1519114
40
0.3775041
50
47.485847
51
76.9287264
0
ARC
8
DEFAULT_255_1_234
10
14.4196016
20
0.1419159
40
0.3948286
50
16.5424086
51
46.8933463
0
ARC
8
DEFAULT_255_1_234
10
14.2588172
20
0.0890861
40
0.564021
50
5.4072051
51
17.0365086
0
ARC
8
DEFAULT_255_1_234
10
14.114919
20
0.0659679
40
0.5556559
50
7.8891745
51
15.9239216
0
ARC
8
DEFAULT_255_1_234
10
14.3136203
20
0.1236631
40
0.3487515
50
15.7653144
51
27.9410532
0
ARC
8
DEFAULT_255_1_234
10
14.4240421
20
0.182779
40
0.2235026
50
27.8166557
51
46.4008329
0
ARC
8
DEFAULT_255_1_234
10
14.4290064
20
0.1822082
40
0.2205286
50
47.4371857
51
75.0698205
0
ARC
8
DEFAULT_255_1_234
10
14.3981458
20
0.0747765
40
0.3322915
50
74.7008593
51
87.8124495
0
ARC
8
DEFAULT_255_1_234
10
14.3908146
20
-0.0308156
40
0.4380987
50
87.3814673
51
90.0240855
0
ARC
8
DEFAULT_255_1_234
10
14.3869689
20
0.0869291
40
0.3203749
50
89.3451631
51
108.5745436
0
ARC
8
DEFAULT_255_1_234
10
14.3732794
20
0.1382908
40
0.2673494
50
109.2998449
51
143.3037509
0
ARC
8
DEFAULT_255_1_234
10
14.4494867
20
0.0796881
40
0.3634757
50
143.0753173
51
163.1916937
0
ARC
8
DEFAULT_255_1_234
10
14.6446594
20
0.0180967
40
0.5681262
50
162.9373603
51
174.6208611
0
ARC
8
DEFAULT_255_1_234
10
14.9072637
20
-0.010699
40
0.8322832
50
174.3419979
51
180.1430411
0
ARC
8
DEFAULT_255_1_234
10
14.8141793
20
-0.1301302
40
0.7392076
50
179.6817502
51
189.150529
0
ARC
8
DEFAULT_255_1_234
10
14.5641041
20
-0.171781
40
0.4856932
50
188.9910863
51
203.5773039
0
ARC
8
DEFAULT_255_1_234
10
14.4561374
20
-0.2165789
40
0.3688271
50
203.9077269
51
215.1312379
0
ARC
8
DEFAULT_255_1_234
10
14.3638467
20
-0.2881059
40
0.2522457
50
213.9071664
51
263.8849284
0
ARC
8
DEFAULT_255_1_234
10
14.3763797
20
-0.2096482
40
0.3316174
50
263.1758525
51
270.1031083
0
ARC
8
DEFAULT_255_1_234
10
14.3795888
20
-0.0849635
40
0.4563091
50
269.6719807
51
279.0609165
0
ARC
8
DEFAULT_255_1_234
10
14.4062656
20
-0.2462093
40
0.2928759
50
278.8750225
51
293.6346586
0
ARC
8
DEFAULT_255_1_234
10
14.4382865
20
-0.32141
40
0.2111472
50
293.8553404
51
310.0518804
0
ARC
8
DEFAULT_255_1_234
10
14.4387718
20
-0.3276484
40
0.2060917
50
311.0646779
51
332.0108348
0
ARC
8
DEFAULT_255_1_234
10
14.3195445
20
-0.2619022
40
0.3422352
50
331.6588543
51
343.2878891
0
ARC
8
DEFAULT_255_1_234
10
14.113296
20
-0.1985202
40
0.5580003
50
343.1446044
51
351.010618
0
ARC
8
DEFAULT_255_1_234
10
13.9591607
20
-0.1704129
40
0.7146438
50
350.7157277
51
351.1602153
0
LINE
8
DEFAULT_255_1_234
10
15.6990006
20
0.5181211
11
15.8540131
21
0.5181211
0
LINE
8
DEFAULT_255_1_234
10
15.8540131
20
0.5181211
11
15.8540131
21
-0.277021
0
LINE
8
DEFAULT_255_1_234
10
15.470096
20
-0.6657571
11
15.4291342
21
-0.6673635
0
LINE
8
DEFAULT_255_1_234
10
15.0074679
20
-0.2786273
11
15.0074679
21
0.5181211
0
LINE
8
DEFAULT_255_1_234
10
15.0074679
20
0.5181211
11
15.1600709
21
0.5181211
0
LINE
8
DEFAULT_255_1_234
10
15.1600709
20
0.5181211
11
15.1600709
21
-0.2738083
0
LINE
8
DEFAULT_255_1_234
10
15.6990006
20
-0.2746115
11
15.6990006
21
0.5181211
0
ARC
8
DEFAULT_255_1_234
10
15.418703
20
-0.2790072
40
0.4353147
50
343.0898354
51
0.2614217
0
ARC
8
DEFAULT_255_1_234
10
15.5015431
20
-0.3021163
40
0.3493402
50
315.3345598
51
342.7641223
0
ARC
8
DEFAULT_255_1_234
10
15.479188
20
-0.2789318
40
0.3815385
50
284.6606969
51
315.2182466
0
ARC
8
DEFAULT_255_1_234
10
15.4336593
20
-0.1243245
40
0.5426573
50
273.8500273
51
285.1797701
0
ARC
8
DEFAULT_255_1_234
10
15.4248643
20
-0.0901525
40
0.5772268
50
257.6317484
51
270.4238298
0
ARC
8
DEFAULT_255_1_234
10
15.3823841
20
-0.2722802
40
0.3902347
50
230.6087562
51
257.9964012
0
ARC
8
DEFAULT_255_1_234
10
15.3691844
20
-0.2929198
40
0.3659186
50
227.7440991
51
230.1551448
0
ARC
8
DEFAULT_255_1_234
10
15.3557675
20
-0.3090529
40
0.3449568
50
189.2524587
51
227.5916061
0
ARC
8
DEFAULT_255_1_234
10
15.5079362
20
-0.2762987
40
0.5004737
50
180.2665968
51
190.1525252
0
ARC
8
DEFAULT_255_1_234
10
15.5301381
20
-0.2766082
40
0.3700778
50
179.5665184
51
191.9952995
0
ARC
8
DEFAULT_255_1_234
10
15.4073488
20
-0.3039957
40
0.2442808
50
191.6974072
51
215.1404042
0
ARC
8
DEFAULT_255_1_234
10
15.3835403
20
-0.3181892
40
0.2166522
50
215.6950207
51
224.8513522
0
ARC
8
DEFAULT_255_1_234
10
15.3891146
20
-0.3102303
40
0.2262237
50
225.2846858
51
255.0111758
0
ARC
8
DEFAULT_255_1_234
10
15.4215106
20
-0.1988545
40
0.3421979
50
254.5944985
51
267.9129803
0
ARC
8
DEFAULT_255_1_234
10
15.4289587
20
-0.0904097
40
0.4508556
50
267.4689655
51
270.0223026
0
ARC
8
DEFAULT_255_1_234
10
15.4319732
20
-0.1493151
40
0.3919604
50
269.5849941
51
281.1843768
0
ARC
8
DEFAULT_255_1_234
10
15.4598497
20
-0.2845941
40
0.2538457
50
280.9344262
51
300.9743589
0
ARC
8
DEFAULT_255_1_234
10
15.4811102
20
-0.3237312
40
0.2093566
50
301.4980046
51
315.1466847
0
ARC
8
DEFAULT_255_1_234
10
15.4666641
20
-0.3118764
40
0.2279656
50
315.5952539
51
345.6678731
0
ARC
8
DEFAULT_255_1_234
10
15.3547157
20
-0.2806991
40
0.3441564
50
345.2524969
51
358.6304371
0
ARC
8
DEFAULT_255_1_234
10
15.2529511
20
-0.2747084
40
0.4460494
50
358.1735671
51
0.0124524
0
LINE
8
DEFAULT_255_1_234
10
16.6861012
20
0.5181211
11
16.6861012
21
-0.258548
0
LINE
8
DEFAULT_255_1_234
10
16.6861012
20
-0.258548
11
16.8483423
21
-0.258548
0
LINE
8
DEFAULT_255_1_234
10
16.8483423
20
-0.258548
11
16.8483423
21
-0.3798272
0
LINE
8
DEFAULT_255_1_234
10
16.8483423
20
-0.3798272
11
16.6861012
21
-0.3798272
0
LINE
8
DEFAULT_255_1_234
10
16.6861012
20
-0.3798272
11
16.6861012
21
-0.6513
0
LINE
8
DEFAULT_255_1_234
10
16.6861012
20
-0.6513
11
16.5367109
21
-0.6513
0
LINE
8
DEFAULT_255_1_234
10
16.5367109
20
-0.6513
11
16.5367109
21
-0.3798272
0
LINE
8
DEFAULT_255_1_234
10
16.5367109
20
-0.3798272
11
16.0042066
21
-0.3798272
0
LINE
8
DEFAULT_255_1_234
10
16.0042066
20
-0.3798272
11
16.0042066
21
-0.2922813
0
LINE
8
DEFAULT_255_1_234
10
16.0042066
20
-0.2922813
11
16.527876
21
0.5181211
0
LINE
8
DEFAULT_255_1_234
10
16.527876
20
0.5181211
11
16.6861012
21
0.5181211
0
LINE
8
DEFAULT_255_1_234
10
16.5190411
20
0.2827912
11
16.1728731
21
-0.258548
0
LINE
8
DEFAULT_255_1_234
10
16.1728731
20
-0.258548
11
16.5367109
21
-0.258548
0
LINE
8
DEFAULT_255_1_234
10
16.5367109
20
-0.258548
11
16.5367109
21
0.3149181
0
LINE
8
DEFAULT_255_1_234
10
16.5367109
20
0.3149181
11
16.5190411
21
0.2827912
0
LINE
8
DEFAULT_255_1_234
10
17.4708021
20
0.5237433
11
17.4708021
21
-0.6513
0
LINE
8
DEFAULT_255_1_234
10
17.4708021
20
-0.6513
11
17.3214117
21
-0.6513
0
LINE
8
DEFAULT_255_1_234
10
17.3214117
20
-0.6513
11
17.3214117
21
0.3390133
0
LINE
8
DEFAULT_255_1_234
10
17.3214117
20
0.3390133
11
17.0218279
21
0.2289785
0
LINE
8
DEFAULT_255_1_234
10
17.0218279
20
0.2289785
11
17.0218279
21
0.3639117
0
LINE
8
DEFAULT_255_1_234
10
17.0218279
20
0.3639117
11
17.44751
21
0.5237433
0
LINE
8
DEFAULT_255_1_234
10
17.44751
20
0.5237433
11
17.4708021
21
0.5237433
0
LINE
8
DEFAULT_255_1_234
10
18.2306045
20
-0.0938974
11
18.2306045
21
-0.2151766
0
LINE
8
DEFAULT_255_1_234
10
18.2306045
20
-0.2151766
11
17.8386557
21
-0.2151766
0
LINE
8
DEFAULT_255_1_234
10
17.8386557
20
-0.2151766
11
17.8386557
21
-0.0938974
0
LINE
8
DEFAULT_255_1_234
10
17.8386557
20
-0.0938974
11
18.2306045
21
-0.0938974
0
LINE
8
DEFAULT_255_1_234
10
18.4530836
20
0.5181211
11
18.7855976
21
-0.4464907
0
LINE
8
DEFAULT_255_1_234
10
18.7855976
20
-0.4464907
11
19.1197179
21
0.5181211
0
LINE
8
DEFAULT_255_1_234
10
19.1197179
20
0.5181211
11
19.2883844
21
0.5181211
0
LINE
8
DEFAULT_255_1_234
10
19.2883844
20
0.5181211
11
18.8546706
21
-0.6513
0
LINE
8
DEFAULT_255_1_234
10
18.8546706
20
-0.6513
11
18.718131
21
-0.6513
0
LINE
8
DEFAULT_255_1_234
10
18.718131
20
-0.6513
11
18.2852203
21
0.5181211
0
LINE
8
DEFAULT_255_1_234
10
18.2852203
20
0.5181211
11
18.4530836
21
0.5181211
0
LINE
8
DEFAULT_255_1_234
10
19.8947807
20
0.5237433
11
19.8947807
21
-0.6513
0
LINE
8
DEFAULT_255_1_234
10
19.8947807
20
-0.6513
11
19.7453903
21
-0.6513
0
LINE
8
DEFAULT_255_1_234
10
19.7453903
20
-0.6513
11
19.7453903
21
0.3390133
0
LINE
8
DEFAULT_255_1_234
10
19.7453903
20
0.3390133
11
19.4458065
21
0.2289785
0
LINE
8
DEFAULT_255_1_234
10
19.4458065
20
0.2289785
11
19.4458065
21
0.3639117
0
LINE
8
DEFAULT_255_1_234
10
19.4458065
20
0.3639117
11
19.8714886
21
0.5237433
0
LINE
8
DEFAULT_255_1_234
10
19.8714886
20
0.5237433
11
19.8947807
21
0.5237433
0
ARC
8
DEFAULT_255_2_778
10
15.2718323
20
58.486689
40
0.3782009
50
0.4397807
51
91.3045231
0
ARC
8
DEFAULT_255_2_778
10
15.2696879
20
58.4844064
40
0.3803695
50
269.0259909
51
0.7811192
0
ARC
8
DEFAULT_255_2_778
10
15.4288293
20
58.4719643
40
0.7639615
50
290.7362057
51
357.8000295
0
ARC
8
DEFAULT_255_2_778
10
15.3436031
20
58.4895235
40
0.8499188
50
356.8376875
51
0.0046095
0
ARC
8
DEFAULT_255_2_778
10
15.3422443
20
58.4895748
40
0.8512778
50
0.0011515
51
85.3589632
0
ARC
8
DEFAULT_255_2_778
10
15.3422371
20
58.4705092
40
0.8702827
50
85.4600549
51
90.0075769
0
ARC
8
DEFAULT_255_2_778
10
20.173385
20
58.4802426
40
0.3845507
50
1.3931151
51
90.158378
0
ARC
8
DEFAULT_255_2_778
10
20.2329096
20
58.4738635
40
0.8684198
50
359.7643557
51
42.1181505
0
ARC
8
DEFAULT_255_2_778
10
20.2353156
20
58.4742931
40
0.866348
50
42.2037872
51
87.9292218
0
ARC
8
DEFAULT_255_2_778
10
20.2305626
20
58.4330097
40
0.9077821
50
87.7235759
51
90.0025578
0
ARC
8
DEFAULT_255_2_778
10
12.9264947
20
58.4871344
40
0.3777354
50
0.3727528
51
91.1638813
0
ARC
8
DEFAULT_255_2_778
10
12.9805692
20
58.4738595
40
0.8684602
50
359.7646302
51
42.1161032
0
ARC
8
DEFAULT_255_2_778
10
12.9830774
20
58.4744127
40
0.8662296
50
42.2002176
51
87.9268901
0
ARC
8
DEFAULT_255_2_778
10
12.9783626
20
58.4333749
40
0.9074169
50
87.7231194
51
90.002558
0
ARC
8
DEFAULT_255_2_778
10
17.559042
20
58.0820858
40
1.2841942
50
233.3100129
51
270.0348017
0
ARC
8
DEFAULT_255_2_778
10
17.5711133
20
58.1024622
40
1.3077482
50
187.7860459
51
233.4193197
0
ARC
8
DEFAULT_255_2_778
10
17.5893588
20
58.1040185
40
1.3260368
50
179.9838663
51
187.7458681
0
ARC
8
DEFAULT_255_2_778
10
17.5478523
20
58.1046375
40
1.2845303
50
143.7084173
51
180.0109545
0
ARC
8
DEFAULT_255_2_778
10
17.5629238
20
58.0995899
40
1.2996747
50
94.9692901
51
143.9223324
0
ARC
8
DEFAULT_255_2_778
10
17.5597032
20
58.1002347
40
1.2987573
50
89.9947559
51
94.8302073
0
ARC
8
DEFAULT_255_2_778
10
17.5619339
20
58.0944304
40
1.3045632
50
58.1407344
51
90.0927508
0
ARC
8
DEFAULT_255_2_778
10
17.5700831
20
58.1000662
40
1.2954809
50
3.5056409
51
58.315291
0
ARC
8
DEFAULT_255_2_778
10
17.5711163
20
58.1041563
40
1.2942058
50
359.9971467
51
3.3277024
0
ARC
8
DEFAULT_255_2_778
10
17.3826088
20
58.1020483
40
1.4827147
50
0.006083
51
0.0789681
0
ARC
8
DEFAULT_255_2_778
10
17.5604187
20
58.1022022
40
1.3049047
50
315.0308293
51
0.0001529
0
ARC
8
DEFAULT_255_2_778
10
17.5609377
20
58.1019521
40
1.3043608
50
270.000667
51
315.0224921
0
LINE
8
DEFAULT_255_2_778
10
17.5609529
20
56.7975914
11
17.5598221
21
56.7975919
0
ARC
8
DEFAULT_255_2_778
10
17.5640812
20
58.1004112
40
0.7580313
50
269.6780691
51
315.5292436
0
ARC
8
DEFAULT_255_2_778
10
17.5610107
20
58.0996878
40
0.7597205
50
315.7303962
51
0.2857903
0
ARC
8
DEFAULT_255_2_778
10
17.8487376
20
58.1039382
40
0.4719845
50
359.944048
51
0.0186519
0
ARC
8
DEFAULT_255_2_778
10
17.5687772
20
58.1029605
40
0.7519457
50
0.086204
51
85.4319233
0
ARC
8
DEFAULT_255_2_778
10
17.5599609
20
58.0605338
40
0.7949581
50
85.0420495
51
90.0100075
0
ARC
8
DEFAULT_255_2_778
10
17.5579396
20
58.1172519
40
0.7382424
50
89.8538973
51
89.9999976
0
ARC
8
DEFAULT_255_2_778
10
17.5580088
20
58.1047109
40
0.7507833
50
90.0052819
51
134.9571409
0
ARC
8
DEFAULT_255_2_778
10
17.5579709
20
58.1041565
40
0.751149
50
134.9252185
51
180.0049334
0
ARC
8
DEFAULT_255_2_778
10
17.5708624
20
58.1001875
40
0.7640503
50
179.7072119
51
222.5790813
0
ARC
8
DEFAULT_255_2_778
10
17.5579296
20
58.0891475
40
0.7470579
50
222.6267201
51
270.1451401
0
ARC
8
DEFAULT_255_2_778
10
9.564442
20
58.0820858
40
1.2841942
50
233.3100129
51
270.0348017
0
ARC
8
DEFAULT_255_2_778
10
9.5765133
20
58.1024622
40
1.3077482
50
187.7860459
51
233.4193197
0
ARC
8
DEFAULT_255_2_778
10
9.5947588
20
58.1040185
40
1.3260368
50
179.9838663
51
187.7458681
0
ARC
8
DEFAULT_255_2_778
10
9.5535129
20
58.1044961
40
1.2847909
50
143.1940819
51
180.0046489
0
ARC
8
DEFAULT_255_2_778
10
9.5683078
20
58.0998006
40
1.2994598
50
94.9233187
51
143.4191345
0
ARC
8
DEFAULT_255_2_778
10
9.5651008
20
58.100512
40
1.2984798
50
89.9946509
51
94.7850278
0
ARC
8
DEFAULT_255_2_778
10
9.5673902
20
58.0943441
40
1.3046496
50
58.1428905
51
90.0952196
0
ARC
8
DEFAULT_255_2_778
10
9.5758177
20
58.1004453
40
1.2950254
50
3.2656058
51
58.3171105
0
ARC
8
DEFAULT_255_2_778
10
9.5763693
20
58.1044485
40
1.2942527
50
359.997494
51
3.0900664
0
ARC
8
DEFAULT_255_2_778
10
9.5936718
20
58.1022448
40
1.276952
50
359.9949307
51
0.0963391
0
ARC
8
DEFAULT_255_2_778
10
9.5659855
20
58.1022925
40
1.3046385
50
315.0321687
51
359.9929412
0
ARC
8
DEFAULT_255_2_778
10
9.5662654
20
58.1024266
40
1.3045353
50
270.0038431
51
315.0193137
0
LINE
8
DEFAULT_255_2_778
10
9.5663529
20
56.7978914
11
9.5652221
21
56.7978919
0
ARC
8
DEFAULT_255_2_778
10
9.5694412
20
58.1004135
40
0.7580334
50
269.6810953
51
315.6152252
0
ARC
8
DEFAULT_255_2_778
10
9.5663839
20
58.0997381
40
0.7597504
50
315.8129036
51
0.3254485
0
ARC
8
DEFAULT_255_2_778
10
9.5738176
20
58.1026565
40
0.7523058
50
0.1093155
51
85.7820321
0
ARC
8
DEFAULT_255_2_778
10
9.5653381
20
58.0611263
40
0.7943655
50
85.3923987
51
90.0083732
0
ARC
8
DEFAULT_255_2_778
10
9.5633385
20
58.1163348
40
0.7391595
50
89.8539942
51
89.9999859
0
ARC
8
DEFAULT_255_2_778
10
9.563405
20
58.1044783
40
0.7510159
50
90.0050654
51
134.9497993
0
ARC
8
DEFAULT_255_2_778
10
9.5632746
20
58.1042963
40
0.7510526
50
134.9329452
51
180.0155944
0
ARC
8
DEFAULT_255_2_778
10
9.5762945
20
58.1001612
40
0.7640826
50
179.7052536
51
222.5741919
0
ARC
8
DEFAULT_255_2_778
10
9.5632805
20
58.0891163
40
0.7470269
50
222.6256588
51
270.1489141
0
LINE
8
DEFAULT_255_2_778
10
14.0768221
20
59.3201919
11
14.0768221
21
56.8573919
0
LINE
8
DEFAULT_255_2_778
10
14.0768221
20
56.8573919
11
14.6203221
21
56.8573919
0
LINE
8
DEFAULT_255_2_778
10
14.6203221
20
56.8573919
11
14.6203221
21
58.8647919
0
LINE
8
DEFAULT_255_2_778
10
14.6203221
20
58.8647919
11
15.2632221
21
58.8647919
0
LINE
8
DEFAULT_255_2_778
10
15.2632221
20
58.1040919
11
14.7986221
21
58.1040919
0
LINE
8
DEFAULT_255_2_778
10
14.7986221
20
58.1040919
11
15.6397221
21
56.8570919
0
LINE
8
DEFAULT_255_2_778
10
15.6397221
20
56.8570919
11
16.3126221
21
56.8570919
0
LINE
8
DEFAULT_255_2_778
10
16.3126221
20
56.8570919
11
15.6993221
21
57.7574919
0
LINE
8
DEFAULT_255_2_778
10
15.3421221
20
59.3407919
11
14.6200221
21
59.3407919
0
LINE
8
DEFAULT_255_2_778
10
14.6200221
20
59.3407919
11
14.0766221
21
59.3201919
0
LINE
8
DEFAULT_255_2_778
10
14.0766221
20
59.3201919
11
14.0768221
21
59.3201919
0
LINE
8
DEFAULT_255_2_778
10
19.0142221
20
59.3201919
11
19.0142221
21
56.8573919
0
LINE
8
DEFAULT_255_2_778
10
19.0142221
20
56.8573919
11
19.5577221
21
56.8573919
0
LINE
8
DEFAULT_255_2_778
10
19.5577221
20
56.8573919
11
19.5577221
21
58.8647919
0
LINE
8
DEFAULT_255_2_778
10
19.5577221
20
58.8647919
11
20.1723221
21
58.8647919
0
LINE
8
DEFAULT_255_2_778
10
20.5578221
20
58.4895919
11
20.5578221
21
56.8573919
0
LINE
8
DEFAULT_255_2_778
10
20.5578221
20
56.8573919
11
21.1013221
21
56.8573919
0
LINE
8
DEFAULT_255_2_778
10
21.1013221
20
56.8573919
11
21.1013221
21
58.4702919
0
LINE
8
DEFAULT_255_2_778
10
20.2305221
20
59.3407919
11
19.5577221
21
59.3407919
0
LINE
8
DEFAULT_255_2_778
10
19.5577221
20
59.3407919
11
19.0142221
21
59.3201919
0
LINE
8
DEFAULT_255_2_778
10
19.0142221
20
59.3201919
11
19.0142221
21
59.3201919
0
LINE
8
DEFAULT_255_2_778
10
11.0196221
20
59.3201919
11
11.0196221
21
56.8573919
0
LINE
8
DEFAULT_255_2_778
10
11.0196221
20
56.8573919
11
11.5628221
21
56.8573919
0
LINE
8
DEFAULT_255_2_778
10
11.5628221
20
56.8573919
11
11.5628221
21
58.8647919
0
LINE
8
DEFAULT_255_2_778
10
11.5628221
20
58.8647919
11
12.1671221
21
58.8647919
0
LINE
8
DEFAULT_255_2_778
10
12.1671221
20
58.8647919
11
12.1671221
21
56.8573919
0
LINE
8
DEFAULT_255_2_778
10
12.1671221
20
56.8573919
11
12.7105221
21
56.8573919
0
LINE
8
DEFAULT_255_2_778
10
12.7105221
20
56.8573919
11
12.7105221
21
58.8647919
0
LINE
8
DEFAULT_255_2_778
10
12.7105221
20
58.8647919
11
12.9188221
21
58.8647919
0
LINE
8
DEFAULT_255_2_778
10
13.3042221
20
58.4895919
11
13.3042221
21
56.8573919
0
LINE
8
DEFAULT_255_2_778
10
13.3042221
20
56.8573919
11
13.8490221
21
56.8573919
0
LINE
8
DEFAULT_255_2_778
10
13.8490221
20
56.8573919
11
13.8490221
21
58.4702919
0
LINE
8
DEFAULT_255_2_778
10
12.9783221
20
59.3407919
11
11.5731221
21
59.3407919
0
LINE
8
DEFAULT_255_2_778
10
11.5731221
20
59.3407919
11
11.0193221
21
59.3201919
0
LINE
8
DEFAULT_255_2_778
10
11.0193221
20
59.3201919
11
11.0196221
21
59.3201919
0
LINE
8
DEFAULT_255_2_778
10
17.5598221
20
56.7975919
11
17.5598221
21
56.7978919
0
LINE
8
DEFAULT_255_2_778
10
9.5652221
20
56.7978919
11
9.5652221
21
56.7978919
0
LINE
8
DEFAULT_255_1_234
10
11.519823
20
54.6207663
11
11.6748355
21
54.6207663
0
LINE
8
DEFAULT_255_1_234
10
10.7744777
20
54.7797947
11
10.7744777
21
54.8922391
0
LINE
8
DEFAULT_255_1_234
10
11.6748355
20
55.0432357
11
11.519823
21
55.0432357
0
LINE
8
DEFAULT_255_1_234
10
10.9294902
20
54.8882232
11
10.9294902
21
54.7749757
0
ARC
8
DEFAULT_255_1_234
10
11.1267742
20
54.6804846
40
0.5513052
50
340.1774281
51
353.7814284
0
ARC
8
DEFAULT_255_1_234
10
11.2839095
20
54.6219582
40
0.3836379
50
311.4558989
51
340.4421614
0
ARC
8
DEFAULT_255_1_234
10
11.2805763
20
54.6330528
40
0.3941894
50
282.4333181
51
310.7513653
0
ARC
8
DEFAULT_255_1_234
10
11.2366502
20
54.8145679
40
0.5809175
50
269.9358511
51
282.809604
0
ARC
8
DEFAULT_255_1_234
10
11.2314568
20
54.9603212
40
0.7266847
50
270.0021091
51
270.3581957
0
ARC
8
DEFAULT_255_1_234
10
11.2261985
20
54.7002585
40
0.4666519
50
250.7884749
51
270.6489167
0
ARC
8
DEFAULT_255_1_234
10
11.209382
20
54.6365319
40
0.4009729
50
219.3627325
51
250.0611886
0
ARC
8
DEFAULT_255_1_234
10
11.2923031
20
54.7070042
40
0.5097822
50
193.5479632
51
219.5756669
0
ARC
8
DEFAULT_255_1_234
10
11.5294652
20
54.7685919
40
0.7547848
50
181.1218675
51
193.87563
0
ARC
8
DEFAULT_255_1_234
10
11.7364833
20
54.779658
40
0.9620055
50
179.9918545
51
181.5394234
0
ARC
8
DEFAULT_255_1_234
10
11.5513935
20
54.8959788
40
0.7769248
50
169.5837241
51
180.2757934
0
ARC
8
DEFAULT_255_1_234
10
11.3676873
20
54.9299229
40
0.590109
50
155.0365899
51
169.6003176
0
ARC
8
DEFAULT_255_1_234
10
11.2541337
20
54.9846677
40
0.4640625
50
136.783148
51
155.2472683
0
ARC
8
DEFAULT_255_1_234
10
11.2151814
20
55.0177562
40
0.4130255
50
121.7633186
51
136.428115
0
ARC
8
DEFAULT_255_1_234
10
11.2286776
20
54.9928227
40
0.4413323
50
95.6459699
51
121.5490577
0
ARC
8
DEFAULT_255_1_234
10
11.2444058
20
54.8819949
40
0.55319
50
89.924208
51
96.1377933
0
ARC
8
DEFAULT_255_1_234
10
11.2494491
20
54.8938542
40
0.5413475
50
76.6779277
51
90.4563316
0
ARC
8
DEFAULT_255_1_234
10
11.2888114
20
55.0529114
40
0.3775041
50
47.485847
51
76.9287264
0
ARC
8
DEFAULT_255_1_234
10
11.2741087
20
55.0429159
40
0.3948286
50
16.5424086
51
46.8933463
0
ARC
8
DEFAULT_255_1_234
10
11.1133244
20
54.9900861
40
0.564021
50
5.4072051
51
17.0365086
0
ARC
8
DEFAULT_255_1_234
10
10.9694261
20
54.9669679
40
0.5556559
50
7.8891745
51
15.9239216
0
ARC
8
DEFAULT_255_1_234
10
11.1681274
20
55.0246631
40
0.3487515
50
15.7653144
51
27.9410532
0
ARC
8
DEFAULT_255_1_234
10
11.2785492
20
55.083779
40
0.2235026
50
27.8166557
51
46.4008329
0
ARC
8
DEFAULT_255_1_234
10
11.2835135
20
55.0832082
40
0.2205286
50
47.4371857
51
75.0698205
0
ARC
8
DEFAULT_255_1_234
10
11.2526529
20
54.9757765
40
0.3322915
50
74.7008593
51
87.8124495
0
ARC
8
DEFAULT_255_1_234
10
11.2453217
20
54.8701844
40
0.4380987
50
87.3814673
51
90.0240855
0
ARC
8
DEFAULT_255_1_234
10
11.241476
20
54.9879291
40
0.3203749
50
89.3451631
51
108.5745436
0
ARC
8
DEFAULT_255_1_234
10
11.2277865
20
55.0392908
40
0.2673494
50
109.2998449
51
143.3037509
0
ARC
8
DEFAULT_255_1_234
10
11.3039938
20
54.9806881
40
0.3634757
50
143.0753173
51
163.1916937
0
ARC
8
DEFAULT_255_1_234
10
11.4991666
20
54.9190967
40
0.5681262
50
162.9373603
51
174.6208611
0
ARC
8
DEFAULT_255_1_234
10
11.7617708
20
54.890301
40
0.8322832
50
174.3419979
51
180.1430411
0
ARC
8
DEFAULT_255_1_234
10
11.6686864
20
54.7708698
40
0.7392076
50
179.6817502
51
189.150529
0
ARC
8
DEFAULT_255_1_234
10
11.4186112
20
54.729219
40
0.4856932
50
188.9910863
51
203.5773039
0
ARC
8
DEFAULT_255_1_234
10
11.3106445
20
54.6844211
40
0.3688271
50
203.9077269
51
215.1312379
0
ARC
8
DEFAULT_255_1_234
10
11.2183539
20
54.6128941
40
0.2522457
50
213.9071664
51
263.8849284
0
ARC
8
DEFAULT_255_1_234
10
11.2308868
20
54.6913518
40
0.3316174
50
263.1758525
51
270.1031083
0
ARC
8
DEFAULT_255_1_234
10
11.234096
20
54.8160365
40
0.4563091
50
269.6719807
51
279.0609165
0
ARC
8
DEFAULT_255_1_234
10
11.2607728
20
54.6547907
40
0.2928759
50
278.8750225
51
293.6346586
0
ARC
8
DEFAULT_255_1_234
10
11.2927936
20
54.57959
40
0.2111472
50
293.8553404
51
310.0518804
0
ARC
8
DEFAULT_255_1_234
10
11.293279
20
54.5733516
40
0.2060917
50
311.0646779
51
332.0108348
0
ARC
8
DEFAULT_255_1_234
10
11.1740517
20
54.6390978
40
0.3422352
50
331.6588543
51
343.2878891
0
ARC
8
DEFAULT_255_1_234
10
10.9678032
20
54.7024798
40
0.5580003
50
343.1446044
51
351.010618
0
ARC
8
DEFAULT_255_1_234
10
10.8136678
20
54.7305871
40
0.7146438
50
350.7157277
51
351.1602153
0
LINE
8
DEFAULT_255_1_234
10
12.3752031
20
54.5886394
11
12.3752031
21
55.4191211
0
LINE
8
DEFAULT_255_1_234
10
12.3752031
20
55.4191211
11
12.5302157
21
55.4191211
0
LINE
8
DEFAULT_255_1_234
10
12.5302157
20
55.4191211
11
12.5302157
21
54.5910489
0
LINE
8
DEFAULT_255_1_234
10
11.7920989
20
54.5725759
11
11.9463083
21
54.5725759
0
ARC
8
DEFAULT_255_1_234
10
12.0811342
20
54.5872089
40
0.4490979
50
346.3129415
51
0.4899112
0
ARC
8
DEFAULT_255_1_234
10
12.2179691
20
54.5521729
40
0.3078632
50
313.3793358
51
346.6225026
0
ARC
8
DEFAULT_255_1_234
10
12.1978878
20
54.5774522
40
0.3400404
50
281.1587967
51
312.9131091
0
ARC
8
DEFAULT_255_1_234
10
12.1638342
20
54.7269185
40
0.4932916
50
269.6424364
51
281.6795951
0
ARC
8
DEFAULT_255_1_234
10
12.1569706
20
54.7818382
40
0.5482147
50
258.9990078
51
270.3955952
0
ARC
8
DEFAULT_255_1_234
10
12.119501
20
54.5969746
40
0.359601
50
239.6256123
51
259.238693
0
ARC
8
DEFAULT_255_1_234
10
12.0906093
20
54.5424669
40
0.2979777
50
227.4959765
51
239.1188186
0
ARC
8
DEFAULT_255_1_234
10
12.0868659
20
54.5363689
40
0.2909561
50
191.339631
51
227.2280909
0
ARC
8
DEFAULT_255_1_234
10
12.22733
20
54.5696031
40
0.4352412
50
179.6086538
51
191.9934722
0
ARC
8
DEFAULT_255_1_234
10
12.2407322
20
54.5703427
40
0.2944324
50
179.5654258
51
192.070398
0
ARC
8
DEFAULT_255_1_234
10
12.1435812
20
54.5485079
40
0.194866
50
191.7656467
51
215.6461951
0
ARC
8
DEFAULT_255_1_234
10
12.1257313
20
54.5377546
40
0.1741017
50
216.1938368
51
224.3931108
0
ARC
8
DEFAULT_255_1_234
10
12.1264199
20
54.5404473
40
0.1764834
50
224.8613677
51
254.362656
0
ARC
8
DEFAULT_255_1_234
10
12.1534913
20
54.629901
40
0.2699302
50
253.9471729
51
267.3949949
0
ARC
8
DEFAULT_255_1_234
10
12.160542
20
54.7223067
40
0.362572
50
266.9456419
51
270.0337791
0
ARC
8
DEFAULT_255_1_234
10
12.16308
20
54.606123
40
0.2463991
50
269.4595111
51
286.1822844
0
ARC
8
DEFAULT_255_1_234
10
12.177209
20
54.5543047
40
0.1926982
50
286.4416479
51
315.8044008
0
ARC
8
DEFAULT_255_1_234
10
12.1717897
20
54.5585207
40
0.1995241
50
316.0212565
51
345.4794351
0
ARC
8
DEFAULT_255_1_234
10
12.0747404
20
54.5858575
40
0.3003349
50
345.0729543
51
358.325089
0
ARC
8
DEFAULT_255_1_234
10
11.9871375
20
54.5914568
40
0.3880759
50
357.8767804
51
359.5840246
0
LINE
8
DEFAULT_255_1_234
10
13.0787834
20
54.8071026
11
13.0787834
21
54.6858234
0
LINE
8
DEFAULT_255_1_234
10
13.0787834
20
54.6858234
11
12.6868346
21
54.6858234
0
LINE
8
DEFAULT_255_1_234
10
12.6868346
20
54.6858234
11
12.6868346
21
54.8071026
0
LINE
8
DEFAULT_255_1_234
10
12.6868346
20
54.8071026
11
13.0787834
21
54.8071026
0
LINE
8
DEFAULT_255_1_234
10
14.0225126
20
55.0809849
11
13.8675001
21
55.0809849
0
LINE
8
DEFAULT_255_1_234
10
13.1751643
20
54.5886394
11
13.3301768
21
54.5886394
0
ARC
8
DEFAULT_255_1_234
10
13.9333814
20
55.9756768
40
1.252368
50
248.9199003
51
254.1439814
0
ARC
8
DEFAULT_255_1_234
10
13.7653309
20
55.5430234
40
0.788226
50
241.633709
51
249.0064503
0
ARC
8
DEFAULT_255_1_234
10
13.6124703
20
55.2629317
40
0.4691427
50
230.498225
51
241.8087113
0
ARC
8
DEFAULT_255_1_234
10
13.5340277
20
55.1629906
40
0.3421437
50
227.4064532
51
229.9881192
0
ARC
8
DEFAULT_255_1_234
10
13.4852798
20
55.1154088
40
0.2741476
50
200.6781896
51
228.1763934
0
ARC
8
DEFAULT_255_1_234
10
13.4925109
20
55.1139077
40
0.2804109
50
179.5061581
51
199.8694617
0
ARC
8
DEFAULT_255_1_234
10
13.491586
20
55.121321
40
0.2795204
50
132.4834203
51
181.0242172
0
ARC
8
DEFAULT_255_1_234
10
13.5511443
20
55.0650704
40
0.3612768
50
129.2532479
51
133.4242687
0
ARC
8
DEFAULT_255_1_234
10
13.5657892
20
55.0430965
40
0.3875675
50
101.98776
51
128.8742646
0
ARC
8
DEFAULT_255_1_234
10
13.6056503
20
54.8709741
40
0.5642249
50
89.5906553
51
102.3169264
0
ARC
8
DEFAULT_255_1_234
10
13.6126995
20
54.9028148
40
0.5323783
50
77.2360837
51
90.3248275
0
ARC
8
DEFAULT_255_1_234
10
13.6334074
20
54.99954
40
0.4334697
50
63.837784
51
77.0809408
0
ARC
8
DEFAULT_255_1_234
10
13.6611836
20
55.0512911
40
0.3747796
50
45.9864267
51
64.1607727
0
ARC
8
DEFAULT_255_1_234
10
13.6872717
20
55.0810866
40
0.3352302
50
32.2747395
51
45.6547121
0
ARC
8
DEFAULT_255_1_234
10
13.6939158
20
55.082988
40
0.328603
50
359.6507365
51
32.6130309
0
ARC
8
DEFAULT_255_1_234
10
13.5996253
20
55.083466
40
0.2678863
50
359.469343
51
14.9832209
0
ARC
8
DEFAULT_255_1_234
10
13.6701316
20
55.1023539
40
0.1948938
50
14.9781179
51
48.2004265
0
ARC
8
DEFAULT_255_1_234
10
13.653696
20
55.0816983
40
0.2212521
50
48.5927837
51
74.1241538
0
ARC
8
DEFAULT_255_1_234
10
13.6203449
20
54.9716248
40
0.3362561
50
73.7888341
51
86.6652678
0
ARC
8
DEFAULT_255_1_234
10
13.6101015
20
54.8508881
40
0.4573953
50
86.2640471
51
90.0526343
0
ARC
8
DEFAULT_255_1_234
10
13.6072727
20
54.8904192
40
0.4178709
50
89.6697524
51
99.2309573
0
ARC
8
DEFAULT_255_1_234
10
13.5830178
20
55.0348964
40
0.2713749
50
99.069534
51
113.7658566
0
ARC
8
DEFAULT_255_1_234
10
13.5556369
20
55.0994677
40
0.2012469
50
114.0401004
51
127.9850673
0
ARC
8
DEFAULT_255_1_234
10
13.5315933
20
55.129073
40
0.1631167
50
127.7287463
51
176.7105154
0
ARC
8
DEFAULT_255_1_234
10
13.5994651
20
55.1189693
40
0.2315392
50
175.1779447
51
180.0581938
0
ARC
8
DEFAULT_255_1_234
10
13.5151498
20
55.1177428
40
0.1472271
50
179.6142195
51
228.1246017
0
ARC
8
DEFAULT_255_1_234
10
13.5593166
20
55.1586308
40
0.2072299
50
226.5779593
51
230.8800004
0
ARC
8
DEFAULT_255_1_234
10
13.6064245
20
55.2211636
40
0.2854818
50
231.4635071
51
241.9260842
0
ARC
8
DEFAULT_255_1_234
10
13.7261423
20
55.44148
40
0.53622
50
241.7178533
51
248.3259551
0
ARC
8
DEFAULT_255_1_234
10
13.8646795
20
55.7847064
40
0.9063478
50
248.2007737
51
252.4528373
0
ARC
8
DEFAULT_255_1_234
10
13.985052
20
56.1568441
40
1.2974635
50
252.3391078
51
254.3469452
0
ARC
8
DEFAULT_255_1_234
10
13.2308222
20
53.4591148
40
1.5037162
50
71.0197183
51
74.4087047
0
ARC
8
DEFAULT_255_1_234
10
13.4002907
20
53.9483111
40
0.9859993
50
66.1847285
51
71.086374
0
ARC
8
DEFAULT_255_1_234
10
13.555922
20
54.29872
40
0.6025855
50
59.3536294
51
66.2691831
0
ARC
8
DEFAULT_255_1_234
10
13.6447872
20
54.4490609
40
0.4279449
50
49.1020879
51
59.3293958
0
ARC
8
DEFAULT_255_1_234
10
13.7266612
20
54.5423834
40
0.3038015
50
32.7919921
51
49.2505539
0
ARC
8
DEFAULT_255_1_234
10
13.7587702
20
54.5652191
40
0.264448
50
31.1181161
51
32.4005348
0
ARC
8
DEFAULT_255_1_234
10
13.749924
20
54.5616779
40
0.2738556
50
8.1116974
51
30.7958831
0
ARC
8
DEFAULT_255_1_234
10
13.6688908
20
54.5478753
40
0.3560327
50
359.8389159
51
8.4706516
0
ARC
8
DEFAULT_255_1_234
10
13.7314699
20
54.5430137
40
0.2934776
50
337.4731098
51
0.7537279
0
ARC
8
DEFAULT_255_1_234
10
13.7493394
20
54.5410387
40
0.2762607
50
307.5917067
51
336.4315538
0
ARC
8
DEFAULT_255_1_234
10
13.7033222
20
54.5923102
40
0.3449979
50
307.6551545
51
308.4529766
0
ARC
8
DEFAULT_255_1_234
10
13.6802941
20
54.627825
40
0.3871988
50
284.3734338
51
307.1424381
0
ARC
8
DEFAULT_255_1_234
10
13.6307771
20
54.8099932
40
0.5759636
50
272.4382747
51
284.646547
0
ARC
8
DEFAULT_255_1_234
10
13.618098
20
54.9899893
40
0.7563528
50
269.9708387
51
272.8178037
0
ARC
8
DEFAULT_255_1_234
10
13.613802
20
54.7861716
40
0.5525489
50
248.2707594
51
270.4055579
0
ARC
8
DEFAULT_255_1_234
10
13.6083761
20
54.7671192
40
0.5328452
50
246.1383403
51
248.0542782
0
ARC
8
DEFAULT_255_1_234
10
13.566514
20
54.6791843
40
0.4355005
50
233.1670131
51
246.4950969
0
ARC
8
DEFAULT_255_1_234
10
13.5111045
20
54.6043812
40
0.3424126
50
215.3403242
51
233.0843104
0
ARC
8
DEFAULT_255_1_234
10
13.4838476
20
54.5845549
40
0.3087104
50
179.2419209
51
215.2648451
0
ARC
8
DEFAULT_255_1_234
10
13.560607
20
54.5859666
40
0.2304457
50
179.335461
51
199.1045811
0
ARC
8
DEFAULT_255_1_234
10
13.5273746
20
54.5772766
40
0.1962176
50
199.8828939
51
232.7063202
0
ARC
8
DEFAULT_255_1_234
10
13.5746015
20
54.6366788
40
0.2720938
50
232.3738199
51
255.5136649
0
ARC
8
DEFAULT_255_1_234
10
13.6086881
20
54.7610835
40
0.4010747
50
255.2446292
51
267.5320849
0
ARC
8
DEFAULT_255_1_234
10
13.6174505
20
54.8843702
40
0.5246356
50
267.1557994
51
270.0286766
0
ARC
8
DEFAULT_255_1_234
10
13.6202277
20
54.839995
40
0.4802668
50
269.7000017
51
278.1660162
0
ARC
8
DEFAULT_255_1_234
10
13.6458282
20
54.6669515
40
0.3053425
50
278.0231263
51
290.625471
0
ARC
8
DEFAULT_255_1_234
10
13.6805969
20
54.5742025
40
0.206291
50
290.6619762
51
307.0370976
0
ARC
8
DEFAULT_255_1_234
10
13.7106358
20
54.5373504
40
0.1587906
50
306.3943566
51
355.3030547
0
ARC
8
DEFAULT_255_1_234
10
13.6594289
20
54.5450113
40
0.2104809
50
354.3660432
51
0.0698737
0
ARC
8
DEFAULT_255_1_234
10
13.6736635
20
54.5472617
40
0.1962563
50
359.417946
51
16.1971788
0
ARC
8
DEFAULT_255_1_234
10
13.7191945
20
54.5597418
40
0.149053
50
16.4723299
51
52.6262157
0
ARC
8
DEFAULT_255_1_234
10
13.6370999
20
54.4513433
40
0.2850296
50
52.7386432
51
62.4979148
0
ARC
8
DEFAULT_255_1_234
10
13.4986076
20
54.1907283
40
0.5801521
50
62.2515216
51
68.1220564
0
ARC
8
DEFAULT_255_1_234
10
13.3265987
20
53.7679872
40
1.0365451
50
68.0062803
51
71.8053402
0
ARC
8
DEFAULT_255_1_234
10
13.1470358
20
53.2294758
40
1.6042013
50
71.7183119
51
73.9258742
0
LINE
8
DEFAULT_255_1_234
10
14.1614617
20
54.6601218
11
14.1614617
21
54.6874297
0
LINE
8
DEFAULT_255_1_234
10
14.8987753
20
54.7034932
11
14.8987753
21
54.6416488
0
LINE
8
DEFAULT_255_1_234
10
14.8987753
20
54.6416488
11
14.3100489
21
54.6416488
0
LINE
8
DEFAULT_255_1_234
10
14.7967722
20
54.4721792
11
14.8875309
21
54.4014999
0
LINE
8
DEFAULT_255_1_234
10
14.3148679
20
54.7637313
11
14.7501881
21
54.7637313
0
LINE
8
DEFAULT_255_1_234
10
14.7501881
20
54.7637313
11
14.7501881
21
54.7749757
0
ARC
8
DEFAULT_255_1_234
10
14.5553982
20
54.6712332
40
0.4376191
50
252.3266134
51
270.5810217
0
ARC
8
DEFAULT_255_1_234
10
14.5349071
20
54.5971644
40
0.3608374
50
223.3000567
51
251.8561855
0
ARC
8
DEFAULT_255_1_234
10
14.5560432
20
54.6176937
40
0.3902993
50
190.9374509
51
223.3654032
0
ARC
8
DEFAULT_255_1_234
10
14.7285404
20
54.6566885
40
0.5670891
50
179.6531105
51
191.4989439
0
ARC
8
DEFAULT_255_1_234
10
14.7407417
20
54.6906417
40
0.5792888
50
167.4007466
51
180.3176909
0
ARC
8
DEFAULT_255_1_234
10
14.6355478
20
54.7128885
40
0.471777
50
154.1835823
51
167.250763
0
ARC
8
DEFAULT_255_1_234
10
14.5723945
20
54.7461417
40
0.4004528
50
134.3149965
51
154.5315275
0
ARC
8
DEFAULT_255_1_234
10
14.5506441
20
54.7652228
40
0.371612
50
122.8616532
51
133.9707695
0
ARC
8
DEFAULT_255_1_234
10
14.5403015
20
54.7874703
40
0.3473289
50
89.8249009
51
123.4199222
0
ARC
8
DEFAULT_255_1_234
10
14.5453056
20
54.7227967
40
0.4120197
50
74.7876118
51
90.5482747
0
ARC
8
DEFAULT_255_1_234
10
14.5746799
20
54.831303
40
0.2996077
50
39.8178249
51
74.7633718
0
ARC
8
DEFAULT_255_1_234
10
14.5234119
20
54.7913351
40
0.3645855
50
16.8990863
51
39.4829761
0
ARC
8
DEFAULT_255_1_234
10
14.3339416
20
54.7306526
40
0.5635218
50
4.9636328
51
17.2026414
0
ARC
8
DEFAULT_255_1_234
10
14.0921486
20
54.705134
40
0.8066286
50
359.8834553
51
5.2834307
0
ARC
8
DEFAULT_255_1_234
10
14.695901
20
54.6482803
40
0.3859091
50
180.9846213
51
194.9401313
0
ARC
8
DEFAULT_255_1_234
10
14.5909288
20
54.6195849
40
0.2770883
50
194.80314
51
222.0412631
0
ARC
8
DEFAULT_255_1_234
10
14.560517
20
54.5894116
40
0.2343055
50
221.5417084
51
268.8614402
0
ARC
8
DEFAULT_255_1_234
10
14.5678165
20
54.6570686
40
0.3021528
50
267.732405
51
270.0097136
0
ARC
8
DEFAULT_255_1_234
10
14.5695975
20
54.6772105
40
0.3222994
50
269.6924892
51
280.4117579
0
ARC
8
DEFAULT_255_1_234
10
14.5872381
20
54.5853193
40
0.2287344
50
280.2255091
51
298.6338936
0
ARC
8
DEFAULT_255_1_234
10
14.5989173
20
54.5609223
40
0.2017294
50
299.0430333
51
300.4643464
0
ARC
8
DEFAULT_255_1_234
10
14.5309179
20
54.6743038
40
0.3339357
50
300.6577328
51
322.0378878
0
ARC
8
DEFAULT_255_1_234
10
14.4958718
20
54.7047021
40
0.3802736
50
321.6750233
51
322.3046845
0
ARC
8
DEFAULT_255_1_234
10
14.5889679
20
54.588037
40
0.3520454
50
276.9728461
51
328.0035423
0
ARC
8
DEFAULT_255_1_234
10
14.5612732
20
54.7360841
40
0.5024498
50
269.8361028
51
278.0581756
0
ARC
8
DEFAULT_255_1_234
10
14.538547
20
54.8105757
40
0.202159
50
89.2018686
51
117.2851756
0
ARC
8
DEFAULT_255_1_234
10
14.5438639
20
54.8063752
40
0.2083484
50
118.0551165
51
137.4540413
0
ARC
8
DEFAULT_255_1_234
10
14.5813379
20
54.7723304
40
0.2589774
50
137.5109581
51
158.8516286
0
ARC
8
DEFAULT_255_1_234
10
14.6951214
20
54.7264074
40
0.38167
50
158.5845963
51
170.1721436
0
ARC
8
DEFAULT_255_1_234
10
14.8120603
20
54.7031823
40
0.5008657
50
169.8376422
51
173.0566086
0
ARC
8
DEFAULT_255_1_234
10
14.3423677
20
54.7542509
40
0.4083467
50
2.9091802
51
12.8847116
0
ARC
8
DEFAULT_255_1_234
10
14.4794354
20
54.7865101
40
0.2675383
50
12.6957781
51
28.6404489
0
ARC
8
DEFAULT_255_1_234
10
14.5336025
20
54.8145458
40
0.2065654
50
29.0169854
51
41.1487595
0
ARC
8
DEFAULT_255_1_234
10
14.553881
20
54.8322003
40
0.1796786
50
41.1646065
51
85.0013516
0
ARC
8
DEFAULT_255_1_234
10
14.5417906
20
54.7587431
40
0.2539726
50
83.7280015
51
90.0964893
0
LINE
8
DEFAULT_255_1_234
10
15.4907144
20
55.1235531
11
15.4907144
21
54.9854072
0
LINE
8
DEFAULT_255_1_234
10
15.2192417
20
54.8665375
11
15.2192417
21
54.2497
0
LINE
8
DEFAULT_255_1_234
10
15.2192417
20
54.2497
11
15.0706545
21
54.2497
0
LINE
8
DEFAULT_255_1_234
10
15.0706545
20
54.2497
11
15.0706545
21
55.1187341
0
LINE
8
DEFAULT_255_1_234
10
15.0706545
20
55.1187341
11
15.2152258
21
55.1187341
0
LINE
8
DEFAULT_255_1_234
10
15.2152258
20
55.1187341
11
15.2176353
21
55.0183374
0
ARC
8
DEFAULT_255_1_234
10
15.424055
20
54.5794342
40
0.4114092
50
80.6754243
51
86.8932892
0
ARC
8
DEFAULT_255_1_234
10
15.4180084
20
54.48267
40
0.5083596
50
86.8038578
51
90.0431435
0
ARC
8
DEFAULT_255_1_234
10
15.4143065
20
54.7283866
40
0.2626638
50
89.2759698
51
106.6213787
0
ARC
8
DEFAULT_255_1_234
10
15.3938629
20
54.802683
40
0.1856317
50
107.1346045
51
157.6458115
0
ARC
8
DEFAULT_255_1_234
10
15.463023
20
54.7643311
40
0.2643398
50
155.6586782
51
157.2539184
0
ARC
8
DEFAULT_255_1_234
10
15.4425432
20
54.8812157
40
0.2634121
50
127.8165941
51
148.6302098
0
ARC
8
DEFAULT_255_1_234
10
15.4171901
20
54.9072218
40
0.2273596
50
91.3329982
51
126.7875809
0
ARC
8
DEFAULT_255_1_234
10
15.4247842
20
54.8357195
40
0.299078
50
89.986594
51
92.4688449
0
ARC
8
DEFAULT_255_1_234
10
15.4256237
20
54.8632078
40
0.2715908
50
85.3589899
51
90.1623399
0
ARC
8
DEFAULT_255_1_234
10
15.4340752
20
54.9636164
40
0.1708278
50
78.401942
51
85.4594656
0
ARC
8
DEFAULT_255_1_234
10
15.4485636
20
55.0327236
40
0.1002194
50
67.7858312
51
78.5728455
0
ARC
8
DEFAULT_255_1_234
10
15.4593489
20
55.0606887
40
0.0702548
50
63.4835954
51
67.3062642
0
LINE
8
DEFAULT_255_1_234
10
15.7886919
20
55.1187341
11
15.7886919
21
54.2497
0
LINE
8
DEFAULT_255_1_234
10
15.7886919
20
54.2497
11
15.6401047
21
54.2497
0
LINE
8
DEFAULT_255_1_234
10
15.6401047
20
54.2497
11
15.6401047
21
55.1187341
0
LINE
8
DEFAULT_255_1_234
10
15.6401047
20
55.1187341
11
15.7886919
21
55.1187341
0
ARC
8
DEFAULT_255_1_234
10
15.7259196
20
55.3501889
40
0.097867
50
161.415052
51
180.5526306
0
ARC
8
DEFAULT_255_1_234
10
15.7134974
20
55.3536077
40
0.0850062
50
138.1827368
51
160.9307106
0
ARC
8
DEFAULT_255_1_234
10
15.702492
20
55.3631588
40
0.0704362
50
104.6368899
51
138.0039868
0
ARC
8
DEFAULT_255_1_234
10
15.7132075
20
55.3264963
40
0.1086221
50
92.0600725
51
105.2189128
0
ARC
8
DEFAULT_255_1_234
10
15.7155423
20
55.2922117
40
0.1429728
50
89.9756393
51
92.5012496
0
ARC
8
DEFAULT_255_1_234
10
15.7165442
20
55.3147731
40
0.1204151
50
78.0235316
51
90.4478182
0
ARC
8
DEFAULT_255_1_234
10
15.7257534
20
55.3561295
40
0.0780493
50
55.051506
51
78.3369085
0
ARC
8
DEFAULT_255_1_234
10
15.7307809
20
55.3645711
40
0.0682538
50
42.0501187
51
54.4513741
0
ARC
8
DEFAULT_255_1_234
10
15.7172676
20
55.3521798
40
0.0865878
50
1.7497075
51
42.1496013
0
ARC
8
DEFAULT_255_1_234
10
15.6918009
20
55.3492738
40
0.1121515
50
359.9852656
51
2.8364544
0
ARC
8
DEFAULT_255_1_234
10
15.7084001
20
55.3483229
40
0.0955566
50
342.1070653
51
0.552888
0
ARC
8
DEFAULT_255_1_234
10
15.7226698
20
55.3443904
40
0.0807713
50
316.7107116
51
341.6516965
0
ARC
8
DEFAULT_255_1_234
10
15.7293735
20
55.3383823
40
0.0717724
50
285.4397031
51
316.5324284
0
ARC
8
DEFAULT_255_1_234
10
15.7183652
20
55.3749554
40
0.1099597
50
272.3547054
51
285.8953117
0
ARC
8
DEFAULT_255_1_234
10
15.715681
20
55.4115048
40
0.1465932
50
269.9695369
51
272.8160237
0
ARC
8
DEFAULT_255_1_234
10
15.7146992
20
55.3895863
40
0.1246779
50
258.8431134
51
270.4153935
0
ARC
8
DEFAULT_255_1_234
10
15.7057034
20
55.3460414
40
0.0802162
50
238.5431189
51
259.1288175
0
ARC
8
DEFAULT_255_1_234
10
15.6988919
20
55.3336856
40
0.0661247
50
222.5062634
51
237.9906969
0
ARC
8
DEFAULT_255_1_234
10
15.7116506
20
55.3452889
40
0.0833707
50
184.1069131
51
222.460413
0
ARC
8
DEFAULT_255_1_234
10
15.7385747
20
55.3491349
40
0.1105176
50
179.9429482
51
185.0960898
0
LINE
8
DEFAULT_255_1_234
10
15.9886822
20
54.6601218
11
15.9886822
21
54.6874297
0
LINE
8
DEFAULT_255_1_234
10
16.7259958
20
54.7034932
11
16.7259958
21
54.6416488
0
LINE
8
DEFAULT_255_1_234
10
16.7259958
20
54.6416488
11
16.1372693
21
54.6416488
0
LINE
8
DEFAULT_255_1_234
10
16.6239927
20
54.4721792
11
16.7147513
21
54.4014999
0
LINE
8
DEFAULT_255_1_234
10
16.1420884
20
54.7637313
11
16.5774086
21
54.7637313
0
LINE
8
DEFAULT_255_1_234
10
16.5774086
20
54.7637313
11
16.5774086
21
54.7749757
0
ARC
8
DEFAULT_255_1_234
10
16.3826187
20
54.6712332
40
0.4376191
50
252.3266134
51
270.5810217
0
ARC
8
DEFAULT_255_1_234
10
16.3621276
20
54.5971644
40
0.3608374
50
223.3000567
51
251.8561855
0
ARC
8
DEFAULT_255_1_234
10
16.3832637
20
54.6176937
40
0.3902993
50
190.9374509
51
223.3654032
0
ARC
8
DEFAULT_255_1_234
10
16.5557609
20
54.6566885
40
0.5670891
50
179.6531105
51
191.4989439
0
ARC
8
DEFAULT_255_1_234
10
16.5679621
20
54.6906417
40
0.5792888
50
167.4007466
51
180.3176909
0
ARC
8
DEFAULT_255_1_234
10
16.4627683
20
54.7128885
40
0.471777
50
154.1835823
51
167.250763
0
ARC
8
DEFAULT_255_1_234
10
16.399615
20
54.7461417
40
0.4004528
50
134.3149965
51
154.5315275
0
ARC
8
DEFAULT_255_1_234
10
16.3778645
20
54.7652228
40
0.371612
50
122.8616532
51
133.9707695
0
ARC
8
DEFAULT_255_1_234
10
16.3675219
20
54.7874703
40
0.3473289
50
89.8249009
51
123.4199222
0
ARC
8
DEFAULT_255_1_234
10
16.372526
20
54.7227967
40
0.4120197
50
74.7876118
51
90.5482747
0
ARC
8
DEFAULT_255_1_234
10
16.4019004
20
54.831303
40
0.2996077
50
39.8178249
51
74.7633718
0
ARC
8
DEFAULT_255_1_234
10
16.3506324
20
54.7913351
40
0.3645855
50
16.8990863
51
39.4829761
0
ARC
8
DEFAULT_255_1_234
10
16.161162
20
54.7306526
40
0.5635218
50
4.9636328
51
17.2026414
0
ARC
8
DEFAULT_255_1_234
10
15.919369
20
54.705134
40
0.8066286
50
359.8834553
51
5.2834307
0
ARC
8
DEFAULT_255_1_234
10
16.5231215
20
54.6482803
40
0.3859091
50
180.9846213
51
194.9401313
0
ARC
8
DEFAULT_255_1_234
10
16.4181493
20
54.6195849
40
0.2770883
50
194.80314
51
222.0412631
0
ARC
8
DEFAULT_255_1_234
10
16.3877375
20
54.5894116
40
0.2343055
50
221.5417084
51
268.8614402
0
ARC
8
DEFAULT_255_1_234
10
16.3950369
20
54.6570686
40
0.3021528
50
267.732405
51
270.0097136
0
ARC
8
DEFAULT_255_1_234
10
16.3968179
20
54.6772105
40
0.3222994
50
269.6924892
51
280.4117579
0
ARC
8
DEFAULT_255_1_234
10
16.4144586
20
54.5853193
40
0.2287344
50
280.2255091
51
298.6338936
0
ARC
8
DEFAULT_255_1_234
10
16.4261378
20
54.5609223
40
0.2017294
50
299.0430333
51
300.4643464
0
ARC
8
DEFAULT_255_1_234
10
16.3581383
20
54.6743038
40
0.3339357
50
300.6577328
51
322.0378878
0
ARC
8
DEFAULT_255_1_234
10
16.3230923
20
54.7047021
40
0.3802736
50
321.6750233
51
322.3046845
0
ARC
8
DEFAULT_255_1_234
10
16.4161884
20
54.588037
40
0.3520454
50
276.9728461
51
328.0035423
0
ARC
8
DEFAULT_255_1_234
10
16.3884937
20
54.7360841
40
0.5024498
50
269.8361028
51
278.0581756
0
ARC
8
DEFAULT_255_1_234
10
16.3657674
20
54.8105757
40
0.202159
50
89.2018686
51
117.2851756
0
ARC
8
DEFAULT_255_1_234
10
16.3710843
20
54.8063752
40
0.2083484
50
118.0551165
51
137.4540413
0
ARC
8
DEFAULT_255_1_234
10
16.4085583
20
54.7723304
40
0.2589774
50
137.5109581
51
158.8516286
0
ARC
8
DEFAULT_255_1_234
10
16.5223419
20
54.7264074
40
0.38167
50
158.5845963
51
170.1721436
0
ARC
8
DEFAULT_255_1_234
10
16.6392808
20
54.7031823
40
0.5008657
50
169.8376422
51
173.0566086
0
ARC
8
DEFAULT_255_1_234
10
16.1695882
20
54.7542509
40
0.4083467
50
2.9091802
51
12.8847116
0
ARC
8
DEFAULT_255_1_234
10
16.3066558
20
54.7865101
40
0.2675383
50
12.6957781
51
28.6404489
0
ARC
8
DEFAULT_255_1_234
10
16.3608229
20
54.8145458
40
0.2065654
50
29.0169854
51
41.1487595
0
ARC
8
DEFAULT_255_1_234
10
16.3811014
20
54.8322003
40
0.1796786
50
41.1646065
51
85.0013516
0
ARC
8
DEFAULT_255_1_234
10
16.3690111
20
54.7587431
40
0.2539726
50
83.7280015
51
90.0964893
0
LINE
8
DEFAULT_255_1_234
10
17.5444299
20
54.8633248
11
17.3950396
21
54.8633248
0
LINE
8
DEFAULT_255_1_234
10
16.8617321
20
54.5171569
11
17.0103193
21
54.5171569
0
ARC
8
DEFAULT_255_1_234
10
17.2762214
20
54.4816959
40
0.1276617
50
359.3334982
51
18.5871358
0
ARC
8
DEFAULT_255_1_234
10
17.2970851
20
54.4872133
40
0.1061371
50
19.3540742
51
54.6485071
0
ARC
8
DEFAULT_255_1_234
10
17.2466753
20
54.4176919
40
0.1920087
50
54.3827097
51
65.0622807
0
ARC
8
DEFAULT_255_1_234
10
17.169815
20
54.25599
40
0.3710447
50
64.8282493
51
71.4200025
0
ARC
8
DEFAULT_255_1_234
10
17.0796025
20
53.9913107
40
0.6506741
50
71.3164301
51
75.8006402
0
ARC
8
DEFAULT_255_1_234
10
16.9954845
20
53.6672561
40
0.9854641
50
75.6809531
51
78.0061883
0
ARC
8
DEFAULT_255_1_234
10
17.4403378
20
55.765177
40
1.1591028
50
254.6901892
51
258.0466452
0
ARC
8
DEFAULT_255_1_234
10
17.3365287
20
55.3892781
40
0.7691345
50
249.9010773
51
254.755261
0
ARC
8
DEFAULT_255_1_234
10
17.2361629
20
55.1166982
40
0.478665
50
243.3097214
51
249.9709442
0
ARC
8
DEFAULT_255_1_234
10
17.173265
20
54.9912778
40
0.3383568
50
234.4047477
51
243.2862168
0
ARC
8
DEFAULT_255_1_234
10
17.1110173
20
54.9053232
40
0.2322322
50
220.8667099
51
234.5493881
0
ARC
8
DEFAULT_255_1_234
10
17.0768114
20
54.8741817
40
0.1859923
50
214.3062465
51
220.5065136
0
ARC
8
DEFAULT_255_1_234
10
17.0742194
20
54.871088
40
0.1821108
50
186.912965
51
213.9618616
0
ARC
8
DEFAULT_255_1_234
10
17.1274288
20
54.8797009
40
0.2359799
50
179.8808832
51
187.4339886
0
ARC
8
DEFAULT_255_1_234
10
17.1119422
20
54.8817088
40
0.2204978
50
132.005434
51
180.3942919
0
ARC
8
DEFAULT_255_1_234
10
17.1776035
20
54.8211083
40
0.3095791
50
129.2319861
51
133.5302299
0
ARC
8
DEFAULT_255_1_234
10
17.1829543
20
54.8116928
40
0.3202615
50
100.4410011
51
128.9081242
0
ARC
8
DEFAULT_255_1_234
10
17.2103427
20
54.6831455
40
0.4516583
50
89.6985377
51
100.9026564
0
ARC
8
DEFAULT_255_1_234
10
17.2160469
20
54.6671166
40
0.4676928
50
77.6965325
51
90.4076836
0
ARC
8
DEFAULT_255_1_234
10
17.2491453
20
54.8098413
40
0.3211988
50
50.7276602
51
78.0399361
0
ARC
8
DEFAULT_255_1_234
10
17.2935911
20
54.8616296
40
0.2529778
50
25.7545084
51
51.0957453
0
ARC
8
DEFAULT_255_1_234
10
17.2937136
20
54.8666206
40
0.250738
50
359.2468627
51
24.7394243
0
ARC
8
DEFAULT_255_1_234
10
17.2652588
20
54.8637664
40
0.1297815
50
359.8050318
51
45.1544908
0
ARC
8
DEFAULT_255_1_234
10
17.224573
20
54.8289794
40
0.1831883
50
43.8047702
51
49.6271585
0
ARC
8
DEFAULT_255_1_234
10
17.2253632
20
54.8290678
40
0.18261
50
49.7980766
51
82.1218353
0
ARC
8
DEFAULT_255_1_234
10
17.2134603
20
54.7643998
40
0.2483163
50
81.4465357
51
90.1710293
0
ARC
8
DEFAULT_255_1_234
10
17.2110206
20
54.711788
40
0.300932
50
89.6766211
51
99.1264602
0
ARC
8
DEFAULT_255_1_234
10
17.1938668
20
54.8151537
40
0.1961547
50
98.968313
51
113.4570237
0
ARC
8
DEFAULT_255_1_234
10
17.1742753
20
54.8619965
40
0.1453859
50
113.722589
51
127.4763106
0
ARC
8
DEFAULT_255_1_234
10
17.1574399
20
54.8820124
40
0.1192639
50
126.9083309
51
150.3165862
0
ARC
8
DEFAULT_255_1_234
10
17.1526732
20
54.8870981
40
0.112623
50
151.3635175
51
180.0701457
0
ARC
8
DEFAULT_255_1_234
10
17.1835517
20
54.884999
40
0.1435149
50
179.2169974
51
179.9954013
0
ARC
8
DEFAULT_255_1_234
10
17.1474574
20
54.8837056
40
0.1074286
50
179.3040112
51
198.4225446
0
ARC
8
DEFAULT_255_1_234
10
17.1282708
20
54.8787127
40
0.0876573
50
199.2895851
51
238.6034594
0
ARC
8
DEFAULT_255_1_234
10
17.1885554
20
54.973345
40
0.1998512
50
237.9846301
51
246.8744712
0
ARC
8
DEFAULT_255_1_234
10
17.2743499
20
55.1696205
40
0.4140547
50
246.6234531
51
251.8168941
0
ARC
8
DEFAULT_255_1_234
10
17.3774043
20
55.4790905
40
0.7402308
50
251.713434
51
255.0778414
0
ARC
8
DEFAULT_255_1_234
10
17.4973305
20
55.9257563
40
1.2027155
50
255.0367487
51
257.4705983
0
ARC
8
DEFAULT_255_1_234
10
16.9865315
20
53.6243863
40
1.1546601
50
73.6837552
51
77.5016755
0
ARC
8
DEFAULT_255_1_234
10
17.095409
20
53.9943581
40
0.7690009
50
68.7044154
51
73.7249639
0
ARC
8
DEFAULT_255_1_234
10
17.1857111
20
54.2270654
40
0.5193873
50
63.590599
51
68.6626804
0
ARC
8
DEFAULT_255_1_234
10
17.262813
20
54.3808123
40
0.3473927
50
54.7106439
51
63.7013633
0
ARC
8
DEFAULT_255_1_234
10
17.3252584
20
54.46804
40
0.2401192
50
41.0622434
51
54.8487496
0
ARC
8
DEFAULT_255_1_234
10
17.3593971
20
54.4993592
40
0.1938094
50
34.4950568
51
40.7105546
0
ARC
8
DEFAULT_255_1_234
10
17.3640778
20
54.5042078
40
0.1872106
50
9.3763373
51
34.0833615
0
ARC
8
DEFAULT_255_1_234
10
17.2987648
20
54.4916728
40
0.2536988
50
359.7694872
51
9.7663171
0
ARC
8
DEFAULT_255_1_234
10
17.3185149
20
54.4873764
40
0.2339696
50
335.8654732
51
0.8022045
0
ARC
8
DEFAULT_255_1_234
10
17.3260194
20
54.4887197
40
0.2277108
50
307.7357725
51
334.7849066
0
ARC
8
DEFAULT_255_1_234
10
17.2859369
20
54.5337645
40
0.2878951
50
307.0241536
51
308.5578354
0
ARC
8
DEFAULT_255_1_234
10
17.2601701
20
54.5723801
40
0.3342515
50
282.9362969
51
306.5646424
0
ARC
8
DEFAULT_255_1_234
10
17.2239998
20
54.7191108
40
0.4853615
50
271.1026298
51
283.2200835
0
ARC
8
DEFAULT_255_1_234
10
17.2176242
20
54.8432418
40
0.6096052
50
269.9919117
51
271.4772449
0
ARC
8
DEFAULT_255_1_234
10
17.2149997
20
54.7354436
40
0.5018135
50
259.0723564
51
270.289833
0
ARC
8
DEFAULT_255_1_234
10
17.1937729
20
54.6237271
40
0.388099
50
245.4963068
51
259.0227342
0
ARC
8
DEFAULT_255_1_234
10
17.1659686
20
54.5655615
40
0.3236422
50
228.9684658
51
245.7044727
0
ARC
8
DEFAULT_255_1_234
10
17.1394129
20
54.5328575
40
0.2815426
50
214.4011705
51
228.6759915
0
ARC
8
DEFAULT_255_1_234
10
17.110487
20
54.517029
40
0.2487548
50
179.9705531
51
215.1572795
0
ARC
8
DEFAULT_255_1_234
10
17.180547
20
54.5243806
40
0.1703809
50
182.4299387
51
203.0329699
0
ARC
8
DEFAULT_255_1_234
10
17.1621127
20
54.5187396
40
0.1512226
50
203.798802
51
232.548466
0
ARC
8
DEFAULT_255_1_234
10
17.1897649
20
54.5538826
40
0.1959374
50
232.3782728
51
256.3934612
0
ARC
8
DEFAULT_255_1_234
10
17.212801
20
54.6428842
40
0.2878639
50
256.104506
51
268.4626716
0
ARC
8
DEFAULT_255_1_234
10
17.2174495
20
54.7225487
40
0.3676329
50
268.0715632
51
270.0138206
0
ARC
8
DEFAULT_255_1_234
10
17.2193019
20
54.6953083
40
0.3403971
50
269.7031147
51
278.8341955
0
ARC
8
DEFAULT_255_1_234
10
17.2375112
20
54.5822876
40
0.2259217
50
278.6728789
51
292.8232582
0
ARC
8
DEFAULT_255_1_234
10
17.2575651
20
54.5321449
40
0.171929
50
293.1452328
51
303.6655899
0
ARC
8
DEFAULT_255_1_234
10
17.284053
20
54.4945204
40
0.1259367
50
303.1248165
51
321.742847
0
ARC
8
DEFAULT_255_1_234
10
17.302641
20
54.4782156
40
0.1012531
50
322.4748573
51
1.1291126
0
LINE
8
DEFAULT_255_1_234
10
4.9274119
20
52.3866792
11
4.9274119
21
52.2654
0
LINE
8
DEFAULT_255_1_234
10
4.9274119
20
52.2654
11
4.161184
21
52.2654
0
LINE
8
DEFAULT_255_1_234
10
4.161184
20
52.2654
11
4.161184
21
52.3722221
0
LINE
8
DEFAULT_255_1_234
10
4.161184
20
52.3722221
11
4.5659836
21
52.8219995
0
LINE
8
DEFAULT_255_1_234
10
4.2872823
20
53.0902595
11
4.1386952
21
53.0902595
0
LINE
8
DEFAULT_255_1_234
10
4.6535296
20
52.7264218
11
4.3402918
21
52.3866792
0
LINE
8
DEFAULT_255_1_234
10
4.3402918
20
52.3866792
11
4.9274119
21
52.3866792
0
ARC
8
DEFAULT_255_1_234
10
3.216967
20
54.0149527
40
1.8008286
50
318.5132453
51
320.7828378
0
ARC
8
DEFAULT_255_1_234
10
3.7456644
20
53.5846426
40
1.1191493
50
320.7372736
51
323.9737074
0
ARC
8
DEFAULT_255_1_234
10
4.1376501
20
53.3006361
40
0.6350923
50
323.8961724
51
328.6421089
0
ARC
8
DEFAULT_255_1_234
10
4.3423096
20
53.1744031
40
0.3946393
50
328.8299013
51
331.789948
0
ARC
8
DEFAULT_255_1_234
10
4.4420274
20
53.1229509
40
0.2824501
50
331.4255242
51
352.9364833
0
ARC
8
DEFAULT_255_1_234
10
4.4556775
20
53.1198976
40
0.2685315
50
353.2248685
51
0.0169286
0
ARC
8
DEFAULT_255_1_234
10
4.4766652
20
53.122195
40
0.2475536
50
359.4866256
51
15.9339782
0
ARC
8
DEFAULT_255_1_234
10
4.5273637
20
53.1358286
40
0.1950618
50
16.1714718
51
43.5284424
0
ARC
8
DEFAULT_255_1_234
10
4.5350946
20
53.1435573
40
0.184134
50
43.4415429
51
83.1661404
0
ARC
8
DEFAULT_255_1_234
10
4.5216864
20
53.0698771
40
0.258926
50
82.160215
51
90.1505798
0
ARC
8
DEFAULT_255_1_234
10
4.5185291
20
53.0161865
40
0.3126255
50
89.5460705
51
102.5418777
0
ARC
8
DEFAULT_255_1_234
10
4.4942377
20
53.1192665
40
0.2067346
50
102.1739365
51
129.2061916
0
ARC
8
DEFAULT_255_1_234
10
4.4863449
20
53.1317094
40
0.1921118
50
129.7279328
51
135.7542026
0
ARC
8
DEFAULT_255_1_234
10
4.4984977
20
53.1220045
40
0.2075944
50
136.175737
51
166.3674722
0
ARC
8
DEFAULT_255_1_234
10
4.5991896
20
53.0950182
40
0.3118201
50
165.9092917
51
178.8683903
0
ARC
8
DEFAULT_255_1_234
10
4.6856757
20
53.0903179
40
0.3983935
50
178.438168
51
180.0083905
0
ARC
8
DEFAULT_255_1_234
10
4.5455359
20
53.0942231
40
0.4068601
50
163.2878735
51
180.5581814
0
ARC
8
DEFAULT_255_1_234
10
4.4653621
20
53.116284
40
0.3237344
50
133.454115
51
162.9470031
0
ARC
8
DEFAULT_255_1_234
10
4.4832162
20
53.0973
40
0.349795
50
100.7869394
51
133.4384016
0
ARC
8
DEFAULT_255_1_234
10
4.5179934
20
52.9424319
40
0.5084616
50
89.6605301
51
101.3704185
0
ARC
8
DEFAULT_255_1_234
10
4.5246273
20
52.9485496
40
0.502348
50
78.2171172
51
90.4130393
0
ARC
8
DEFAULT_255_1_234
10
4.5601351
20
53.1109637
40
0.3361092
50
55.9268222
51
78.4888551
0
ARC
8
DEFAULT_255_1_234
10
4.5797791
20
53.1448324
40
0.2970617
50
47.9292255
51
55.4054003
0
ARC
8
DEFAULT_255_1_234
10
4.5899352
20
53.1551502
40
0.2825983
50
4.3347696
51
48.0560701
0
ARC
8
DEFAULT_255_1_234
10
4.4803745
20
53.1381601
40
0.393225
50
359.925209
51
5.5967654
0
ARC
8
DEFAULT_255_1_234
10
4.5232637
20
53.1437816
40
0.3503892
50
337.8914096
51
358.9967724
0
ARC
8
DEFAULT_255_1_234
10
4.2519049
20
53.2484706
40
0.6412172
50
326.9135351
51
338.3505194
0
ARC
8
DEFAULT_255_1_234
10
3.8533353
20
53.5039284
40
1.1146189
50
319.6472867
51
327.095818
0
ARC
8
DEFAULT_255_1_234
10
3.4700356
20
53.8201
40
1.6114559
50
317.2586784
51
319.9046139
0
LINE
8
DEFAULT_255_1_234
10
5.7121127
20
53.4348211
11
5.7121127
21
52.658152
0
LINE
8
DEFAULT_255_1_234
10
5.7121127
20
52.658152
11
5.8743538
21
52.658152
0
LINE
8
DEFAULT_255_1_234
10
5.8743538
20
52.658152
11
5.8743538
21
52.5368728
0
LINE
8
DEFAULT_255_1_234
10
5.8743538
20
52.5368728
11
5.7121127
21
52.5368728
0
LINE
8
DEFAULT_255_1_234
10
5.7121127
20
52.5368728
11
5.7121127
21
52.2654
0
LINE
8
DEFAULT_255_1_234
10
5.7121127
20
52.2654
11
5.5627224
21
52.2654
0
LINE
8
DEFAULT_255_1_234
10
5.5627224
20
52.2654
11
5.5627224
21
52.5368728
0
LINE
8
DEFAULT_255_1_234
10
5.5627224
20
52.5368728
11
5.0302181
21
52.5368728
0
LINE
8
DEFAULT_255_1_234
10
5.0302181
20
52.5368728
11
5.0302181
21
52.6244187
0
LINE
8
DEFAULT_255_1_234
10
5.0302181
20
52.6244187
11
5.5538875
21
53.4348211
0
LINE
8
DEFAULT_255_1_234
10
5.5538875
20
53.4348211
11
5.7121127
21
53.4348211
0
LINE
8
DEFAULT_255_1_234
10
5.5450525
20
53.1994912
11
5.1988846
21
52.658152
0
LINE
8
DEFAULT_255_1_234
10
5.1988846
20
52.658152
11
5.5627224
21
52.658152
0
LINE
8
DEFAULT_255_1_234
10
5.5627224
20
52.658152
11
5.5627224
21
53.2316181
0
LINE
8
DEFAULT_255_1_234
10
5.5627224
20
53.2316181
11
5.5450525
21
53.1994912
0
LINE
8
DEFAULT_255_1_234
10
6.101652
20
53.4348211
11
6.434166
21
52.4702093
0
LINE
8
DEFAULT_255_1_234
10
6.434166
20
52.4702093
11
6.7682863
21
53.4348211
0
LINE
8
DEFAULT_255_1_234
10
6.7682863
20
53.4348211
11
6.9369528
21
53.4348211
0
LINE
8
DEFAULT_255_1_234
10
6.9369528
20
53.4348211
11
6.5032389
21
52.2654
0
LINE
8
DEFAULT_255_1_234
10
6.5032389
20
52.2654
11
6.3666994
21
52.2654
0
LINE
8
DEFAULT_255_1_234
10
6.3666994
20
52.2654
11
5.9337887
21
53.4348211
0
LINE
8
DEFAULT_255_1_234
10
5.9337887
20
53.4348211
11
6.101652
21
53.4348211
0
LINE
8
DEFAULT_255_1_234
10
4.5339344
20
5.0982091
11
4.2584458
21
5.0982091
0
LINE
8
DEFAULT_255_1_234
10
4.2584458
20
5.0982091
11
4.2584458
21
4.6404
0
LINE
8
DEFAULT_255_1_234
10
4.2584458
20
4.6404
11
4.1042364
21
4.6404
0
LINE
8
DEFAULT_255_1_234
10
4.1042364
20
4.6404
11
4.1042364
21
5.8098211
0
LINE
8
DEFAULT_255_1_234
10
4.1042364
20
5.8098211
11
4.5355407
21
5.8098211
0
LINE
8
DEFAULT_255_1_234
10
4.2584458
20
5.6829196
11
4.2584458
21
5.2243074
0
LINE
8
DEFAULT_255_1_234
10
4.2584458
20
5.2243074
11
4.5355407
21
5.2243074
0
LINE
8
DEFAULT_255_1_234
10
4.5443756
20
5.6829196
11
4.2584458
21
5.6829196
0
ARC
8
DEFAULT_255_1_234
10
4.5397534
20
5.2039195
40
0.6059162
50
78.8378113
51
90.3983573
0
ARC
8
DEFAULT_255_1_234
10
4.5813548
20
5.4059879
40
0.3996205
50
58.9632738
51
79.0810598
0
ARC
8
DEFAULT_255_1_234
10
4.611509
20
5.4619721
40
0.3361177
50
48.0197965
51
58.447194
0
ARC
8
DEFAULT_255_1_234
10
4.6203951
20
5.4705225
40
0.3238191
50
3.3375044
51
48.1766626
0
ARC
8
DEFAULT_255_1_234
10
4.497379
20
5.4528171
40
0.4477806
50
359.9477528
51
4.6829065
0
ARC
8
DEFAULT_255_1_234
10
4.5097107
20
5.4485628
40
0.4354656
50
346.1877825
51
0.5060252
0
ARC
8
DEFAULT_255_1_234
10
4.6455975
20
5.4132731
40
0.295089
50
310.8831995
51
346.5426355
0
ARC
8
DEFAULT_255_1_234
10
4.6147395
20
5.4549695
40
0.3468331
50
286.6925341
51
310.2288297
0
ARC
8
DEFAULT_255_1_234
10
4.5578226
20
5.6339882
40
0.5346654
50
274.6850312
51
287.0245141
0
ARC
8
DEFAULT_255_1_234
10
4.5352949
20
5.8548932
40
0.7566852
50
269.8969846
51
275.018904
0
ARC
8
DEFAULT_255_1_234
10
4.538054
20
5.6469707
40
0.4226708
50
269.6593078
51
279.4153575
0
ARC
8
DEFAULT_255_1_234
10
4.5637815
20
5.4979133
40
0.2714146
50
279.2049762
51
294.9900808
0
ARC
8
DEFAULT_255_1_234
10
4.5928141
20
5.4331508
40
0.2004525
50
295.2888114
51
311.2911209
0
ARC
8
DEFAULT_255_1_234
10
4.5999035
20
5.422622
40
0.1878703
50
311.7854996
51
347.2861051
0
ARC
8
DEFAULT_255_1_234
10
4.5015194
20
5.4479092
40
0.2894234
50
346.6893224
51
0.1059443
0
ARC
8
DEFAULT_255_1_234
10
4.4260089
20
5.4507685
40
0.3649409
50
359.6350983
51
0.0053152
0
ARC
8
DEFAULT_255_1_234
10
4.5230417
20
5.4532937
40
0.2679199
50
359.4672059
51
15.5933957
0
ARC
8
DEFAULT_255_1_234
10
4.5855306
20
5.4701779
40
0.2031932
50
15.7442113
51
46.6203375
0
ARC
8
DEFAULT_255_1_234
10
4.5707527
20
5.4531484
40
0.2257226
50
46.8628658
51
75.6676503
0
ARC
8
DEFAULT_255_1_234
10
4.5413347
20
5.3472718
40
0.3355939
50
75.276167
51
88.2915297
0
ARC
8
DEFAULT_255_1_234
10
4.5355054
20
5.2594524
40
0.4235602
50
87.8575022
51
88.8000139
0
LINE
8
DEFAULT_255_1_234
10
5.8696125
20
4.7616792
11
5.8696125
21
4.6404
0
LINE
8
DEFAULT_255_1_234
10
5.8696125
20
4.6404
11
5.1033846
21
4.6404
0
LINE
8
DEFAULT_255_1_234
10
5.1033846
20
4.6404
11
5.1033846
21
4.7472221
0
LINE
8
DEFAULT_255_1_234
10
5.1033846
20
4.7472221
11
5.5081842
21
5.1969995
0
LINE
8
DEFAULT_255_1_234
10
5.2294829
20
5.4652595
11
5.0808958
21
5.4652595
0
LINE
8
DEFAULT_255_1_234
10
5.5957302
20
5.1014218
11
5.2824924
21
4.7616792
0
LINE
8
DEFAULT_255_1_234
10
5.2824924
20
4.7616792
11
5.8696125
21
4.7616792
0
ARC
8
DEFAULT_255_1_234
10
4.1591676
20
6.3899527
40
1.8008286
50
318.5132453
51
320.7828378
0
ARC
8
DEFAULT_255_1_234
10
4.687865
20
5.9596426
40
1.1191493
50
320.7372736
51
323.9737074
0
ARC
8
DEFAULT_255_1_234
10
5.0798506
20
5.6756361
40
0.6350923
50
323.8961724
51
328.6421089
0
ARC
8
DEFAULT_255_1_234
10
5.2845102
20
5.5494031
40
0.3946393
50
328.8299013
51
331.789948
0
ARC
8
DEFAULT_255_1_234
10
5.384228
20
5.4979509
40
0.2824501
50
331.4255242
51
352.9364833
0
ARC
8
DEFAULT_255_1_234
10
5.3978781
20
5.4948976
40
0.2685315
50
353.2248685
51
0.0169286
0
ARC
8
DEFAULT_255_1_234
10
5.4188658
20
5.497195
40
0.2475536
50
359.4866256
51
15.9339782
0
ARC
8
DEFAULT_255_1_234
10
5.4695643
20
5.5108286
40
0.1950618
50
16.1714718
51
43.5284424
0
ARC
8
DEFAULT_255_1_234
10
5.4772952
20
5.5185573
40
0.184134
50
43.4415429
51
83.1661404
0
ARC
8
DEFAULT_255_1_234
10
5.463887
20
5.4448771
40
0.258926
50
82.160215
51
90.1505798
0
ARC
8
DEFAULT_255_1_234
10
5.4607297
20
5.3911865
40
0.3126255
50
89.5460705
51
102.5418777
0
ARC
8
DEFAULT_255_1_234
10
5.4364383
20
5.4942665
40
0.2067346
50
102.1739365
51
129.2061916
0
ARC
8
DEFAULT_255_1_234
10
5.4285455
20
5.5067094
40
0.1921118
50
129.7279328
51
135.7542026
0
ARC
8
DEFAULT_255_1_234
10
5.4406983
20
5.4970045
40
0.2075944
50
136.175737
51
166.3674722
0
ARC
8
DEFAULT_255_1_234
10
5.5413902
20
5.4700182
40
0.3118201
50
165.9092917
51
178.8683903
0
ARC
8
DEFAULT_255_1_234
10
5.6278763
20
5.4653179
40
0.3983935
50
178.438168
51
180.0083905
0
ARC
8
DEFAULT_255_1_234
10
5.4877365
20
5.4692231
40
0.4068601
50
163.2878735
51
180.5581814
0
ARC
8
DEFAULT_255_1_234
10
5.4075627
20
5.491284
40
0.3237344
50
133.454115
51
162.9470031
0
ARC
8
DEFAULT_255_1_234
10
5.4254168
20
5.4723
40
0.349795
50
100.7869394
51
133.4384016
0
ARC
8
DEFAULT_255_1_234
10
5.4601939
20
5.3174319
40
0.5084616
50
89.6605301
51
101.3704185
0
ARC
8
DEFAULT_255_1_234
10
5.4668278
20
5.3235496
40
0.502348
50
78.2171172
51
90.4130393
0
ARC
8
DEFAULT_255_1_234
10
5.5023357
20
5.4859637
40
0.3361092
50
55.9268222
51
78.4888551
0
ARC
8
DEFAULT_255_1_234
10
5.5219797
20
5.5198324
40
0.2970617
50
47.9292255
51
55.4054003
0
ARC
8
DEFAULT_255_1_234
10
5.5321357
20
5.5301502
40
0.2825983
50
4.3347696
51
48.0560701
0
ARC
8
DEFAULT_255_1_234
10
5.4225751
20
5.5131601
40
0.393225
50
359.925209
51
5.5967654
0
ARC
8
DEFAULT_255_1_234
10
5.4654643
20
5.5187816
40
0.3503892
50
337.8914096
51
358.9967724
0
ARC
8
DEFAULT_255_1_234
10
5.1941055
20
5.6234706
40
0.6412172
50
326.9135351
51
338.3505194
0
ARC
8
DEFAULT_255_1_234
10
4.7955359
20
5.8789284
40
1.1146189
50
319.6472867
51
327.095818
0
ARC
8
DEFAULT_255_1_234
10
4.4122362
20
6.1951
40
1.6114559
50
317.2586784
51
319.9046139
0
LINE
8
DEFAULT_255_1_234
10
4.748585
20
13.2204391
11
4.748585
21
13.0943408
0
LINE
8
DEFAULT_255_1_234
10
4.748585
20
13.0943408
11
4.2578458
21
13.0943408
0
LINE
8
DEFAULT_255_1_234
10
4.2578458
20
13.0943408
11
4.2578458
21
12.5779
0
LINE
8
DEFAULT_255_1_234
10
4.2578458
20
12.5779
11
4.1036364
21
12.5779
0
LINE
8
DEFAULT_255_1_234
10
4.1036364
20
12.5779
11
4.1036364
21
13.7473211
0
LINE
8
DEFAULT_255_1_234
10
4.1036364
20
13.7473211
11
4.8280992
21
13.7473211
0
LINE
8
DEFAULT_255_1_234
10
4.8280992
20
13.7473211
11
4.8280992
21
13.6204196
0
LINE
8
DEFAULT_255_1_234
10
4.8280992
20
13.6204196
11
4.2578458
21
13.6204196
0
LINE
8
DEFAULT_255_1_234
10
4.2578458
20
13.6204196
11
4.2578458
21
13.2204391
0
LINE
8
DEFAULT_255_1_234
10
4.2578458
20
13.2204391
11
4.748585
21
13.2204391
0
LINE
8
DEFAULT_255_1_234
10
5.876241
20
13.160201
11
5.876241
21
12.7313062
0
LINE
8
DEFAULT_255_1_234
10
4.97508
20
13.1063884
11
4.97508
21
13.2083915
0
LINE
8
DEFAULT_255_1_234
10
5.876241
20
13.4043659
11
5.7220316
21
13.4043659
0
LINE
8
DEFAULT_255_1_234
10
5.1300925
20
13.2124073
11
5.1300925
21
13.1168296
0
LINE
8
DEFAULT_255_1_234
10
5.7228348
20
12.7722681
11
5.7228348
21
13.0349059
0
LINE
8
DEFAULT_255_1_234
10
5.7228348
20
13.0349059
11
5.4521652
21
13.0349059
0
LINE
8
DEFAULT_255_1_234
10
5.4521652
20
13.0349059
11
5.4521652
21
13.160201
0
LINE
8
DEFAULT_255_1_234
10
5.4521652
20
13.160201
11
5.876241
21
13.160201
0
ARC
8
DEFAULT_255_1_234
10
5.5930916
20
12.9306396
40
0.3462765
50
295.8437914
51
324.8549609
0
ARC
8
DEFAULT_255_1_234
10
5.5514883
20
13.0059567
40
0.4322211
50
291.5695085
51
296.4549398
0
ARC
8
DEFAULT_255_1_234
10
5.5004135
20
13.1424275
40
0.5779178
50
278.6622409
51
291.3045483
0
ARC
8
DEFAULT_255_1_234
10
5.4664626
20
13.3572408
40
0.7953952
50
270.020006
51
278.7494541
0
ARC
8
DEFAULT_255_1_234
10
5.462655
20
13.4889036
40
0.927067
50
269.9969998
51
270.2524872
0
ARC
8
DEFAULT_255_1_234
10
5.4588264
20
13.0805589
40
0.5187361
50
253.5786322
51
270.4175299
0
ARC
8
DEFAULT_255_1_234
10
5.441492
20
13.0134236
40
0.4494451
50
238.8203306
51
253.2788235
0
ARC
8
DEFAULT_255_1_234
10
5.4395293
20
13.0083231
40
0.4440665
50
206.7883783
51
238.6962764
0
ARC
8
DEFAULT_255_1_234
10
5.5169203
20
13.0547405
40
0.5341121
50
206.1129412
51
207.4916643
0
ARC
8
DEFAULT_255_1_234
10
5.5766118
20
13.0801488
40
0.5989041
50
188.6921119
51
205.7821245
0
ARC
8
DEFAULT_255_1_234
10
5.762248
20
13.111723
40
0.7871862
50
180.3882829
51
188.9219216
0
ARC
8
DEFAULT_255_1_234
10
5.8850294
20
13.2140464
40
0.909967
50
170.2024264
51
180.3560651
0
ARC
8
DEFAULT_255_1_234
10
5.5686812
20
13.2706237
40
0.5886083
50
154.2857445
51
170.3893044
0
ARC
8
DEFAULT_255_1_234
10
5.4405015
20
13.329295
40
0.4476743
50
139.8401567
51
153.9332699
0
ARC
8
DEFAULT_255_1_234
10
5.4045751
20
13.3580577
40
0.4016697
50
98.4190291
51
139.6707122
0
ARC
8
DEFAULT_255_1_234
10
5.4425268
20
13.1735328
40
0.5898566
50
89.7659205
51
99.4415478
0
ARC
8
DEFAULT_255_1_234
10
5.4490518
20
13.1800844
40
0.5833147
50
78.0551672
51
90.4042112
0
ARC
8
DEFAULT_255_1_234
10
5.4895028
20
13.3619644
40
0.3970055
50
54.6380464
51
78.3339173
0
ARC
8
DEFAULT_255_1_234
10
5.5085084
20
13.3939795
40
0.3599102
50
50.031736
51
54.1558201
0
ARC
8
DEFAULT_255_1_234
10
5.4977871
20
13.3843766
40
0.3741624
50
18.1092409
51
49.7180913
0
ARC
8
DEFAULT_255_1_234
10
5.3521071
20
13.3310089
40
0.5292424
50
7.9672797
51
18.6984571
0
ARC
8
DEFAULT_255_1_234
10
5.367155
20
13.3433504
40
0.3600838
50
9.7557294
51
27.3215714
0
ARC
8
DEFAULT_255_1_234
10
5.4799021
20
13.3996912
40
0.2340608
50
27.7361077
51
84.5257964
0
ARC
8
DEFAULT_255_1_234
10
5.4471408
20
13.235364
40
0.4011215
50
82.106034
51
90.2001166
0
ARC
8
DEFAULT_255_1_234
10
5.4421625
20
13.2861215
40
0.3503799
50
89.4150119
51
105.5823402
0
ARC
8
DEFAULT_255_1_234
10
5.4164623
20
13.3796867
40
0.2533503
50
105.6678618
51
144.2648758
0
ARC
8
DEFAULT_255_1_234
10
5.5057879
20
13.3161289
40
0.3629787
50
144.3561283
51
162.8564086
0
ARC
8
DEFAULT_255_1_234
10
5.7141788
20
13.2492017
40
0.5818441
50
162.6076014
51
173.6780284
0
ARC
8
DEFAULT_255_1_234
10
6.0202931
20
13.211989
40
0.8902007
50
173.4670142
51
179.9730753
0
ARC
8
DEFAULT_255_1_234
10
5.8294603
20
13.112626
40
0.6993804
50
179.6556203
51
190.0080463
0
ARC
8
DEFAULT_255_1_234
10
5.5978432
20
13.0701375
40
0.4639066
50
189.8116607
51
206.6796816
0
ARC
8
DEFAULT_255_1_234
10
5.5133584
20
13.0307503
40
0.3707421
50
207.1031645
51
217.7074368
0
ARC
8
DEFAULT_255_1_234
10
5.4499273
20
12.9755559
40
0.2868417
50
216.7345547
51
265.6812148
0
ARC
8
DEFAULT_255_1_234
10
5.4630064
20
13.0659855
40
0.3780509
50
264.7366618
51
270.0611241
0
ARC
8
DEFAULT_255_1_234
10
5.4653327
20
13.3500111
40
0.662079
50
269.8335834
51
276.0539546
0
ARC
8
DEFAULT_255_1_234
10
5.4860331
20
13.159856
40
0.4708016
50
275.9894168
51
284.4615085
0
ARC
8
DEFAULT_255_1_234
10
5.5058338
20
13.0765663
40
0.3852094
50
284.7034461
51
286.4953897
0
ARC
8
DEFAULT_255_1_234
10
5.5465352
20
12.9454965
40
0.2479842
50
286.0770838
51
304.2625829
0
ARC
8
DEFAULT_255_1_234
10
5.5598766
20
12.9236594
40
0.2224291
50
304.5891602
51
317.1073298
0
LINE
8
DEFAULT_255_1_234
10
5.0064023
20
21.3466849
11
4.8513897
21
21.3466849
0
LINE
8
DEFAULT_255_1_234
10
4.1590539
20
20.8543394
11
4.3140665
21
20.8543394
0
ARC
8
DEFAULT_255_1_234
10
4.917271
20
22.2413768
40
1.252368
50
248.9199003
51
254.1439814
0
ARC
8
DEFAULT_255_1_234
10
4.7492205
20
21.8087234
40
0.788226
50
241.633709
51
249.0064503
0
ARC
8
DEFAULT_255_1_234
10
4.59636
20
21.5286317
40
0.4691427
50
230.498225
51
241.8087113
0
ARC
8
DEFAULT_255_1_234
10
4.5179174
20
21.4286906
40
0.3421437
50
227.4064532
51
229.9881192
0
ARC
8
DEFAULT_255_1_234
10
4.4691694
20
21.3811088
40
0.2741476
50
200.6781896
51
228.1763934
0
ARC
8
DEFAULT_255_1_234
10
4.4764005
20
21.3796077
40
0.2804109
50
179.5061581
51
199.8694617
0
ARC
8
DEFAULT_255_1_234
10
4.4754757
20
21.387021
40
0.2795204
50
132.4834203
51
181.0242172
0
ARC
8
DEFAULT_255_1_234
10
4.5350339
20
21.3307704
40
0.3612768
50
129.2532479
51
133.4242687
0
ARC
8
DEFAULT_255_1_234
10
4.5496789
20
21.3087965
40
0.3875675
50
101.98776
51
128.8742646
0
ARC
8
DEFAULT_255_1_234
10
4.5895399
20
21.1366741
40
0.5642249
50
89.5906553
51
102.3169264
0
ARC
8
DEFAULT_255_1_234
10
4.5965891
20
21.1685148
40
0.5323783
50
77.2360837
51
90.3248275
0
ARC
8
DEFAULT_255_1_234
10
4.6172971
20
21.26524
40
0.4334697
50
63.837784
51
77.0809408
0
ARC
8
DEFAULT_255_1_234
10
4.6450732
20
21.3169911
40
0.3747796
50
45.9864267
51
64.1607727
0
ARC
8
DEFAULT_255_1_234
10
4.6711614
20
21.3467866
40
0.3352302
50
32.2747395
51
45.6547121
0
ARC
8
DEFAULT_255_1_234
10
4.6778054
20
21.348688
40
0.328603
50
359.6507365
51
32.6130309
0
ARC
8
DEFAULT_255_1_234
10
4.583515
20
21.349166
40
0.2678863
50
359.469343
51
14.9832209
0
ARC
8
DEFAULT_255_1_234
10
4.6540212
20
21.3680539
40
0.1948938
50
14.9781179
51
48.2004265
0
ARC
8
DEFAULT_255_1_234
10
4.6375856
20
21.3473983
40
0.2212521
50
48.5927837
51
74.1241538
0
ARC
8
DEFAULT_255_1_234
10
4.6042346
20
21.2373248
40
0.3362561
50
73.7888341
51
86.6652678
0
ARC
8
DEFAULT_255_1_234
10
4.5939911
20
21.1165881
40
0.4573953
50
86.2640471
51
90.0526343
0
ARC
8
DEFAULT_255_1_234
10
4.5911624
20
21.1561192
40
0.4178709
50
89.6697524
51
99.2309573
0
ARC
8
DEFAULT_255_1_234
10
4.5669075
20
21.3005964
40
0.2713749
50
99.069534
51
113.7658566
0
ARC
8
DEFAULT_255_1_234
10
4.5395266
20
21.3651677
40
0.2012469
50
114.0401004
51
127.9850673
0
ARC
8
DEFAULT_255_1_234
10
4.515483
20
21.394773
40
0.1631167
50
127.7287463
51
176.7105154
0
ARC
8
DEFAULT_255_1_234
10
4.5833547
20
21.3846693
40
0.2315392
50
175.1779447
51
180.0581938
0
ARC
8
DEFAULT_255_1_234
10
4.4990394
20
21.3834428
40
0.1472271
50
179.6142195
51
228.1246017
0
ARC
8
DEFAULT_255_1_234
10
4.5432063
20
21.4243308
40
0.2072299
50
226.5779593
51
230.8800004
0
ARC
8
DEFAULT_255_1_234
10
4.5903141
20
21.4868636
40
0.2854818
50
231.4635071
51
241.9260842
0
ARC
8
DEFAULT_255_1_234
10
4.7100319
20
21.70718
40
0.53622
50
241.7178533
51
248.3259551
0
ARC
8
DEFAULT_255_1_234
10
4.8485691
20
22.0504064
40
0.9063478
50
248.2007737
51
252.4528373
0
ARC
8
DEFAULT_255_1_234
10
4.9689416
20
22.4225441
40
1.2974635
50
252.3391078
51
254.3469452
0
ARC
8
DEFAULT_255_1_234
10
4.2147119
20
19.7248148
40
1.5037162
50
71.0197183
51
74.4087047
0
ARC
8
DEFAULT_255_1_234
10
4.3841804
20
20.2140111
40
0.9859993
50
66.1847285
51
71.086374
0
ARC
8
DEFAULT_255_1_234
10
4.5398116
20
20.56442
40
0.6025855
50
59.3536294
51
66.2691831
0
ARC
8
DEFAULT_255_1_234
10
4.6286769
20
20.7147609
40
0.4279449
50
49.1020879
51
59.3293958
0
ARC
8
DEFAULT_255_1_234
10
4.7105509
20
20.8080834
40
0.3038015
50
32.7919921
51
49.2505539
0
ARC
8
DEFAULT_255_1_234
10
4.7426599
20
20.8309191
40
0.264448
50
31.1181161
51
32.4005348
0
ARC
8
DEFAULT_255_1_234
10
4.7338136
20
20.8273779
40
0.2738556
50
8.1116974
51
30.7958831
0
ARC
8
DEFAULT_255_1_234
10
4.6527804
20
20.8135753
40
0.3560327
50
359.8389159
51
8.4706516
0
ARC
8
DEFAULT_255_1_234
10
4.7153596
20
20.8087137
40
0.2934776
50
337.4731098
51
0.7537279
0
ARC
8
DEFAULT_255_1_234
10
4.7332291
20
20.8067387
40
0.2762607
50
307.5917067
51
336.4315538
0
ARC
8
DEFAULT_255_1_234
10
4.6872119
20
20.8580102
40
0.3449979
50
307.6551545
51
308.4529766
0
ARC
8
DEFAULT_255_1_234
10
4.6641838
20
20.893525
40
0.3871988
50
284.3734338
51
307.1424381
0
ARC
8
DEFAULT_255_1_234
10
4.6146668
20
21.0756932
40
0.5759636
50
272.4382747
51
284.646547
0
ARC
8
DEFAULT_255_1_234
10
4.6019876
20
21.2556893
40
0.7563528
50
269.9708387
51
272.8178037
0
ARC
8
DEFAULT_255_1_234
10
4.5976916
20
21.0518716
40
0.5525489
50
248.2707594
51
270.4055579
0
ARC
8
DEFAULT_255_1_234
10
4.5922657
20
21.0328192
40
0.5328452
50
246.1383403
51
248.0542782
0
ARC
8
DEFAULT_255_1_234
10
4.5504036
20
20.9448843
40
0.4355005
50
233.1670131
51
246.4950969
0
ARC
8
DEFAULT_255_1_234
10
4.4949941
20
20.8700812
40
0.3424126
50
215.3403242
51
233.0843104
0
ARC
8
DEFAULT_255_1_234
10
4.4677372
20
20.8502549
40
0.3087104
50
179.2419209
51
215.2648451
0
ARC
8
DEFAULT_255_1_234
10
4.5444966
20
20.8516666
40
0.2304457
50
179.335461
51
199.1045811
0
ARC
8
DEFAULT_255_1_234
10
4.5112643
20
20.8429766
40
0.1962176
50
199.8828939
51
232.7063202
0
ARC
8
DEFAULT_255_1_234
10
4.5584911
20
20.9023788
40
0.2720938
50
232.3738199
51
255.5136649
0
ARC
8
DEFAULT_255_1_234
10
4.5925778
20
21.0267835
40
0.4010747
50
255.2446292
51
267.5320849
0
ARC
8
DEFAULT_255_1_234
10
4.6013401
20
21.1500702
40
0.5246356
50
267.1557994
51
270.0286766
0
ARC
8
DEFAULT_255_1_234
10
4.6041173
20
21.105695
40
0.4802668
50
269.7000017
51
278.1660162
0
ARC
8
DEFAULT_255_1_234
10
4.6297178
20
20.9326515
40
0.3053425
50
278.0231263
51
290.625471
0
ARC
8
DEFAULT_255_1_234
10
4.6644865
20
20.8399025
40
0.206291
50
290.6619762
51
307.0370976
0
ARC
8
DEFAULT_255_1_234
10
4.6945254
20
20.8030504
40
0.1587906
50
306.3943566
51
355.3030547
0
ARC
8
DEFAULT_255_1_234
10
4.6433186
20
20.8107113
40
0.2104809
50
354.3660432
51
0.0698737
0
ARC
8
DEFAULT_255_1_234
10
4.6575531
20
20.8129617
40
0.1962563
50
359.417946
51
16.1971788
0
ARC
8
DEFAULT_255_1_234
10
4.7030841
20
20.8254418
40
0.149053
50
16.4723299
51
52.6262157
0
ARC
8
DEFAULT_255_1_234
10
4.6209895
20
20.7170433
40
0.2850296
50
52.7386432
51
62.4979148
0
ARC
8
DEFAULT_255_1_234
10
4.4824972
20
20.4564283
40
0.5801521
50
62.2515216
51
68.1220564
0
ARC
8
DEFAULT_255_1_234
10
4.3104883
20
20.0336872
40
1.0365451
50
68.0062803
51
71.8053402
0
ARC
8
DEFAULT_255_1_234
10
4.1309255
20
19.4951758
40
1.6042013
50
71.7183119
51
73.9258742
0
LINE
8
DEFAULT_255_1_234
10
5.5300716
20
20.5154
11
5.2063926
21
20.5154
0
LINE
8
DEFAULT_255_1_234
10
5.2063926
20
20.5154
11
5.2063926
21
21.6848211
0
LINE
8
DEFAULT_255_1_234
10
5.2063926
20
21.6848211
11
5.536497
21
21.6848211
0
LINE
8
DEFAULT_255_1_234
10
6.0521346
20
21.1394661
11
6.0521346
21
21.0647709
0
LINE
8
DEFAULT_255_1_234
10
5.5405129
20
21.5579196
11
5.360602
21
21.5579196
0
LINE
8
DEFAULT_255_1_234
10
5.360602
20
21.5579196
11
5.360602
21
20.6414983
0
LINE
8
DEFAULT_255_1_234
10
5.360602
20
20.6414983
11
5.5228431
21
20.6414983
0
LINE
8
DEFAULT_255_1_234
10
5.8995316
20
21.0679836
11
5.8995316
21
21.1362534
0
ARC
8
DEFAULT_255_1_234
10
5.5403913
20
21.0982894
40
0.5865446
50
75.4101064
51
90.3804066
0
ARC
8
DEFAULT_255_1_234
10
5.5633426
20
21.1939492
40
0.4881916
50
60.145586
51
75.1888407
0
ARC
8
DEFAULT_255_1_234
10
5.5792202
20
21.2216199
40
0.4562893
50
26.5253612
51
60.1450928
0
ARC
8
DEFAULT_255_1_234
10
5.4671951
20
21.1622158
40
0.5830602
50
7.4030428
51
26.8320788
0
ARC
8
DEFAULT_255_1_234
10
5.3077708
20
21.1373804
40
0.7443669
50
0.1605367
51
7.7176192
0
ARC
8
DEFAULT_255_1_234
10
5.3241612
20
21.0609434
40
0.7279835
50
348.7289388
51
0.3012466
0
ARC
8
DEFAULT_255_1_234
10
5.4898043
20
21.0280386
40
0.559104
50
333.0706509
51
348.7181832
0
ARC
8
DEFAULT_255_1_234
10
5.58648
20
20.9755319
40
0.4491417
50
299.2531685
51
333.4571258
0
ARC
8
DEFAULT_255_1_234
10
5.550394
20
21.0440828
40
0.5265881
50
278.107187
51
299.0339503
0
ARC
8
DEFAULT_255_1_234
10
5.5248019
20
21.1948216
40
0.679442
50
270.4443897
51
278.4511052
0
ARC
8
DEFAULT_255_1_234
10
5.5268849
20
21.1019213
40
0.4604407
50
269.4970433
51
284.0205042
0
ARC
8
DEFAULT_255_1_234
10
5.562415
20
20.9653978
40
0.3193797
50
283.7700273
51
318.1555492
0
ARC
8
DEFAULT_255_1_234
10
5.5286908
20
20.9906367
40
0.3613588
50
318.7415601
51
343.6873628
0
ARC
8
DEFAULT_255_1_234
10
5.3482931
20
21.0469832
40
0.5503313
50
343.3325091
51
355.8548958
0
ARC
8
DEFAULT_255_1_234
10
5.1384616
20
21.0669319
40
0.7610708
50
355.4988528
51
0.0791727
0
ARC
8
DEFAULT_255_1_234
10
5.2167238
20
21.140478
40
0.6828208
50
359.6455037
51
9.8607896
0
ARC
8
DEFAULT_255_1_234
10
5.4527936
20
21.1831099
40
0.4429406
50
9.6571907
51
26.1932807
0
ARC
8
DEFAULT_255_1_234
10
5.5455925
20
21.2262118
40
0.3406537
50
26.5777228
51
40.1532208
0
ARC
8
DEFAULT_255_1_234
10
5.5711651
20
21.2461619
40
0.308246
50
40.3840491
51
80.1431104
0
ARC
8
DEFAULT_255_1_234
10
5.5384769
20
21.1012333
40
0.4566909
50
79.2152159
51
89.7445637
0
LINE
8
DEFAULT_255_1_234
10
7.0255813
20
20.5154
11
6.9139401
21
20.8206061
0
LINE
8
DEFAULT_255_1_234
10
6.9139401
20
20.8206061
11
6.4240041
21
20.8206061
0
LINE
8
DEFAULT_255_1_234
10
6.4240041
20
20.8206061
11
6.3139693
21
20.5154
0
LINE
8
DEFAULT_255_1_234
10
6.3139693
20
20.5154
11
6.1549409
21
20.5154
0
LINE
8
DEFAULT_255_1_234
10
6.1549409
20
20.5154
11
6.6015055
21
21.6848211
0
LINE
8
DEFAULT_255_1_234
10
6.6015055
20
21.6848211
11
6.7364387
21
21.6848211
0
LINE
8
DEFAULT_255_1_234
10
6.7364387
20
21.6848211
11
7.1838065
21
20.5154
0
LINE
8
DEFAULT_255_1_234
10
7.1838065
20
20.5154
11
7.0255813
21
20.5154
0
LINE
8
DEFAULT_255_1_234
10
6.6689721
20
21.4944689
11
6.4705882
21
20.9475075
0
LINE
8
DEFAULT_255_1_234
10
6.4705882
20
20.9475075
11
6.8681592
21
20.9475075
0
LINE
8
DEFAULT_255_1_234
10
6.8681592
20
20.9475075
11
6.6689721
21
21.4944689
0
LINE
8
DEFAULT_255_1_234
10
7.7436187
20
21.4840276
11
7.7436187
21
21.1426788
0
LINE
8
DEFAULT_255_1_234
10
7.7436187
20
21.1426788
11
8.0697073
21
21.1426788
0
LINE
8
DEFAULT_255_1_234
10
8.0697073
20
21.1426788
11
8.0697073
21
21.0021233
0
LINE
8
DEFAULT_255_1_234
10
8.0697073
20
21.0021233
11
7.7436187
21
21.0021233
0
LINE
8
DEFAULT_255_1_234
10
7.7436187
20
21.0021233
11
7.7436187
21
20.6326634
0
LINE
8
DEFAULT_255_1_234
10
7.7436187
20
20.6326634
11
7.5942284
21
20.6326634
0
LINE
8
DEFAULT_255_1_234
10
7.5942284
20
20.6326634
11
7.5942284
21
21.0021233
0
LINE
8
DEFAULT_255_1_234
10
7.5942284
20
21.0021233
11
7.2681398
21
21.0021233
0
LINE
8
DEFAULT_255_1_234
10
7.2681398
20
21.0021233
11
7.2681398
21
21.1426788
0
LINE
8
DEFAULT_255_1_234
10
7.2681398
20
21.1426788
11
7.5942284
21
21.1426788
0
LINE
8
DEFAULT_255_1_234
10
7.5942284
20
21.1426788
11
7.5942284
21
21.4840276
0
LINE
8
DEFAULT_255_1_234
10
7.5942284
20
21.4840276
11
7.7436187
21
21.4840276
0
LINE
8
DEFAULT_255_1_234
10
5.0345023
20
29.2841849
11
4.8794897
21
29.2841849
0
LINE
8
DEFAULT_255_1_234
10
4.1871539
20
28.7918394
11
4.3421665
21
28.7918394
0
ARC
8
DEFAULT_255_1_234
10
4.945371
20
30.1788768
40
1.252368
50
248.9199003
51
254.1439814
0
ARC
8
DEFAULT_255_1_234
10
4.7773205
20
29.7462234
40
0.788226
50
241.633709
51
249.0064503
0
ARC
8
DEFAULT_255_1_234
10
4.62446
20
29.4661317
40
0.4691427
50
230.498225
51
241.8087113
0
ARC
8
DEFAULT_255_1_234
10
4.5460174
20
29.3661906
40
0.3421437
50
227.4064532
51
229.9881192
0
ARC
8
DEFAULT_255_1_234
10
4.4972694
20
29.3186088
40
0.2741476
50
200.6781896
51
228.1763934
0
ARC
8
DEFAULT_255_1_234
10
4.5045005
20
29.3171077
40
0.2804109
50
179.5061581
51
199.8694617
0
ARC
8
DEFAULT_255_1_234
10
4.5035757
20
29.324521
40
0.2795204
50
132.4834203
51
181.0242172
0
ARC
8
DEFAULT_255_1_234
10
4.5631339
20
29.2682704
40
0.3612768
50
129.2532479
51
133.4242687
0
ARC
8
DEFAULT_255_1_234
10
4.5777789
20
29.2462965
40
0.3875675
50
101.98776
51
128.8742646
0
ARC
8
DEFAULT_255_1_234
10
4.6176399
20
29.0741741
40
0.5642249
50
89.5906553
51
102.3169264
0
ARC
8
DEFAULT_255_1_234
10
4.6246891
20
29.1060148
40
0.5323783
50
77.2360837
51
90.3248275
0
ARC
8
DEFAULT_255_1_234
10
4.6453971
20
29.20274
40
0.4334697
50
63.837784
51
77.0809408
0
ARC
8
DEFAULT_255_1_234
10
4.6731732
20
29.2544911
40
0.3747796
50
45.9864267
51
64.1607727
0
ARC
8
DEFAULT_255_1_234
10
4.6992614
20
29.2842866
40
0.3352302
50
32.2747395
51
45.6547121
0
ARC
8
DEFAULT_255_1_234
10
4.7059054
20
29.286188
40
0.328603
50
359.6507365
51
32.6130309
0
ARC
8
DEFAULT_255_1_234
10
4.611615
20
29.286666
40
0.2678863
50
359.469343
51
14.9832209
0
ARC
8
DEFAULT_255_1_234
10
4.6821212
20
29.3055539
40
0.1948938
50
14.9781179
51
48.2004265
0
ARC
8
DEFAULT_255_1_234
10
4.6656856
20
29.2848983
40
0.2212521
50
48.5927837
51
74.1241538
0
ARC
8
DEFAULT_255_1_234
10
4.6323346
20
29.1748248
40
0.3362561
50
73.7888341
51
86.6652678
0
ARC
8
DEFAULT_255_1_234
10
4.6220911
20
29.0540881
40
0.4573953
50
86.2640471
51
90.0526343
0
ARC
8
DEFAULT_255_1_234
10
4.6192624
20
29.0936192
40
0.4178709
50
89.6697524
51
99.2309573
0
ARC
8
DEFAULT_255_1_234
10
4.5950075
20
29.2380964
40
0.2713749
50
99.069534
51
113.7658566
0
ARC
8
DEFAULT_255_1_234
10
4.5676266
20
29.3026677
40
0.2012469
50
114.0401004
51
127.9850673
0
ARC
8
DEFAULT_255_1_234
10
4.543583
20
29.332273
40
0.1631167
50
127.7287463
51
176.7105154
0
ARC
8
DEFAULT_255_1_234
10
4.6114547
20
29.3221693
40
0.2315392
50
175.1779447
51
180.0581938
0
ARC
8
DEFAULT_255_1_234
10
4.5271394
20
29.3209428
40
0.1472271
50
179.6142195
51
228.1246017
0
ARC
8
DEFAULT_255_1_234
10
4.5713063
20
29.3618308
40
0.2072299
50
226.5779593
51
230.8800004
0
ARC
8
DEFAULT_255_1_234
10
4.6184141
20
29.4243636
40
0.2854818
50
231.4635071
51
241.9260842
0
ARC
8
DEFAULT_255_1_234
10
4.7381319
20
29.64468
40
0.53622
50
241.7178533
51
248.3259551
0
ARC
8
DEFAULT_255_1_234
10
4.8766691
20
29.9879064
40
0.9063478
50
248.2007737
51
252.4528373
0
ARC
8
DEFAULT_255_1_234
10
4.9970416
20
30.3600441
40
1.2974635
50
252.3391078
51
254.3469452
0
ARC
8
DEFAULT_255_1_234
10
4.2428119
20
27.6623148
40
1.5037162
50
71.0197183
51
74.4087047
0
ARC
8
DEFAULT_255_1_234
10
4.4122804
20
28.1515111
40
0.9859993
50
66.1847285
51
71.086374
0
ARC
8
DEFAULT_255_1_234
10
4.5679116
20
28.50192
40
0.6025855
50
59.3536294
51
66.2691831
0
ARC
8
DEFAULT_255_1_234
10
4.6567769
20
28.6522609
40
0.4279449
50
49.1020879
51
59.3293958
0
ARC
8
DEFAULT_255_1_234
10
4.7386509
20
28.7455834
40
0.3038015
50
32.7919921
51
49.2505539
0
ARC
8
DEFAULT_255_1_234
10
4.7707599
20
28.7684191
40
0.264448
50
31.1181161
51
32.4005348
0
ARC
8
DEFAULT_255_1_234
10
4.7619136
20
28.7648779
40
0.2738556
50
8.1116974
51
30.7958831
0
ARC
8
DEFAULT_255_1_234
10
4.6808804
20
28.7510753
40
0.3560327
50
359.8389159
51
8.4706516
0
ARC
8
DEFAULT_255_1_234
10
4.7434596
20
28.7462137
40
0.2934776
50
337.4731098
51
0.7537279
0
ARC
8
DEFAULT_255_1_234
10
4.7613291
20
28.7442387
40
0.2762607
50
307.5917067
51
336.4315538
0
ARC
8
DEFAULT_255_1_234
10
4.7153119
20
28.7955102
40
0.3449979
50
307.6551545
51
308.4529766
0
ARC
8
DEFAULT_255_1_234
10
4.6922838
20
28.831025
40
0.3871988
50
284.3734338
51
307.1424381
0
ARC
8
DEFAULT_255_1_234
10
4.6427668
20
29.0131932
40
0.5759636
50
272.4382747
51
284.646547
0
ARC
8
DEFAULT_255_1_234
10
4.6300876
20
29.1931893
40
0.7563528
50
269.9708387
51
272.8178037
0
ARC
8
DEFAULT_255_1_234
10
4.6257916
20
28.9893716
40
0.5525489
50
248.2707594
51
270.4055579
0
ARC
8
DEFAULT_255_1_234
10
4.6203657
20
28.9703192
40
0.5328452
50
246.1383403
51
248.0542782
0
ARC
8
DEFAULT_255_1_234
10
4.5785036
20
28.8823843
40
0.4355005
50
233.1670131
51
246.4950969
0
ARC
8
DEFAULT_255_1_234
10
4.5230941
20
28.8075812
40
0.3424126
50
215.3403242
51
233.0843104
0
ARC
8
DEFAULT_255_1_234
10
4.4958372
20
28.7877549
40
0.3087104
50
179.2419209
51
215.2648451
0
ARC
8
DEFAULT_255_1_234
10
4.5725966
20
28.7891666
40
0.2304457
50
179.335461
51
199.1045811
0
ARC
8
DEFAULT_255_1_234
10
4.5393643
20
28.7804766
40
0.1962176
50
199.8828939
51
232.7063202
0
ARC
8
DEFAULT_255_1_234
10
4.5865911
20
28.8398788
40
0.2720938
50
232.3738199
51
255.5136649
0
ARC
8
DEFAULT_255_1_234
10
4.6206778
20
28.9642835
40
0.4010747
50
255.2446292
51
267.5320849
0
ARC
8
DEFAULT_255_1_234
10
4.6294401
20
29.0875702
40
0.5246356
50
267.1557994
51
270.0286766
0
ARC
8
DEFAULT_255_1_234
10
4.6322173
20
29.043195
40
0.4802668
50
269.7000017
51
278.1660162
0
ARC
8
DEFAULT_255_1_234
10
4.6578178
20
28.8701515
40
0.3053425
50
278.0231263
51
290.625471
0
ARC
8
DEFAULT_255_1_234
10
4.6925865
20
28.7774025
40
0.206291
50
290.6619762
51
307.0370976
0
ARC
8
DEFAULT_255_1_234
10
4.7226254
20
28.7405504
40
0.1587906
50
306.3943566
51
355.3030547
0
ARC
8
DEFAULT_255_1_234
10
4.6714186
20
28.7482113
40
0.2104809
50
354.3660432
51
0.0698737
0
ARC
8
DEFAULT_255_1_234
10
4.6856531
20
28.7504617
40
0.1962563
50
359.417946
51
16.1971788
0
ARC
8
DEFAULT_255_1_234
10
4.7311841
20
28.7629418
40
0.149053
50
16.4723299
51
52.6262157
0
ARC
8
DEFAULT_255_1_234
10
4.6490895
20
28.6545433
40
0.2850296
50
52.7386432
51
62.4979148
0
ARC
8
DEFAULT_255_1_234
10
4.5105972
20
28.3939283
40
0.5801521
50
62.2515216
51
68.1220564
0
ARC
8
DEFAULT_255_1_234
10
4.3385883
20
27.9711872
40
1.0365451
50
68.0062803
51
71.8053402
0
ARC
8
DEFAULT_255_1_234
10
4.1590255
20
27.4326758
40
1.6042013
50
71.7183119
51
73.9258742
0
LINE
8
DEFAULT_255_1_234
10
5.5581716
20
28.4529
11
5.2344926
21
28.4529
0
LINE
8
DEFAULT_255_1_234
10
5.2344926
20
28.4529
11
5.2344926
21
29.6223211
0
LINE
8
DEFAULT_255_1_234
10
5.2344926
20
29.6223211
11
5.564597
21
29.6223211
0
LINE
8
DEFAULT_255_1_234
10
6.0802346
20
29.0769661
11
6.0802346
21
29.0022709
0
LINE
8
DEFAULT_255_1_234
10
5.5686129
20
29.4954196
11
5.388702
21
29.4954196
0
LINE
8
DEFAULT_255_1_234
10
5.388702
20
29.4954196
11
5.388702
21
28.5789983
0
LINE
8
DEFAULT_255_1_234
10
5.388702
20
28.5789983
11
5.5509431
21
28.5789983
0
LINE
8
DEFAULT_255_1_234
10
5.9276316
20
29.0054836
11
5.9276316
21
29.0737534
0
ARC
8
DEFAULT_255_1_234
10
5.5684913
20
29.0357894
40
0.5865446
50
75.4101064
51
90.3804066
0
ARC
8
DEFAULT_255_1_234
10
5.5914426
20
29.1314492
40
0.4881916
50
60.145586
51
75.1888407
0
ARC
8
DEFAULT_255_1_234
10
5.6073202
20
29.1591199
40
0.4562893
50
26.5253612
51
60.1450928
0
ARC
8
DEFAULT_255_1_234
10
5.4952951
20
29.0997158
40
0.5830602
50
7.4030428
51
26.8320788
0
ARC
8
DEFAULT_255_1_234
10
5.3358708
20
29.0748804
40
0.7443669
50
0.1605367
51
7.7176192
0
ARC
8
DEFAULT_255_1_234
10
5.3522612
20
28.9984434
40
0.7279835
50
348.7289388
51
0.3012466
0
ARC
8
DEFAULT_255_1_234
10
5.5179043
20
28.9655386
40
0.559104
50
333.0706509
51
348.7181832
0
ARC
8
DEFAULT_255_1_234
10
5.61458
20
28.9130319
40
0.4491417
50
299.2531685
51
333.4571258
0
ARC
8
DEFAULT_255_1_234
10
5.578494
20
28.9815828
40
0.5265881
50
278.107187
51
299.0339503
0
ARC
8
DEFAULT_255_1_234
10
5.5529019
20
29.1323216
40
0.679442
50
270.4443897
51
278.4511052
0
ARC
8
DEFAULT_255_1_234
10
5.5549849
20
29.0394213
40
0.4604407
50
269.4970433
51
284.0205042
0
ARC
8
DEFAULT_255_1_234
10
5.590515
20
28.9028978
40
0.3193797
50
283.7700273
51
318.1555492
0
ARC
8
DEFAULT_255_1_234
10
5.5567908
20
28.9281367
40
0.3613588
50
318.7415601
51
343.6873628
0
ARC
8
DEFAULT_255_1_234
10
5.3763931
20
28.9844832
40
0.5503313
50
343.3325091
51
355.8548958
0
ARC
8
DEFAULT_255_1_234
10
5.1665616
20
29.0044319
40
0.7610708
50
355.4988528
51
0.0791727
0
ARC
8
DEFAULT_255_1_234
10
5.2448238
20
29.077978
40
0.6828208
50
359.6455037
51
9.8607896
0
ARC
8
DEFAULT_255_1_234
10
5.4808936
20
29.1206099
40
0.4429406
50
9.6571907
51
26.1932807
0
ARC
8
DEFAULT_255_1_234
10
5.5736925
20
29.1637118
40
0.3406537
50
26.5777228
51
40.1532208
0
ARC
8
DEFAULT_255_1_234
10
5.5992651
20
29.1836619
40
0.308246
50
40.3840491
51
80.1431104
0
ARC
8
DEFAULT_255_1_234
10
5.5665769
20
29.0387333
40
0.4566909
50
79.2152159
51
89.7445637
0
LINE
8
DEFAULT_255_1_234
10
7.0536813
20
28.4529
11
6.9420401
21
28.7581061
0
LINE
8
DEFAULT_255_1_234
10
6.9420401
20
28.7581061
11
6.4521041
21
28.7581061
0
LINE
8
DEFAULT_255_1_234
10
6.4521041
20
28.7581061
11
6.3420693
21
28.4529
0
LINE
8
DEFAULT_255_1_234
10
6.3420693
20
28.4529
11
6.1830409
21
28.4529
0
LINE
8
DEFAULT_255_1_234
10
6.1830409
20
28.4529
11
6.6296055
21
29.6223211
0
LINE
8
DEFAULT_255_1_234
10
6.6296055
20
29.6223211
11
6.7645387
21
29.6223211
0
LINE
8
DEFAULT_255_1_234
10
6.7645387
20
29.6223211
11
7.2119065
21
28.4529
0
LINE
8
DEFAULT_255_1_234
10
7.2119065
20
28.4529
11
7.0536813
21
28.4529
0
LINE
8
DEFAULT_255_1_234
10
6.6970721
20
29.4319689
11
6.4986882
21
28.8850075
0
LINE
8
DEFAULT_255_1_234
10
6.4986882
20
28.8850075
11
6.8962592
21
28.8850075
0
LINE
8
DEFAULT_255_1_234
10
6.8962592
20
28.8850075
11
6.6970721
21
29.4319689
0
LINE
8
DEFAULT_255_1_234
10
7.6552585
20
29.0103026
11
7.6552585
21
28.8890234
0
LINE
8
DEFAULT_255_1_234
10
7.6552585
20
28.8890234
11
7.2633097
21
28.8890234
0
LINE
8
DEFAULT_255_1_234
10
7.2633097
20
28.8890234
11
7.2633097
21
29.0103026
0
LINE
8
DEFAULT_255_1_234
10
7.2633097
20
29.0103026
11
7.6552585
21
29.0103026
0
LINE
8
DEFAULT_255_1_234
10
4.9154341
20
36.3904
11
4.6616312
21
36.8634694
0
LINE
8
DEFAULT_255_1_234
10
4.6616312
20
36.8634694
11
4.3869458
21
36.8634694
0
LINE
8
DEFAULT_255_1_234
10
4.3869458
20
36.8634694
11
4.3869458
21
36.3904
0
LINE
8
DEFAULT_255_1_234
10
4.3869458
20
36.3904
11
4.2319332
21
36.3904
0
LINE
8
DEFAULT_255_1_234
10
4.2319332
20
36.3904
11
4.2319332
21
37.5598211
0
LINE
8
DEFAULT_255_1_234
10
4.2319332
20
37.5598211
11
4.619063
21
37.5598211
0
LINE
8
DEFAULT_255_1_234
10
4.8062025
20
36.8963995
11
5.0808879
21
36.4000381
0
LINE
8
DEFAULT_255_1_234
10
5.0808879
20
36.4000381
11
5.0808879
21
36.3904
0
LINE
8
DEFAULT_255_1_234
10
5.0808879
20
36.3904
11
4.9154341
21
36.3904
0
LINE
8
DEFAULT_255_1_234
10
4.3869458
20
37.4329196
11
4.3869458
21
36.9895677
0
LINE
8
DEFAULT_255_1_234
10
4.3869458
20
36.9895677
11
4.623882
21
36.9895677
0
LINE
8
DEFAULT_255_1_234
10
4.6230789
20
37.4329196
11
4.3869458
21
37.4329196
0
ARC
8
DEFAULT_255_1_234
10
4.6232269
20
36.8636761
40
0.6961575
50
80.653586
51
90.3427061
0
ARC
8
DEFAULT_255_1_234
10
4.6651744
20
37.1099348
40
0.4463577
50
65.6987447
51
80.8329603
0
ARC
8
DEFAULT_255_1_234
10
4.7129385
20
37.2194322
40
0.3269094
50
50.0017161
51
65.4305835
0
ARC
8
DEFAULT_255_1_234
10
4.7347849
20
37.2489482
40
0.2902647
50
11.628416
51
49.5603263
0
ARC
8
DEFAULT_255_1_234
10
4.5812185
20
37.2114299
40
0.4482792
50
359.5655735
51
12.3691
0
ARC
8
DEFAULT_255_1_234
10
4.6889045
20
37.2051644
40
0.3405924
50
341.9983148
51
0.4822259
0
ARC
8
DEFAULT_255_1_234
10
4.7283885
20
37.1944471
40
0.2997359
50
323.8609373
51
341.61416
0
ARC
8
DEFAULT_255_1_234
10
4.6982129
20
37.2177484
40
0.3378487
50
296.7018614
51
323.6876402
0
ARC
8
DEFAULT_255_1_234
10
4.6541024
20
37.2966235
40
0.4281516
50
290.8086567
51
297.2323311
0
ARC
8
DEFAULT_255_1_234
10
4.6264554
20
37.3489351
40
0.3593766
50
269.589728
51
281.8058135
0
ARC
8
DEFAULT_255_1_234
10
4.6515453
20
37.2341743
40
0.2419125
50
281.5501019
51
303.9357432
0
ARC
8
DEFAULT_255_1_234
10
4.6652641
20
37.2103936
40
0.2145323
50
304.4415616
51
311.2106213
0
ARC
8
DEFAULT_255_1_234
10
4.6784746
20
37.1964632
40
0.1953505
50
310.9875673
51
356.2715578
0
ARC
8
DEFAULT_255_1_234
10
4.6028395
20
37.2077422
40
0.2716331
50
354.9348262
51
0.0609027
0
ARC
8
DEFAULT_255_1_234
10
4.5841269
20
37.2104435
40
0.2903554
50
359.5239371
51
12.8808918
0
ARC
8
DEFAULT_255_1_234
10
4.6818824
20
37.2343728
40
0.1897315
50
12.4173452
51
43.1022135
0
ARC
8
DEFAULT_255_1_234
10
4.6880429
20
37.2380724
40
0.1827118
50
43.5751728
51
48.203944
0
ARC
8
DEFAULT_255_1_234
10
4.6710921
20
37.2159302
40
0.2105272
50
48.7809703
51
72.6969569
0
ARC
8
DEFAULT_255_1_234
10
4.6356546
20
37.108382
40
0.3237537
50
72.3702241
51
84.8791103
0
ARC
8
DEFAULT_255_1_234
10
4.6209022
20
36.9741769
40
0.4587478
50
84.5400526
51
89.7281406
0
LINE
8
DEFAULT_255_1_234
10
5.5692176
20
36.3904
11
5.2455386
21
36.3904
0
LINE
8
DEFAULT_255_1_234
10
5.2455386
20
36.3904
11
5.2455386
21
37.5598211
0
LINE
8
DEFAULT_255_1_234
10
5.2455386
20
37.5598211
11
5.575643
21
37.5598211
0
LINE
8
DEFAULT_255_1_234
10
6.0912806
20
37.0144661
11
6.0912806
21
36.9397709
0
LINE
8
DEFAULT_255_1_234
10
5.5796589
20
37.4329196
11
5.3997479
21
37.4329196
0
LINE
8
DEFAULT_255_1_234
10
5.3997479
20
37.4329196
11
5.3997479
21
36.5164983
0
LINE
8
DEFAULT_255_1_234
10
5.3997479
20
36.5164983
11
5.5619891
21
36.5164983
0
LINE
8
DEFAULT_255_1_234
10
5.9386776
20
36.9429836
11
5.9386776
21
37.0112534
0
ARC
8
DEFAULT_255_1_234
10
5.5795373
20
36.9732894
40
0.5865446
50
75.4101064
51
90.3804066
0
ARC
8
DEFAULT_255_1_234
10
5.6024886
20
37.0689492
40
0.4881916
50
60.145586
51
75.1888407
0
ARC
8
DEFAULT_255_1_234
10
5.6183662
20
37.0966199
40
0.4562893
50
26.5253612
51
60.1450928
0
ARC
8
DEFAULT_255_1_234
10
5.5063411
20
37.0372158
40
0.5830602
50
7.4030428
51
26.8320788
0
ARC
8
DEFAULT_255_1_234
10
5.3469168
20
37.0123804
40
0.7443669
50
0.1605367
51
7.7176192
0
ARC
8
DEFAULT_255_1_234
10
5.3633072
20
36.9359434
40
0.7279835
50
348.7289388
51
0.3012466
0
ARC
8
DEFAULT_255_1_234
10
5.5289503
20
36.9030386
40
0.559104
50
333.0706509
51
348.7181832
0
ARC
8
DEFAULT_255_1_234
10
5.625626
20
36.8505319
40
0.4491417
50
299.2531685
51
333.4571258
0
ARC
8
DEFAULT_255_1_234
10
5.58954
20
36.9190828
40
0.5265881
50
278.107187
51
299.0339503
0
ARC
8
DEFAULT_255_1_234
10
5.5639479
20
37.0698216
40
0.679442
50
270.4443897
51
278.4511052
0
ARC
8
DEFAULT_255_1_234
10
5.5660309
20
36.9769213
40
0.4604407
50
269.4970433
51
284.0205042
0
ARC
8
DEFAULT_255_1_234
10
5.601561
20
36.8403978
40
0.3193797
50
283.7700273
51
318.1555492
0
ARC
8
DEFAULT_255_1_234
10
5.5678368
20
36.8656367
40
0.3613588
50
318.7415601
51
343.6873628
0
ARC
8
DEFAULT_255_1_234
10
5.3874391
20
36.9219832
40
0.5503313
50
343.3325091
51
355.8548958
0
ARC
8
DEFAULT_255_1_234
10
5.1776076
20
36.9419319
40
0.7610708
50
355.4988528
51
0.0791727
0
ARC
8
DEFAULT_255_1_234
10
5.2558698
20
37.015478
40
0.6828208
50
359.6455037
51
9.8607896
0
ARC
8
DEFAULT_255_1_234
10
5.4919396
20
37.0581099
40
0.4429406
50
9.6571907
51
26.1932807
0
ARC
8
DEFAULT_255_1_234
10
5.5847385
20
37.1012118
40
0.3406537
50
26.5777228
51
40.1532208
0
ARC
8
DEFAULT_255_1_234
10
5.6103111
20
37.1211619
40
0.308246
50
40.3840491
51
80.1431104
0
ARC
8
DEFAULT_255_1_234
10
5.5776229
20
36.9762333
40
0.4566909
50
79.2152159
51
89.7445637
0
LINE
8
DEFAULT_255_1_234
10
7.0647273
20
36.3904
11
6.9530861
21
36.6956061
0
LINE
8
DEFAULT_255_1_234
10
6.9530861
20
36.6956061
11
6.4631501
21
36.6956061
0
LINE
8
DEFAULT_255_1_234
10
6.4631501
20
36.6956061
11
6.3531153
21
36.3904
0
LINE
8
DEFAULT_255_1_234
10
6.3531153
20
36.3904
11
6.1940869
21
36.3904
0
LINE
8
DEFAULT_255_1_234
10
6.1940869
20
36.3904
11
6.6406515
21
37.5598211
0
LINE
8
DEFAULT_255_1_234
10
6.6406515
20
37.5598211
11
6.7755847
21
37.5598211
0
LINE
8
DEFAULT_255_1_234
10
6.7755847
20
37.5598211
11
7.2229525
21
36.3904
0
LINE
8
DEFAULT_255_1_234
10
7.2229525
20
36.3904
11
7.0647273
21
36.3904
0
LINE
8
DEFAULT_255_1_234
10
6.7081181
20
37.3694689
11
6.5097342
21
36.8225075
0
LINE
8
DEFAULT_255_1_234
10
6.5097342
20
36.8225075
11
6.9073052
21
36.8225075
0
LINE
8
DEFAULT_255_1_234
10
6.9073052
20
36.8225075
11
6.7081181
21
37.3694689
0
LINE
8
DEFAULT_255_1_234
10
7.7827647
20
37.3590276
11
7.7827647
21
37.0176788
0
LINE
8
DEFAULT_255_1_234
10
7.7827647
20
37.0176788
11
8.1088533
21
37.0176788
0
LINE
8
DEFAULT_255_1_234
10
8.1088533
20
37.0176788
11
8.1088533
21
36.8771233
0
LINE
8
DEFAULT_255_1_234
10
8.1088533
20
36.8771233
11
7.7827647
21
36.8771233
0
LINE
8
DEFAULT_255_1_234
10
7.7827647
20
36.8771233
11
7.7827647
21
36.5076634
0
LINE
8
DEFAULT_255_1_234
10
7.7827647
20
36.5076634
11
7.6333744
21
36.5076634
0
LINE
8
DEFAULT_255_1_234
10
7.6333744
20
36.5076634
11
7.6333744
21
36.8771233
0
LINE
8
DEFAULT_255_1_234
10
7.6333744
20
36.8771233
11
7.3072858
21
36.8771233
0
LINE
8
DEFAULT_255_1_234
10
7.3072858
20
36.8771233
11
7.3072858
21
37.0176788
0
LINE
8
DEFAULT_255_1_234
10
7.3072858
20
37.0176788
11
7.6333744
21
37.0176788
0
LINE
8
DEFAULT_255_1_234
10
7.6333744
20
37.0176788
11
7.6333744
21
37.3590276
0
LINE
8
DEFAULT_255_1_234
10
7.6333744
20
37.3590276
11
7.7827647
21
37.3590276
0
LINE
8
DEFAULT_255_1_234
10
4.9435341
20
44.3279
11
4.6897312
21
44.8009694
0
LINE
8
DEFAULT_255_1_234
10
4.6897312
20
44.8009694
11
4.4150458
21
44.8009694
0
LINE
8
DEFAULT_255_1_234
10
4.4150458
20
44.8009694
11
4.4150458
21
44.3279
0
LINE
8
DEFAULT_255_1_234
10
4.4150458
20
44.3279
11
4.2600332
21
44.3279
0
LINE
8
DEFAULT_255_1_234
10
4.2600332
20
44.3279
11
4.2600332
21
45.4973211
0
LINE
8
DEFAULT_255_1_234
10
4.2600332
20
45.4973211
11
4.647163
21
45.4973211
0
LINE
8
DEFAULT_255_1_234
10
4.8343025
20
44.8338995
11
5.1089879
21
44.3375381
0
LINE
8
DEFAULT_255_1_234
10
5.1089879
20
44.3375381
11
5.1089879
21
44.3279
0
LINE
8
DEFAULT_255_1_234
10
5.1089879
20
44.3279
11
4.9435341
21
44.3279
0
LINE
8
DEFAULT_255_1_234
10
4.4150458
20
45.3704196
11
4.4150458
21
44.9270677
0
LINE
8
DEFAULT_255_1_234
10
4.4150458
20
44.9270677
11
4.651982
21
44.9270677
0
LINE
8
DEFAULT_255_1_234
10
4.6511789
20
45.3704196
11
4.4150458
21
45.3704196
0
ARC
8
DEFAULT_255_1_234
10
4.6513269
20
44.8011761
40
0.6961575
50
80.653586
51
90.3427061
0
ARC
8
DEFAULT_255_1_234
10
4.6932744
20
45.0474348
40
0.4463577
50
65.6987447
51
80.8329603
0
ARC
8
DEFAULT_255_1_234
10
4.7410385
20
45.1569322
40
0.3269094
50
50.0017161
51
65.4305835
0
ARC
8
DEFAULT_255_1_234
10
4.7628849
20
45.1864482
40
0.2902647
50
11.628416
51
49.5603263
0
ARC
8
DEFAULT_255_1_234
10
4.6093185
20
45.1489299
40
0.4482792
50
359.5655735
51
12.3691
0
ARC
8
DEFAULT_255_1_234
10
4.7170045
20
45.1426644
40
0.3405924
50
341.9983148
51
0.4822259
0
ARC
8
DEFAULT_255_1_234
10
4.7564885
20
45.1319471
40
0.2997359
50
323.8609373
51
341.61416
0
ARC
8
DEFAULT_255_1_234
10
4.7263129
20
45.1552484
40
0.3378487
50
296.7018614
51
323.6876402
0
ARC
8
DEFAULT_255_1_234
10
4.6822024
20
45.2341235
40
0.4281516
50
290.8086567
51
297.2323311
0
ARC
8
DEFAULT_255_1_234
10
4.6545554
20
45.2864351
40
0.3593766
50
269.589728
51
281.8058135
0
ARC
8
DEFAULT_255_1_234
10
4.6796453
20
45.1716743
40
0.2419125
50
281.5501019
51
303.9357432
0
ARC
8
DEFAULT_255_1_234
10
4.6933641
20
45.1478936
40
0.2145323
50
304.4415616
51
311.2106213
0
ARC
8
DEFAULT_255_1_234
10
4.7065746
20
45.1339632
40
0.1953505
50
310.9875673
51
356.2715578
0
ARC
8
DEFAULT_255_1_234
10
4.6309395
20
45.1452422
40
0.2716331
50
354.9348262
51
0.0609027
0
ARC
8
DEFAULT_255_1_234
10
4.6122269
20
45.1479435
40
0.2903554
50
359.5239371
51
12.8808918
0
ARC
8
DEFAULT_255_1_234
10
4.7099824
20
45.1718728
40
0.1897315
50
12.4173452
51
43.1022135
0
ARC
8
DEFAULT_255_1_234
10
4.7161429
20
45.1755724
40
0.1827118
50
43.5751728
51
48.203944
0
ARC
8
DEFAULT_255_1_234
10
4.6991921
20
45.1534302
40
0.2105272
50
48.7809703
51
72.6969569
0
ARC
8
DEFAULT_255_1_234
10
4.6637546
20
45.045882
40
0.3237537
50
72.3702241
51
84.8791103
0
ARC
8
DEFAULT_255_1_234
10
4.6490022
20
44.9116769
40
0.4587478
50
84.5400526
51
89.7281406
0
LINE
8
DEFAULT_255_1_234
10
5.5973176
20
44.3279
11
5.2736386
21
44.3279
0
LINE
8
DEFAULT_255_1_234
10
5.2736386
20
44.3279
11
5.2736386
21
45.4973211
0
LINE
8
DEFAULT_255_1_234
10
5.2736386
20
45.4973211
11
5.603743
21
45.4973211
0
LINE
8
DEFAULT_255_1_234
10
6.1193806
20
44.9519661
11
6.1193806
21
44.8772709
0
LINE
8
DEFAULT_255_1_234
10
5.6077589
20
45.3704196
11
5.4278479
21
45.3704196
0
LINE
8
DEFAULT_255_1_234
10
5.4278479
20
45.3704196
11
5.4278479
21
44.4539983
0
LINE
8
DEFAULT_255_1_234
10
5.4278479
20
44.4539983
11
5.5900891
21
44.4539983
0
LINE
8
DEFAULT_255_1_234
10
5.9667776
20
44.8804836
11
5.9667776
21
44.9487534
0
ARC
8
DEFAULT_255_1_234
10
5.6076373
20
44.9107894
40
0.5865446
50
75.4101064
51
90.3804066
0
ARC
8
DEFAULT_255_1_234
10
5.6305886
20
45.0064492
40
0.4881916
50
60.145586
51
75.1888407
0
ARC
8
DEFAULT_255_1_234
10
5.6464662
20
45.0341199
40
0.4562893
50
26.5253612
51
60.1450928
0
ARC
8
DEFAULT_255_1_234
10
5.5344411
20
44.9747158
40
0.5830602
50
7.4030428
51
26.8320788
0
ARC
8
DEFAULT_255_1_234
10
5.3750168
20
44.9498804
40
0.7443669
50
0.1605367
51
7.7176192
0
ARC
8
DEFAULT_255_1_234
10
5.3914072
20
44.8734434
40
0.7279835
50
348.7289388
51
0.3012466
0
ARC
8
DEFAULT_255_1_234
10
5.5570503
20
44.8405386
40
0.559104
50
333.0706509
51
348.7181832
0
ARC
8
DEFAULT_255_1_234
10
5.653726
20
44.7880319
40
0.4491417
50
299.2531685
51
333.4571258
0
ARC
8
DEFAULT_255_1_234
10
5.61764
20
44.8565828
40
0.5265881
50
278.107187
51
299.0339503
0
ARC
8
DEFAULT_255_1_234
10
5.5920479
20
45.0073216
40
0.679442
50
270.4443897
51
278.4511052
0
ARC
8
DEFAULT_255_1_234
10
5.5941309
20
44.9144213
40
0.4604407
50
269.4970433
51
284.0205042
0
ARC
8
DEFAULT_255_1_234
10
5.629661
20
44.7778978
40
0.3193797
50
283.7700273
51
318.1555492
0
ARC
8
DEFAULT_255_1_234
10
5.5959368
20
44.8031367
40
0.3613588
50
318.7415601
51
343.6873628
0
ARC
8
DEFAULT_255_1_234
10
5.4155391
20
44.8594832
40
0.5503313
50
343.3325091
51
355.8548958
0
ARC
8
DEFAULT_255_1_234
10
5.2057076
20
44.8794319
40
0.7610708
50
355.4988528
51
0.0791727
0
ARC
8
DEFAULT_255_1_234
10
5.2839698
20
44.952978
40
0.6828208
50
359.6455037
51
9.8607896
0
ARC
8
DEFAULT_255_1_234
10
5.5200396
20
44.9956099
40
0.4429406
50
9.6571907
51
26.1932807
0
ARC
8
DEFAULT_255_1_234
10
5.6128385
20
45.0387118
40
0.3406537
50
26.5777228
51
40.1532208
0
ARC
8
DEFAULT_255_1_234
10
5.6384111
20
45.0586619
40
0.308246
50
40.3840491
51
80.1431104
0
ARC
8
DEFAULT_255_1_234
10
5.6057229
20
44.9137333
40
0.4566909
50
79.2152159
51
89.7445637
0
LINE
8
DEFAULT_255_1_234
10
7.0928273
20
44.3279
11
6.9811861
21
44.6331061
0
LINE
8
DEFAULT_255_1_234
10
6.9811861
20
44.6331061
11
6.4912501
21
44.6331061
0
LINE
8
DEFAULT_255_1_234
10
6.4912501
20
44.6331061
11
6.3812153
21
44.3279
0
LINE
8
DEFAULT_255_1_234
10
6.3812153
20
44.3279
11
6.2221869
21
44.3279
0
LINE
8
DEFAULT_255_1_234
10
6.2221869
20
44.3279
11
6.6687515
21
45.4973211
0
LINE
8
DEFAULT_255_1_234
10
6.6687515
20
45.4973211
11
6.8036847
21
45.4973211
0
LINE
8
DEFAULT_255_1_234
10
6.8036847
20
45.4973211
11
7.2510525
21
44.3279
0
LINE
8
DEFAULT_255_1_234
10
7.2510525
20
44.3279
11
7.0928273
21
44.3279
0
LINE
8
DEFAULT_255_1_234
10
6.7362181
20
45.3069689
11
6.5378342
21
44.7600075
0
LINE
8
DEFAULT_255_1_234
10
6.5378342
20
44.7600075
11
6.9354052
21
44.7600075
0
LINE
8
DEFAULT_255_1_234
10
6.9354052
20
44.7600075
11
6.7362181
21
45.3069689
0
LINE
8
DEFAULT_255_1_234
10
7.6944045
20
44.8853026
11
7.6944045
21
44.7640234
0
LINE
8
DEFAULT_255_1_234
10
7.6944045
20
44.7640234
11
7.3024557
21
44.7640234
0
LINE
8
DEFAULT_255_1_234
10
7.3024557
20
44.7640234
11
7.3024557
21
44.8853026
0
LINE
8
DEFAULT_255_1_234
10
7.3024557
20
44.8853026
11
7.6944045
21
44.8853026
0
LINE
8
DEFAULT_255_1_234
10
23.1660817
20
52.9569327
11
23.1660817
21
52.7641709
0
LINE
8
DEFAULT_255_1_234
10
22.427965
20
52.7440916
11
22.427965
21
52.9424755
0
LINE
8
DEFAULT_255_1_234
10
23.0174946
20
52.7240123
11
23.0174946
21
52.9673739
0
LINE
8
DEFAULT_255_1_234
10
22.5765521
20
52.9786184
11
22.5765521
21
52.7408789
0
ARC
8
DEFAULT_255_1_234
10
21.9413707
20
52.7592805
40
1.2247208
50
353.8441951
51
0.2287902
0
ARC
8
DEFAULT_255_1_234
10
22.4053211
20
52.7074806
40
0.7578929
50
344.4934747
51
353.9765454
0
ARC
8
DEFAULT_255_1_234
10
22.7045801
20
52.6223981
40
0.4467846
50
329.2803592
51
344.7472793
0
ARC
8
DEFAULT_255_1_234
10
22.8038626
20
52.5679018
40
0.3336173
50
324.9352394
51
328.6160465
0
ARC
8
DEFAULT_255_1_234
10
22.8415734
20
52.5415427
40
0.2876076
50
280.580143
51
324.9173126
0
ARC
8
DEFAULT_255_1_234
10
22.8014527
20
52.7086099
40
0.4592847
50
269.5977311
51
281.6734359
0
ARC
8
DEFAULT_255_1_234
10
22.7942433
20
52.6966173
40
0.4472986
50
256.6228859
51
270.51044
0
ARC
8
DEFAULT_255_1_234
10
22.754041
20
52.5417877
40
0.2873874
50
215.8618325
51
257.2788573
0
ARC
8
DEFAULT_255_1_234
10
22.8561442
20
52.6102977
40
0.4102928
50
197.9693508
51
215.2623606
0
ARC
8
DEFAULT_255_1_234
10
23.1046558
20
52.6941709
40
0.6725652
50
187.8816417
51
198.2346507
0
ARC
8
DEFAULT_255_1_234
10
23.5004766
20
52.7513079
40
1.0724845
50
180.8976217
51
188.0055519
0
ARC
8
DEFAULT_255_1_234
10
23.7804954
20
52.7616777
40
1.3526448
50
180.7449369
51
181.1510016
0
ARC
8
DEFAULT_255_1_234
10
23.6227683
20
52.9473042
40
1.1948131
50
173.7675579
51
180.231553
0
ARC
8
DEFAULT_255_1_234
10
23.170983
20
52.9983666
40
0.7401564
50
164.3058563
51
173.9002247
0
ARC
8
DEFAULT_255_1_234
10
22.8797899
20
53.0822656
40
0.4371288
50
148.7922025
51
164.568378
0
ARC
8
DEFAULT_255_1_234
10
22.7846351
20
53.1353929
40
0.3282386
50
144.5883898
51
148.1176286
0
ARC
8
DEFAULT_255_1_234
10
22.7503249
20
53.1593315
40
0.2864044
50
101.6440918
51
144.514236
0
ARC
8
DEFAULT_255_1_234
10
22.7928315
20
52.9904069
40
0.4604934
50
89.5284041
51
102.5819763
0
ARC
8
DEFAULT_255_1_234
10
22.8007403
20
52.9865018
40
0.464401
50
77.0437873
51
90.5081339
0
ARC
8
DEFAULT_255_1_234
10
22.8409405
20
53.1507615
40
0.2953195
50
48.2778575
51
77.4994676
0
ARC
8
DEFAULT_255_1_234
10
22.8482036
20
53.1636746
40
0.2808655
50
36.3142134
51
47.6305865
0
ARC
8
DEFAULT_255_1_234
10
22.7613343
20
53.1051515
40
0.3855453
50
18.2931786
51
35.6769206
0
ARC
8
DEFAULT_255_1_234
10
22.5070102
20
53.0178593
40
0.654423
50
8.024666
51
18.5605216
0
ARC
8
DEFAULT_255_1_234
10
22.0907022
20
52.9563792
40
1.0752407
50
1.1274072
51
8.1718305
0
ARC
8
DEFAULT_255_1_234
10
21.7671213
20
52.9436885
40
1.3990231
50
0.5424119
51
1.3863029
0
ARC
8
DEFAULT_255_1_234
10
21.949259
20
52.9709342
40
1.0682415
50
359.8090433
51
4.9407866
0
ARC
8
DEFAULT_255_1_234
10
22.3702604
20
53.0085113
40
0.6455691
50
4.8362157
51
12.2904523
0
ARC
8
DEFAULT_255_1_234
10
22.6457719
20
53.0698965
40
0.3633074
50
12.0805627
51
23.8173984
0
ARC
8
DEFAULT_255_1_234
10
22.7631425
20
53.1195919
40
0.2358723
50
24.2871213
51
31.3935614
0
ARC
8
DEFAULT_255_1_234
10
22.8156122
20
53.1539233
40
0.1732111
50
30.7407893
51
82.4657128
0
ARC
8
DEFAULT_255_1_234
10
22.7976256
20
53.0655691
40
0.263235
50
81.1060089
51
90.2184952
0
ARC
8
DEFAULT_255_1_234
10
22.7940555
20
53.0913924
40
0.2374236
50
89.3806855
51
105.6762551
0
ARC
8
DEFAULT_255_1_234
10
22.7757186
20
53.1580567
40
0.1682847
50
105.7981136
51
149.7388061
0
ARC
8
DEFAULT_255_1_234
10
22.8821264
20
53.094095
40
0.2924306
50
149.4208916
51
163.6286378
0
ARC
8
DEFAULT_255_1_234
10
23.0912152
20
53.030325
40
0.5110213
50
163.3763315
51
172.1410975
0
ARC
8
DEFAULT_255_1_234
10
23.4212871
20
52.9830518
40
0.8444586
50
172.0259487
51
178.0703232
0
ARC
8
DEFAULT_255_1_234
10
23.724296
20
52.9686906
40
1.1477868
50
177.8631668
51
179.5044149
0
ARC
8
DEFAULT_255_1_234
10
23.6170365
20
52.7372389
40
1.0404907
50
179.7995573
51
185.2460446
0
ARC
8
DEFAULT_255_1_234
10
23.2127404
20
52.6989513
40
0.6343885
50
185.1411642
51
193.0079639
0
ARC
8
DEFAULT_255_1_234
10
22.9483877
20
52.6364641
40
0.3627568
50
192.7897626
51
205.2507664
0
ARC
8
DEFAULT_255_1_234
10
22.8437424
20
52.5897415
40
0.2481908
50
205.8005384
51
211.2537509
0
ARC
8
DEFAULT_255_1_234
10
22.7913864
20
52.554658
40
0.1852521
50
210.3789793
51
238.4008143
0
ARC
8
DEFAULT_255_1_234
10
22.7894386
20
52.5593376
40
0.1882621
50
239.6520629
51
265.9793761
0
ARC
8
DEFAULT_255_1_234
10
22.7979586
20
52.6265427
40
0.2559272
50
265.1315437
51
270.060332
0
ARC
8
DEFAULT_255_1_234
10
22.8008365
20
52.5941534
40
0.2235528
50
269.3314664
51
287.2178029
0
ARC
8
DEFAULT_255_1_234
10
22.8146217
20
52.5438279
40
0.1714108
50
287.7958004
51
329.080874
0
ARC
8
DEFAULT_255_1_234
10
22.7188674
20
52.603593
40
0.2842745
50
328.6634704
51
343.3325132
0
ARC
8
DEFAULT_255_1_234
10
22.5015694
20
52.6712863
40
0.5118644
50
343.0499468
51
351.9393422
0
ARC
8
DEFAULT_255_1_234
10
22.1548994
20
52.7223949
40
0.8622784
50
351.8069023
51
357.7959224
0
ARC
8
DEFAULT_255_1_234
10
21.831355
20
52.7391721
40
1.1862365
50
357.5871873
51
359.2677531
0
LINE
8
DEFAULT_255_1_234
10
23.4496021
20
53.4348211
11
23.7821161
21
52.4702093
0
LINE
8
DEFAULT_255_1_234
10
23.7821161
20
52.4702093
11
24.1162364
21
53.4348211
0
LINE
8
DEFAULT_255_1_234
10
24.1162364
20
53.4348211
11
24.2849029
21
53.4348211
0
LINE
8
DEFAULT_255_1_234
10
24.2849029
20
53.4348211
11
23.851189
21
52.2654
0
LINE
8
DEFAULT_255_1_234
10
23.851189
20
52.2654
11
23.7146495
21
52.2654
0
LINE
8
DEFAULT_255_1_234
10
23.7146495
20
52.2654
11
23.2817388
21
53.4348211
0
LINE
8
DEFAULT_255_1_234
10
23.2817388
20
53.4348211
11
23.4496021
21
53.4348211
0
ENDSEC
0
EOF