0
SECTION
2
HEADER
9
$MEASUREMENT
70
1
0
ENDSEC
0
SECTION
2
TABLES
0
TABLE
2
LTYPE
0
LTYPE
72
65
70
64
2
CONTINUOUS
3
______
73
0
40
0
0
ENDTAB
0
TABLE
2
LAYER
0
LAYER
2
DEFAULT_255_2_778
70
0
62
255
6
CONTINUOUS
0
ENDTAB
0
ENDSEC
0
SECTION
2
ENTITIES
0
LINE
8
DEFAULT_255_2_778
10
34.7125609
20
129.7803534
11
0.2124609
21
129.7803534
0
LINE
8
DEFAULT_255_2_778
10
0.2124609
20
129.7803534
11
0.2124609
21
-0.2197466
0
LINE
8
DEFAULT_255_2_778
10
0.2124609
20
-0.2197466
11
34.7125609
21
-0.2197466
0
LINE
8
DEFAULT_255_2_778
10
34.7125609
20
-0.2197466
11
34.7125609
21
129.7803534
0
ARC
8
DEFAULT_255_2_778
10
23.5057989
20
100.0779727
40
1.9933
50
179.9317062
51
204.3119945
0
ARC
8
DEFAULT_255_2_778
10
23.5142843
20
100.0828156
40
2.0030269
50
204.3383105
51
260.196385
0
ARC
8
DEFAULT_255_2_778
10
23.5118839
20
100.0934583
40
2.0131097
50
260.3152812
51
270.0175439
0
ARC
8
DEFAULT_255_2_778
10
23.5150532
20
100.0732628
40
1.9929158
50
269.926605
51
294.3113989
0
ARC
8
DEFAULT_255_2_778
10
23.5100001
20
100.0821061
40
2.0030556
50
294.3389823
51
350.1972101
0
ARC
8
DEFAULT_255_2_778
10
23.4993388
20
100.0797336
40
2.0131615
50
350.3154071
51
0.0175033
0
ARC
8
DEFAULT_255_2_778
10
11.4055145
20
100.0777957
40
1.9929158
50
179.926605
51
204.3113989
0
ARC
8
DEFAULT_255_2_778
10
11.4143578
20
100.0828489
40
2.0030556
50
204.3389823
51
260.1972101
0
ARC
8
DEFAULT_255_2_778
10
11.4119853
20
100.0935101
40
2.0131615
50
260.3154071
51
270.0175033
0
ARC
8
DEFAULT_255_2_778
10
11.4151596
20
100.0731608
40
1.9928139
50
269.9264183
51
294.3120318
0
ARC
8
DEFAULT_255_2_778
10
11.4099666
20
100.0821845
40
2.0031756
50
294.34113
51
350.1955271
0
ARC
8
DEFAULT_255_2_778
10
11.3989991
20
100.0799182
40
2.0136013
50
350.3122132
51
0.0122462
0
LINE
8
DEFAULT_255_2_778
10
32.2125003
20
5.2803486
11
32.2125003
21
7.8804486
0
LINE
8
DEFAULT_255_2_778
10
32.2125003
20
7.8804486
11
23.7125003
21
7.8804486
0
LINE
8
DEFAULT_255_2_778
10
30.2126003
20
3.7804486
11
30.2126003
21
5.2803486
0
LINE
8
DEFAULT_255_2_778
10
15.2125003
20
5.2803486
11
33.2124003
21
5.2803486
0
LINE
8
DEFAULT_255_2_778
10
21.9623003
20
38.2802486
11
21.9623003
21
24.2803486
0
LINE
8
DEFAULT_255_2_778
10
21.9623003
20
24.2803486
11
9.9624003
21
24.2803486
0
LINE
8
DEFAULT_255_2_778
10
9.9624003
20
24.2803486
11
9.9624003
21
38.2802486
0
LINE
8
DEFAULT_255_2_778
10
9.9624003
20
38.2802486
11
21.9623003
21
38.2802486
0
LINE
8
DEFAULT_255_2_778
10
23.7125003
20
5.2803486
11
23.7125003
21
24.4803486
0
LINE
8
DEFAULT_255_2_778
10
25.5125003
20
104.5803486
11
21.5125003
21
104.5803486
0
LINE
8
DEFAULT_255_2_778
10
21.5125003
20
104.5803486
11
21.5125003
21
100.0803486
0
LINE
8
DEFAULT_255_2_778
10
25.5125003
20
100.0803486
11
25.5125003
21
104.5803486
0
LINE
8
DEFAULT_255_2_778
10
13.4126003
20
104.5803486
11
9.4126003
21
104.5803486
0
LINE
8
DEFAULT_255_2_778
10
9.4126003
20
104.5803486
11
9.4126003
21
100.0803486
0
LINE
8
DEFAULT_255_2_778
10
13.4126003
20
100.0803486
11
13.4126003
21
104.5803486
0
LINE
8
DEFAULT_255_2_778
10
21.9623003
20
83.8804486
11
21.9623003
21
69.8805486
0
LINE
8
DEFAULT_255_2_778
10
21.9623003
20
69.8805486
11
9.9624003
21
69.8805486
0
LINE
8
DEFAULT_255_2_778
10
9.9624003
20
69.8805486
11
9.9624003
21
83.8804486
0
LINE
8
DEFAULT_255_2_778
10
9.9624003
20
83.8804486
11
21.9623003
21
83.8804486
0
LINE
8
DEFAULT_255_2_778
10
32.2125003
20
95.2802486
11
32.2125003
21
92.6801486
0
LINE
8
DEFAULT_255_2_778
10
32.2125003
20
92.6801486
11
23.7125003
21
92.6801486
0
LINE
8
DEFAULT_255_2_778
10
23.7125003
20
83.6801486
11
23.7125003
21
95.2802486
0
LINE
8
DEFAULT_255_2_778
10
33.2123536
20
95.2803245
11
15.2125536
21
95.2803245
0
LINE
8
DEFAULT_255_2_778
10
30.2125536
20
96.7805245
11
30.2125536
21
95.2806245
0
LINE
8
DEFAULT_255_2_778
10
1.2123536
20
108.3803245
11
1.2123536
21
108.2803245
0
LINE
8
DEFAULT_255_2_778
10
20.4623536
20
120.7803245
11
20.4623536
21
119.2804245
0
LINE
8
DEFAULT_255_2_778
10
20.4623536
20
119.2804245
11
21.4624536
21
119.2804245
0
LINE
8
DEFAULT_255_2_778
10
21.4624536
20
119.2804245
11
21.4624536
21
120.7803245
0
LINE
8
DEFAULT_255_2_778
10
21.4624536
20
120.7803245
11
20.4623536
21
120.7803245
0
LINE
8
DEFAULT_255_2_778
10
33.7124536
20
108.3803245
11
33.7124536
21
108.2803245
0
LINE
8
DEFAULT_255_2_778
10
18.8624536
20
83.8805245
11
20.7698536
21
85.7878245
0
LINE
8
DEFAULT_255_2_778
10
17.482624
20
86.4604477
11
20.062624
21
83.8804477
0
LINE
8
DEFAULT_255_2_778
10
18.155224
20
67.9729477
11
20.062624
21
69.8803477
0
LINE
8
DEFAULT_255_2_778
10
18.862424
20
69.8802902
11
21.442424
21
67.3002902
0
LINE
8
DEFAULT_255_2_778
10
18.862424
20
38.2802902
11
20.769824
21
40.1876902
0
LINE
8
DEFAULT_255_2_778
10
17.482624
20
40.8602154
11
20.062624
21
38.2802154
0
LINE
8
DEFAULT_255_2_778
10
18.155224
20
22.3730154
11
20.062624
21
24.2804154
0
LINE
8
DEFAULT_255_2_778
10
18.862424
20
24.280376
11
21.442424
21
21.700376
0
ARC
8
DEFAULT_255_2_778
10
19.4744807
20
23.6779794
40
2.8123782
50
167.6300414
51
171.969111
0
ARC
8
DEFAULT_255_2_778
10
19.4585178
20
23.6801871
40
2.7962634
50
171.9682084
51
179.4992259
0
ARC
8
DEFAULT_255_2_778
10
19.4518972
20
23.680331
40
2.7896418
50
179.5009923
51
180.0003659
0
ARC
8
DEFAULT_255_2_778
10
19.463625
20
23.6810721
40
2.8013698
50
180.015522
51
233.46917
0
ARC
8
DEFAULT_255_2_778
10
19.4689215
20
23.6906157
40
2.8121917
50
233.4982017
51
237.283788
0
ARC
8
DEFAULT_255_2_778
10
19.4616068
20
23.6773249
40
2.7970561
50
237.2627072
51
252.5252802
0
ARC
8
DEFAULT_255_2_778
10
19.4615976
20
23.6798112
40
2.799425
50
252.540741
51
269.4397548
0
ARC
8
DEFAULT_255_2_778
10
19.46201
20
23.6816265
40
2.8012441
50
269.4316841
51
270.0004025
0
ARC
8
DEFAULT_255_2_778
10
19.4627646
20
23.6797219
40
2.7993395
50
269.9849586
51
296.9356204
0
ARC
8
DEFAULT_255_2_778
10
19.4604646
20
23.68181
40
2.8022431
50
296.9582044
51
306.9563874
0
ARC
8
DEFAULT_255_2_778
10
19.46593
20
23.6776329
40
2.7956201
50
306.9183479
51
327.9249458
0
ARC
8
DEFAULT_255_2_778
10
19.4591606
20
23.6813947
40
2.8033538
50
327.933268
51
359.9829314
0
ARC
8
DEFAULT_255_2_778
10
19.4706662
20
23.6805687
40
2.791848
50
359.999812
51
6.0050555
0
ARC
8
DEFAULT_255_2_778
10
19.4634124
20
23.6796176
40
2.7991616
50
6.0088832
51
14.4453857
0
ARC
8
DEFAULT_255_2_778
10
19.4458746
20
23.675364
40
2.8172063
50
14.4401842
51
16.6052846
0
LINE
8
DEFAULT_255_2_778
10
16.462422
20
24.2804729
11
16.462422
21
20.6805729
0
LINE
8
DEFAULT_255_2_778
10
16.462422
20
20.6805729
11
22.462422
21
20.6805729
0
LINE
8
DEFAULT_255_2_778
10
22.462422
20
20.6805729
11
22.462422
21
24.4804729
0
ARC
8
DEFAULT_255_2_778
10
19.4583805
20
38.8825436
40
2.8045673
50
343.3838976
51
351.3887313
0
ARC
8
DEFAULT_255_2_778
10
19.4700131
20
38.8805327
40
2.7927647
50
351.3937875
51
354.0411552
0
ARC
8
DEFAULT_255_2_778
10
19.4714933
20
38.8803759
40
2.7912764
50
354.0412037
51
0.0003162
0
ARC
8
DEFAULT_255_2_778
10
19.4615203
20
38.8799784
40
2.8012495
50
0.0084438
51
46.9817263
0
ARC
8
DEFAULT_255_2_778
10
19.4573566
20
38.8733109
40
2.8089653
50
47.0124171
51
53.0612424
0
ARC
8
DEFAULT_255_2_778
10
19.4636231
20
38.8838718
40
2.7967587
50
53.0338308
51
69.7155151
0
ARC
8
DEFAULT_255_2_778
10
19.4627534
20
38.878992
40
2.8016374
50
69.733428
51
90.0070969
0
ARC
8
DEFAULT_255_2_778
10
19.462407
20
38.8750622
40
2.8055674
50
90.0000132
51
90.5821208
0
ARC
8
DEFAULT_255_2_778
10
19.4617125
20
38.8835092
40
2.7971138
50
90.5696544
51
113.0129282
0
ARC
8
DEFAULT_255_2_778
10
19.4649557
20
38.8778348
40
2.8036045
50
113.0285963
51
122.7242895
0
ARC
8
DEFAULT_255_2_778
10
19.4583854
20
38.8843153
40
2.7946016
50
122.6827895
51
144.8875411
0
ARC
8
DEFAULT_255_2_778
10
19.4644581
20
38.880093
40
2.8019977
50
144.8883381
51
179.976534
0
ARC
8
DEFAULT_255_2_778
10
19.4574022
20
38.8813321
40
2.7949417
50
180.0018764
51
187.7925873
0
ARC
8
DEFAULT_255_2_778
10
19.4598606
20
38.8814629
40
2.7973951
50
187.7884147
51
188.0417171
0
ARC
8
DEFAULT_255_2_778
10
19.4742124
20
38.8836242
40
2.8119079
50
188.0444131
51
192.3843986
0
LINE
8
DEFAULT_255_2_778
10
22.462298
20
38.0804975
11
22.462298
21
41.8804975
0
LINE
8
DEFAULT_255_2_778
10
22.462298
20
41.8804975
11
16.462398
21
41.8804975
0
LINE
8
DEFAULT_255_2_778
10
16.462398
20
41.8804975
11
16.462398
21
38.2804975
0
LINE
8
DEFAULT_255_2_778
10
23.712498
20
66.0802975
11
15.212498
21
66.0802975
0
ARC
8
DEFAULT_255_2_778
10
19.4744807
20
69.2777794
40
2.8123782
50
167.6300414
51
171.969111
0
ARC
8
DEFAULT_255_2_778
10
19.4585178
20
69.2799871
40
2.7962634
50
171.9682084
51
179.4992259
0
ARC
8
DEFAULT_255_2_778
10
19.4518972
20
69.280131
40
2.7896418
50
179.5009923
51
180.0003659
0
ARC
8
DEFAULT_255_2_778
10
19.463625
20
69.2808721
40
2.8013698
50
180.015522
51
233.46917
0
ARC
8
DEFAULT_255_2_778
10
19.4689215
20
69.2904157
40
2.8121917
50
233.4982017
51
237.283788
0
ARC
8
DEFAULT_255_2_778
10
19.4616068
20
69.2771249
40
2.7970561
50
237.2627072
51
252.5252802
0
ARC
8
DEFAULT_255_2_778
10
19.4615976
20
69.2796112
40
2.799425
50
252.540741
51
269.4397548
0
ARC
8
DEFAULT_255_2_778
10
19.46201
20
69.2814265
40
2.8012441
50
269.4316841
51
270.0004025
0
ARC
8
DEFAULT_255_2_778
10
19.4627646
20
69.2795219
40
2.7993395
50
269.9849586
51
296.9356204
0
ARC
8
DEFAULT_255_2_778
10
19.4604646
20
69.28161
40
2.8022431
50
296.9582044
51
306.9563874
0
ARC
8
DEFAULT_255_2_778
10
19.46593
20
69.2774329
40
2.7956201
50
306.9183479
51
327.9249458
0
ARC
8
DEFAULT_255_2_778
10
19.4591606
20
69.2811947
40
2.8033538
50
327.933268
51
359.9829314
0
ARC
8
DEFAULT_255_2_778
10
19.4706662
20
69.2803687
40
2.791848
50
359.999812
51
6.0050555
0
ARC
8
DEFAULT_255_2_778
10
19.4634124
20
69.2794176
40
2.7991616
50
6.0088832
51
14.4453857
0
ARC
8
DEFAULT_255_2_778
10
19.4458746
20
69.275164
40
2.8172063
50
14.4401842
51
16.6052846
0
LINE
8
DEFAULT_255_2_778
10
16.462422
20
69.8802729
11
16.462422
21
66.2803729
0
LINE
8
DEFAULT_255_2_778
10
16.462422
20
66.2803729
11
22.462422
21
66.2803729
0
LINE
8
DEFAULT_255_2_778
10
22.462422
20
66.2803729
11
22.462422
21
70.0802729
0
ARC
8
DEFAULT_255_2_778
10
19.4583805
20
84.4824436
40
2.8045673
50
343.3838976
51
351.3887313
0
ARC
8
DEFAULT_255_2_778
10
19.4700131
20
84.4804327
40
2.7927647
50
351.3937875
51
354.0411552
0
ARC
8
DEFAULT_255_2_778
10
19.4714933
20
84.4802759
40
2.7912764
50
354.0412037
51
0.0003162
0
ARC
8
DEFAULT_255_2_778
10
19.4615203
20
84.4798784
40
2.8012495
50
0.0084438
51
46.9817263
0
ARC
8
DEFAULT_255_2_778
10
19.4573566
20
84.4732109
40
2.8089653
50
47.0124171
51
53.0612424
0
ARC
8
DEFAULT_255_2_778
10
19.4636231
20
84.4837718
40
2.7967587
50
53.0338308
51
69.7155151
0
ARC
8
DEFAULT_255_2_778
10
19.4627534
20
84.478892
40
2.8016374
50
69.733428
51
90.0070969
0
ARC
8
DEFAULT_255_2_778
10
19.462407
20
84.4749622
40
2.8055674
50
90.0000132
51
90.5821208
0
ARC
8
DEFAULT_255_2_778
10
19.4617125
20
84.4834092
40
2.7971138
50
90.5696544
51
113.0129282
0
ARC
8
DEFAULT_255_2_778
10
19.4649557
20
84.4777348
40
2.8036045
50
113.0285963
51
122.7242895
0
ARC
8
DEFAULT_255_2_778
10
19.4583854
20
84.4842153
40
2.7946016
50
122.6827895
51
144.8875411
0
ARC
8
DEFAULT_255_2_778
10
19.4644581
20
84.479993
40
2.8019977
50
144.8883381
51
179.976534
0
ARC
8
DEFAULT_255_2_778
10
19.4574022
20
84.4812321
40
2.7949417
50
180.0018764
51
187.7925873
0
ARC
8
DEFAULT_255_2_778
10
19.4598606
20
84.4813629
40
2.7973951
50
187.7884147
51
188.0417171
0
ARC
8
DEFAULT_255_2_778
10
19.4742124
20
84.4835242
40
2.8119079
50
188.0444131
51
192.3843986
0
ARC
8
DEFAULT_255_2_778
10
19.4604997
20
76.8804562
40
2.8017863
50
343.4104702
51
0.0003155
0
ARC
8
DEFAULT_255_2_778
10
20.4792543
20
76.8807702
40
1.7830316
50
359.9904059
51
0.0287822
0
ARC
8
DEFAULT_255_2_778
10
19.4597309
20
76.8804498
40
2.802555
50
0.0248621
51
16.5872422
0
ARC
8
DEFAULT_255_2_778
10
19.4605218
20
31.280353
40
2.8017641
50
343.4104044
51
0.000126
0
ARC
8
DEFAULT_255_2_778
10
19.4605218
20
31.2803653
40
2.8017641
50
359.999874
51
16.5895956
0
LINE
8
DEFAULT_255_2_778
10
22.4623609
20
83.6804091
11
22.4623609
21
87.4804091
0
LINE
8
DEFAULT_255_2_778
10
22.4623609
20
87.4804091
11
16.4623609
21
87.4804091
0
LINE
8
DEFAULT_255_2_778
10
16.4623609
20
87.4804091
11
16.4623609
21
83.8804091
0
LINE
8
DEFAULT_255_2_778
10
23.7124609
20
87.6804091
11
15.2124609
21
87.6804091
0
LINE
8
DEFAULT_255_2_778
10
23.7124609
20
88.8803091
11
15.2124609
21
88.8803091
0
LINE
8
DEFAULT_255_2_778
10
0.2124609
20
108.2803091
11
34.7125609
21
108.2803091
0
LINE
8
DEFAULT_255_2_778
10
0.2124609
20
108.3803091
11
34.7125609
21
108.3803091
0
LINE
8
DEFAULT_255_2_778
10
12.4623609
20
123.7804091
11
12.4623609
21
122.2805091
0
LINE
8
DEFAULT_255_2_778
10
12.4623609
20
122.2805091
11
13.4625609
21
122.2805091
0
LINE
8
DEFAULT_255_2_778
10
13.4625609
20
122.2805091
11
13.4625609
21
123.7804091
0
LINE
8
DEFAULT_255_2_778
10
13.4625609
20
123.7804091
11
12.4623609
21
123.7804091
0
LINE
8
DEFAULT_255_2_778
10
12.4623609
20
120.7803091
11
12.4623609
21
119.2804091
0
LINE
8
DEFAULT_255_2_778
10
12.4623609
20
119.2804091
11
13.4625609
21
119.2804091
0
LINE
8
DEFAULT_255_2_778
10
13.4625609
20
119.2804091
11
13.4625609
21
120.7803091
0
LINE
8
DEFAULT_255_2_778
10
13.4625609
20
120.7803091
11
12.4623609
21
120.7803091
0
LINE
8
DEFAULT_255_2_778
10
23.7124609
20
76.0805091
11
23.7124609
21
77.6805091
0
LINE
8
DEFAULT_255_2_778
10
22.4623609
20
76.0805091
11
22.4623609
21
77.6805091
0
LINE
8
DEFAULT_255_2_778
10
23.7124609
20
30.4804091
11
23.7124609
21
32.0803091
0
LINE
8
DEFAULT_255_2_778
10
22.4623609
20
30.4804091
11
22.4623609
21
32.0803091
0
LINE
8
DEFAULT_255_2_778
10
25.982623
20
90.260377
11
29.942423
21
86.300577
0
LINE
8
DEFAULT_255_2_778
10
26.6551615
20
86.9728385
11
29.2700615
21
89.5877385
0
ARC
8
DEFAULT_255_2_778
10
27.9580257
20
88.2832042
40
2.7955804
50
160.6250898
51
180.0625339
0
ARC
8
DEFAULT_255_2_778
10
27.9654872
20
88.2763633
40
2.8048915
50
101.7948804
51
160.5438283
0
ARC
8
DEFAULT_255_2_778
10
27.9609381
20
88.2679172
40
2.8122362
50
89.9692581
51
101.6689794
0
ARC
8
DEFAULT_255_2_778
10
27.9654925
20
88.2848398
40
2.7953149
50
70.6241591
51
90.0624243
0
ARC
8
DEFAULT_255_2_778
10
27.9585398
20
88.2771195
40
2.8049073
50
11.7946723
51
70.542501
0
ARC
8
DEFAULT_255_2_778
10
27.9500921
20
88.281661
40
2.8122552
50
359.969278
51
11.6689198
0
ARC
8
DEFAULT_255_2_778
10
27.9670072
20
88.2771098
40
2.7953414
50
340.624302
51
0.0623774
0
ARC
8
DEFAULT_255_2_778
10
27.9593204
20
88.2840325
40
2.8048924
50
281.7959826
51
340.5429938
0
ARC
8
DEFAULT_255_2_778
10
27.9639528
20
88.2922015
40
2.8119488
50
269.9693166
51
281.6695586
0
ARC
8
DEFAULT_255_2_778
10
27.9593981
20
88.2758583
40
2.7956069
50
250.6252326
51
270.062487
0
ARC
8
DEFAULT_255_2_778
10
27.966209
20
88.2832864
40
2.8048766
50
191.7961906
51
250.5443211
0
ARC
8
DEFAULT_255_2_778
10
27.9743764
20
88.2786462
40
2.8119298
50
179.9692966
51
191.6696183
0
LINE
8
DEFAULT_255_2_778
10
25.162447
20
88.280153
11
25.162447
21
88.280153
0
LINE
8
DEFAULT_255_2_778
10
23.712498
20
85.080303
11
32.212498
21
85.080303
0
LINE
8
DEFAULT_255_2_778
10
32.212498
20
85.080303
11
32.212498
21
91.480303
0
LINE
8
DEFAULT_255_2_778
10
32.212498
20
91.480303
11
23.712498
21
91.480303
0
LINE
8
DEFAULT_255_2_778
10
30.962422
20
85.280278
11
30.962422
21
91.280278
0
LINE
8
DEFAULT_255_2_778
10
30.962422
20
91.280278
11
24.962422
21
91.280278
0
LINE
8
DEFAULT_255_2_778
10
24.962422
20
91.280278
11
24.962422
21
85.280278
0
LINE
8
DEFAULT_255_2_778
10
24.962422
20
85.280278
11
30.962422
21
85.280278
0
LINE
8
DEFAULT_255_2_778
10
17.482623
20
94.060277
11
21.442423
21
90.100477
0
LINE
8
DEFAULT_255_2_778
10
18.1551615
20
90.7728385
11
20.7700615
21
93.3877385
0
ARC
8
DEFAULT_255_2_778
10
19.4580257
20
92.0832042
40
2.7955804
50
160.6250898
51
180.0625339
0
ARC
8
DEFAULT_255_2_778
10
19.4654872
20
92.0763633
40
2.8048915
50
101.7948804
51
160.5438283
0
ARC
8
DEFAULT_255_2_778
10
19.4609381
20
92.0679172
40
2.8122362
50
89.9692581
51
101.6689794
0
ARC
8
DEFAULT_255_2_778
10
19.4654925
20
92.0848398
40
2.7953149
50
70.6241591
51
90.0624243
0
ARC
8
DEFAULT_255_2_778
10
19.4585398
20
92.0771195
40
2.8049073
50
11.7946723
51
70.542501
0
ARC
8
DEFAULT_255_2_778
10
19.4500921
20
92.081661
40
2.8122552
50
359.969278
51
11.6689198
0
ARC
8
DEFAULT_255_2_778
10
19.4670072
20
92.0771098
40
2.7953414
50
340.624302
51
0.0623774
0
ARC
8
DEFAULT_255_2_778
10
19.4593204
20
92.0840325
40
2.8048924
50
281.7959826
51
340.5429938
0
ARC
8
DEFAULT_255_2_778
10
19.4639528
20
92.0922015
40
2.8119488
50
269.9693166
51
281.6695586
0
ARC
8
DEFAULT_255_2_778
10
19.4593981
20
92.0758583
40
2.7956069
50
250.6252326
51
270.062487
0
ARC
8
DEFAULT_255_2_778
10
19.466209
20
92.0832864
40
2.8048766
50
191.7961906
51
250.5443211
0
ARC
8
DEFAULT_255_2_778
10
19.4743764
20
92.0786462
40
2.8119298
50
179.9692966
51
191.6696183
0
LINE
8
DEFAULT_255_2_778
10
16.662447
20
92.080153
11
16.662447
21
92.080153
0
LINE
8
DEFAULT_255_2_778
10
25.982623
20
82.660177
11
29.942423
21
78.700377
0
LINE
8
DEFAULT_255_2_778
10
26.6551615
20
79.3727385
11
29.2700615
21
81.9876385
0
ARC
8
DEFAULT_255_2_778
10
27.9580257
20
80.6833042
40
2.7955804
50
160.6250898
51
180.0625339
0
ARC
8
DEFAULT_255_2_778
10
27.9654872
20
80.6764633
40
2.8048915
50
101.7948804
51
160.5438283
0
ARC
8
DEFAULT_255_2_778
10
27.9609381
20
80.6680172
40
2.8122362
50
89.9692581
51
101.6689794
0
ARC
8
DEFAULT_255_2_778
10
27.9654925
20
80.6849398
40
2.7953149
50
70.6241591
51
90.0624243
0
ARC
8
DEFAULT_255_2_778
10
27.9585398
20
80.6772195
40
2.8049073
50
11.7946723
51
70.542501
0
ARC
8
DEFAULT_255_2_778
10
27.9500921
20
80.681761
40
2.8122552
50
359.969278
51
11.6689198
0
ARC
8
DEFAULT_255_2_778
10
27.9670072
20
80.6772098
40
2.7953414
50
340.624302
51
0.0623774
0
ARC
8
DEFAULT_255_2_778
10
27.9593204
20
80.6841325
40
2.8048924
50
281.7959826
51
340.5429938
0
ARC
8
DEFAULT_255_2_778
10
27.9639528
20
80.6923015
40
2.8119488
50
269.9693166
51
281.6695586
0
ARC
8
DEFAULT_255_2_778
10
27.9593981
20
80.6759583
40
2.7956069
50
250.6252326
51
270.062487
0
ARC
8
DEFAULT_255_2_778
10
27.966209
20
80.6833864
40
2.8048766
50
191.7961906
51
250.5443211
0
ARC
8
DEFAULT_255_2_778
10
27.9743764
20
80.6787462
40
2.8119298
50
179.9692966
51
191.6696183
0
LINE
8
DEFAULT_255_2_778
10
25.162447
20
80.680253
11
25.162447
21
80.680253
0
LINE
8
DEFAULT_255_2_778
10
23.712498
20
77.480403
11
32.212498
21
77.480403
0
LINE
8
DEFAULT_255_2_778
10
32.212498
20
77.480403
11
32.212498
21
83.880403
0
LINE
8
DEFAULT_255_2_778
10
32.212498
20
83.880403
11
23.712498
21
83.880403
0
LINE
8
DEFAULT_255_2_778
10
21.9625668
20
77.680378
11
30.9626668
21
77.680378
0
LINE
8
DEFAULT_255_2_778
10
30.9626668
20
77.680378
11
30.9626668
21
83.680378
0
LINE
8
DEFAULT_255_2_778
10
30.9626668
20
83.680378
11
21.9625668
21
83.680378
0
LINE
8
DEFAULT_255_2_778
10
24.9624
20
83.680378
11
24.9624
21
77.680378
0
LINE
8
DEFAULT_255_2_778
10
25.982623
20
75.060277
11
29.942423
21
71.100477
0
LINE
8
DEFAULT_255_2_778
10
26.6551615
20
71.7728385
11
29.2700615
21
74.3877385
0
ARC
8
DEFAULT_255_2_778
10
27.9580257
20
73.0832042
40
2.7955804
50
160.6250898
51
180.0625339
0
ARC
8
DEFAULT_255_2_778
10
27.9654872
20
73.0763633
40
2.8048915
50
101.7948804
51
160.5438283
0
ARC
8
DEFAULT_255_2_778
10
27.9609381
20
73.0679172
40
2.8122362
50
89.9692581
51
101.6689794
0
ARC
8
DEFAULT_255_2_778
10
27.9654925
20
73.0848398
40
2.7953149
50
70.6241591
51
90.0624243
0
ARC
8
DEFAULT_255_2_778
10
27.9585398
20
73.0771195
40
2.8049073
50
11.7946723
51
70.542501
0
ARC
8
DEFAULT_255_2_778
10
27.9500921
20
73.081661
40
2.8122552
50
359.969278
51
11.6689198
0
ARC
8
DEFAULT_255_2_778
10
27.9670072
20
73.0771098
40
2.7953414
50
340.624302
51
0.0623774
0
ARC
8
DEFAULT_255_2_778
10
27.9593204
20
73.0840325
40
2.8048924
50
281.7959826
51
340.5429938
0
ARC
8
DEFAULT_255_2_778
10
27.9639528
20
73.0922015
40
2.8119488
50
269.9693166
51
281.6695586
0
ARC
8
DEFAULT_255_2_778
10
27.9593981
20
73.0758583
40
2.7956069
50
250.6252326
51
270.062487
0
ARC
8
DEFAULT_255_2_778
10
27.966209
20
73.0832864
40
2.8048766
50
191.7961906
51
250.5443211
0
ARC
8
DEFAULT_255_2_778
10
27.9743764
20
73.0786462
40
2.8119298
50
179.9692966
51
191.6696183
0
LINE
8
DEFAULT_255_2_778
10
25.162447
20
73.080153
11
25.162447
21
73.080153
0
LINE
8
DEFAULT_255_2_778
10
23.712498
20
69.880303
11
32.212498
21
69.880303
0
LINE
8
DEFAULT_255_2_778
10
32.212498
20
69.880303
11
32.212498
21
76.280303
0
LINE
8
DEFAULT_255_2_778
10
32.212498
20
76.280303
11
23.712498
21
76.280303
0
LINE
8
DEFAULT_255_2_778
10
21.9625668
20
70.080278
11
30.9626668
21
70.080278
0
LINE
8
DEFAULT_255_2_778
10
30.9626668
20
70.080278
11
30.9626668
21
76.080278
0
LINE
8
DEFAULT_255_2_778
10
30.9626668
20
76.080278
11
21.9625668
21
76.080278
0
LINE
8
DEFAULT_255_2_778
10
24.9624
20
76.080278
11
24.9624
21
70.080278
0
LINE
8
DEFAULT_255_2_778
10
25.982623
20
67.460177
11
29.942423
21
63.500377
0
LINE
8
DEFAULT_255_2_778
10
26.6551615
20
64.1729385
11
29.2700615
21
66.7878385
0
ARC
8
DEFAULT_255_2_778
10
27.9580257
20
65.4833042
40
2.7955804
50
160.6250898
51
180.0625339
0
ARC
8
DEFAULT_255_2_778
10
27.9654872
20
65.4764633
40
2.8048915
50
101.7948804
51
160.5438283
0
ARC
8
DEFAULT_255_2_778
10
27.9609381
20
65.4680172
40
2.8122362
50
89.9692581
51
101.6689794
0
ARC
8
DEFAULT_255_2_778
10
27.9654925
20
65.4849398
40
2.7953149
50
70.6241591
51
90.0624243
0
ARC
8
DEFAULT_255_2_778
10
27.9585398
20
65.4772195
40
2.8049073
50
11.7946723
51
70.542501
0
ARC
8
DEFAULT_255_2_778
10
27.9500921
20
65.481761
40
2.8122552
50
359.969278
51
11.6689198
0
ARC
8
DEFAULT_255_2_778
10
27.9670072
20
65.4772098
40
2.7953414
50
340.624302
51
0.0623774
0
ARC
8
DEFAULT_255_2_778
10
27.9593204
20
65.4841325
40
2.8048924
50
281.7959826
51
340.5429938
0
ARC
8
DEFAULT_255_2_778
10
27.9639528
20
65.4923015
40
2.8119488
50
269.9693166
51
281.6695586
0
ARC
8
DEFAULT_255_2_778
10
27.9593981
20
65.4759583
40
2.7956069
50
250.6252326
51
270.062487
0
ARC
8
DEFAULT_255_2_778
10
27.966209
20
65.4833864
40
2.8048766
50
191.7961906
51
250.5443211
0
ARC
8
DEFAULT_255_2_778
10
27.9743764
20
65.4787462
40
2.8119298
50
179.9692966
51
191.6696183
0
LINE
8
DEFAULT_255_2_778
10
25.162447
20
65.480253
11
25.162447
21
65.480253
0
LINE
8
DEFAULT_255_2_778
10
23.712498
20
62.280403
11
32.212498
21
62.280403
0
LINE
8
DEFAULT_255_2_778
10
32.212498
20
62.280403
11
32.212498
21
68.680403
0
LINE
8
DEFAULT_255_2_778
10
32.212498
20
68.680403
11
23.712498
21
68.680403
0
LINE
8
DEFAULT_255_2_778
10
30.962422
20
62.480378
11
30.962422
21
68.480378
0
LINE
8
DEFAULT_255_2_778
10
30.962422
20
68.480378
11
24.962422
21
68.480378
0
LINE
8
DEFAULT_255_2_778
10
24.962422
20
68.480378
11
24.962422
21
62.480378
0
LINE
8
DEFAULT_255_2_778
10
24.962422
20
62.480378
11
30.962422
21
62.480378
0
LINE
8
DEFAULT_255_2_778
10
25.982623
20
59.860277
11
29.942423
21
55.900477
0
LINE
8
DEFAULT_255_2_778
10
26.6551615
20
56.5727385
11
29.2700615
21
59.1876385
0
ARC
8
DEFAULT_255_2_778
10
27.9580257
20
57.8834042
40
2.7955804
50
160.6250898
51
180.0625339
0
ARC
8
DEFAULT_255_2_778
10
27.9654872
20
57.8765633
40
2.8048915
50
101.7948804
51
160.5438283
0
ARC
8
DEFAULT_255_2_778
10
27.9609381
20
57.8681172
40
2.8122362
50
89.9692581
51
101.6689794
0
ARC
8
DEFAULT_255_2_778
10
27.9654925
20
57.8850398
40
2.7953149
50
70.6241591
51
90.0624243
0
ARC
8
DEFAULT_255_2_778
10
27.9585398
20
57.8773195
40
2.8049073
50
11.7946723
51
70.542501
0
ARC
8
DEFAULT_255_2_778
10
27.9500921
20
57.881861
40
2.8122552
50
359.969278
51
11.6689198
0
ARC
8
DEFAULT_255_2_778
10
27.9670072
20
57.8773098
40
2.7953414
50
340.624302
51
0.0623774
0
ARC
8
DEFAULT_255_2_778
10
27.9593204
20
57.8842325
40
2.8048924
50
281.7959826
51
340.5429938
0
ARC
8
DEFAULT_255_2_778
10
27.9639528
20
57.8924015
40
2.8119488
50
269.9693166
51
281.6695586
0
ARC
8
DEFAULT_255_2_778
10
27.9593981
20
57.8760583
40
2.7956069
50
250.6252326
51
270.062487
0
ARC
8
DEFAULT_255_2_778
10
27.966209
20
57.8834864
40
2.8048766
50
191.7961906
51
250.5443211
0
ARC
8
DEFAULT_255_2_778
10
27.9743764
20
57.8788462
40
2.8119298
50
179.9692966
51
191.6696183
0
LINE
8
DEFAULT_255_2_778
10
25.162447
20
57.880353
11
25.162447
21
57.880353
0
LINE
8
DEFAULT_255_2_778
10
23.712498
20
54.680203
11
32.212498
21
54.680203
0
LINE
8
DEFAULT_255_2_778
10
32.212498
20
54.680203
11
32.212498
21
61.080203
0
LINE
8
DEFAULT_255_2_778
10
32.212498
20
61.080203
11
23.712498
21
61.080203
0
LINE
8
DEFAULT_255_2_778
10
30.962422
20
60.880478
11
24.962422
21
60.880478
0
LINE
8
DEFAULT_255_2_778
10
24.962422
20
60.880478
11
24.962422
21
54.880478
0
LINE
8
DEFAULT_255_2_778
10
24.962422
20
54.880478
11
30.962422
21
54.880478
0
LINE
8
DEFAULT_255_2_778
10
30.962422
20
54.880478
11
30.962422
21
60.880478
0
LINE
8
DEFAULT_255_2_778
10
17.482623
20
63.660177
11
21.442423
21
59.700377
0
LINE
8
DEFAULT_255_2_778
10
18.1551615
20
60.3727385
11
20.7700615
21
62.9876385
0
ARC
8
DEFAULT_255_2_778
10
19.4580257
20
61.6833042
40
2.7955804
50
160.6250898
51
180.0625339
0
ARC
8
DEFAULT_255_2_778
10
19.4654872
20
61.6764633
40
2.8048915
50
101.7948804
51
160.5438283
0
ARC
8
DEFAULT_255_2_778
10
19.4609381
20
61.6680172
40
2.8122362
50
89.9692581
51
101.6689794
0
ARC
8
DEFAULT_255_2_778
10
19.4654925
20
61.6849398
40
2.7953149
50
70.6241591
51
90.0624243
0
ARC
8
DEFAULT_255_2_778
10
19.4585398
20
61.6772195
40
2.8049073
50
11.7946723
51
70.542501
0
ARC
8
DEFAULT_255_2_778
10
19.4500921
20
61.681761
40
2.8122552
50
359.969278
51
11.6689198
0
ARC
8
DEFAULT_255_2_778
10
19.4670072
20
61.6772098
40
2.7953414
50
340.624302
51
0.0623774
0
ARC
8
DEFAULT_255_2_778
10
19.4593204
20
61.6841325
40
2.8048924
50
281.7959826
51
340.5429938
0
ARC
8
DEFAULT_255_2_778
10
19.4639528
20
61.6923015
40
2.8119488
50
269.9693166
51
281.6695586
0
ARC
8
DEFAULT_255_2_778
10
19.4593981
20
61.6759583
40
2.7956069
50
250.6252326
51
270.062487
0
ARC
8
DEFAULT_255_2_778
10
19.466209
20
61.6833864
40
2.8048766
50
191.7961906
51
250.5443211
0
ARC
8
DEFAULT_255_2_778
10
19.4743764
20
61.6787462
40
2.8119298
50
179.9692966
51
191.6696183
0
LINE
8
DEFAULT_255_2_778
10
16.662447
20
61.680253
11
16.662447
21
61.680253
0
LINE
8
DEFAULT_255_2_778
10
23.712498
20
64.880478
11
15.212498
21
64.880478
0
LINE
8
DEFAULT_255_2_778
10
23.712498
20
57.280278
11
15.212498
21
57.280278
0
LINE
8
DEFAULT_255_2_778
10
22.462422
20
58.680478
11
22.462422
21
64.680478
0
LINE
8
DEFAULT_255_2_778
10
22.462422
20
64.680478
11
16.462422
21
64.680478
0
LINE
8
DEFAULT_255_2_778
10
16.462422
20
64.680478
11
16.462422
21
58.680478
0
LINE
8
DEFAULT_255_2_778
10
16.462422
20
58.680478
11
22.462422
21
58.680478
0
LINE
8
DEFAULT_255_2_778
10
17.482623
20
56.060277
11
21.442423
21
52.100477
0
LINE
8
DEFAULT_255_2_778
10
18.1551615
20
52.7728385
11
20.7700615
21
55.3877385
0
ARC
8
DEFAULT_255_2_778
10
19.4580257
20
54.0832042
40
2.7955804
50
160.6250898
51
180.0625339
0
ARC
8
DEFAULT_255_2_778
10
19.4654872
20
54.0763633
40
2.8048915
50
101.7948804
51
160.5438283
0
ARC
8
DEFAULT_255_2_778
10
19.4609381
20
54.0679172
40
2.8122362
50
89.9692581
51
101.6689794
0
ARC
8
DEFAULT_255_2_778
10
19.4654925
20
54.0848398
40
2.7953149
50
70.6241591
51
90.0624243
0
ARC
8
DEFAULT_255_2_778
10
19.4585398
20
54.0771195
40
2.8049073
50
11.7946723
51
70.542501
0
ARC
8
DEFAULT_255_2_778
10
19.4500921
20
54.081661
40
2.8122552
50
359.969278
51
11.6689198
0
ARC
8
DEFAULT_255_2_778
10
19.4670072
20
54.0771098
40
2.7953414
50
340.624302
51
0.0623774
0
ARC
8
DEFAULT_255_2_778
10
19.4593204
20
54.0840325
40
2.8048924
50
281.7959826
51
340.5429938
0
ARC
8
DEFAULT_255_2_778
10
19.4639528
20
54.0922015
40
2.8119488
50
269.9693166
51
281.6695586
0
ARC
8
DEFAULT_255_2_778
10
19.4593981
20
54.0758583
40
2.7956069
50
250.6252326
51
270.062487
0
ARC
8
DEFAULT_255_2_778
10
19.466209
20
54.0832864
40
2.8048766
50
191.7961906
51
250.5443211
0
ARC
8
DEFAULT_255_2_778
10
19.4743764
20
54.0786462
40
2.8119298
50
179.9692966
51
191.6696183
0
LINE
8
DEFAULT_255_2_778
10
16.662447
20
54.080153
11
16.662447
21
54.080153
0
LINE
8
DEFAULT_255_2_778
10
23.712498
20
58.480478
11
15.212498
21
58.480478
0
LINE
8
DEFAULT_255_2_778
10
23.712498
20
50.880278
11
15.212498
21
50.880278
0
LINE
8
DEFAULT_255_2_778
10
22.462298
20
57.0803152
11
16.462398
21
57.0803152
0
LINE
8
DEFAULT_255_2_778
10
16.462398
20
57.0803152
11
16.462398
21
51.0803152
0
LINE
8
DEFAULT_255_2_778
10
16.462398
20
51.0803152
11
22.462298
21
51.0803152
0
LINE
8
DEFAULT_255_2_778
10
22.462298
20
51.0803152
11
22.462298
21
57.0803152
0
LINE
8
DEFAULT_255_2_778
10
15.212498
20
69.8803152
11
15.212498
21
38.2803152
0
LINE
8
DEFAULT_255_2_778
10
23.712498
20
38.0803152
11
23.712498
21
70.0803152
0
LINE
8
DEFAULT_255_2_778
10
17.482623
20
48.460177
11
21.442423
21
44.500377
0
LINE
8
DEFAULT_255_2_778
10
18.1551615
20
45.1729385
11
20.7700615
21
47.7878385
0
ARC
8
DEFAULT_255_2_778
10
19.4580257
20
46.4833042
40
2.7955804
50
160.6250898
51
180.0625339
0
ARC
8
DEFAULT_255_2_778
10
19.4654872
20
46.4764633
40
2.8048915
50
101.7948804
51
160.5438283
0
ARC
8
DEFAULT_255_2_778
10
19.4609381
20
46.4680172
40
2.8122362
50
89.9692581
51
101.6689794
0
ARC
8
DEFAULT_255_2_778
10
19.4654925
20
46.4849398
40
2.7953149
50
70.6241591
51
90.0624243
0
ARC
8
DEFAULT_255_2_778
10
19.4585398
20
46.4772195
40
2.8049073
50
11.7946723
51
70.542501
0
ARC
8
DEFAULT_255_2_778
10
19.4500921
20
46.481761
40
2.8122552
50
359.969278
51
11.6689198
0
ARC
8
DEFAULT_255_2_778
10
19.4670072
20
46.4772098
40
2.7953414
50
340.624302
51
0.0623774
0
ARC
8
DEFAULT_255_2_778
10
19.4593204
20
46.4841325
40
2.8048924
50
281.7959826
51
340.5429938
0
ARC
8
DEFAULT_255_2_778
10
19.4639528
20
46.4923015
40
2.8119488
50
269.9693166
51
281.6695586
0
ARC
8
DEFAULT_255_2_778
10
19.4593981
20
46.4759583
40
2.7956069
50
250.6252326
51
270.062487
0
ARC
8
DEFAULT_255_2_778
10
19.466209
20
46.4833864
40
2.8048766
50
191.7961906
51
250.5443211
0
ARC
8
DEFAULT_255_2_778
10
19.4743764
20
46.4787462
40
2.8119298
50
179.9692966
51
191.6696183
0
LINE
8
DEFAULT_255_2_778
10
16.662447
20
46.480253
11
16.662447
21
46.480253
0
LINE
8
DEFAULT_255_2_778
10
23.712498
20
49.680378
11
15.212498
21
49.680378
0
LINE
8
DEFAULT_255_2_778
10
23.712498
20
43.280378
11
15.212498
21
43.280378
0
LINE
8
DEFAULT_255_2_778
10
23.712498
20
42.080178
11
15.212498
21
42.080178
0
LINE
8
DEFAULT_255_2_778
10
22.462298
20
49.480378
11
16.462398
21
49.480378
0
LINE
8
DEFAULT_255_2_778
10
16.462398
20
49.480378
11
16.462398
21
43.480378
0
LINE
8
DEFAULT_255_2_778
10
16.462398
20
43.480378
11
22.462298
21
43.480378
0
LINE
8
DEFAULT_255_2_778
10
22.462298
20
43.480378
11
22.462298
21
49.480378
0
LINE
8
DEFAULT_255_2_778
10
25.982623
20
52.260377
11
29.942423
21
48.300577
0
LINE
8
DEFAULT_255_2_778
10
26.6551615
20
48.9729385
11
29.2700615
21
51.5878385
0
ARC
8
DEFAULT_255_2_778
10
27.9580257
20
50.2832042
40
2.7955804
50
160.6250898
51
180.0625339
0
ARC
8
DEFAULT_255_2_778
10
27.9654872
20
50.2763633
40
2.8048915
50
101.7948804
51
160.5438283
0
ARC
8
DEFAULT_255_2_778
10
27.9609381
20
50.2679172
40
2.8122362
50
89.9692581
51
101.6689794
0
ARC
8
DEFAULT_255_2_778
10
27.9654925
20
50.2848398
40
2.7953149
50
70.6241591
51
90.0624243
0
ARC
8
DEFAULT_255_2_778
10
27.9585398
20
50.2771195
40
2.8049073
50
11.7946723
51
70.542501
0
ARC
8
DEFAULT_255_2_778
10
27.9500921
20
50.281661
40
2.8122552
50
359.969278
51
11.6689198
0
ARC
8
DEFAULT_255_2_778
10
27.9670072
20
50.2771098
40
2.7953414
50
340.624302
51
0.0623774
0
ARC
8
DEFAULT_255_2_778
10
27.9593204
20
50.2840325
40
2.8048924
50
281.7959826
51
340.5429938
0
ARC
8
DEFAULT_255_2_778
10
27.9639528
20
50.2922015
40
2.8119488
50
269.9693166
51
281.6695586
0
ARC
8
DEFAULT_255_2_778
10
27.9593981
20
50.2758583
40
2.7956069
50
250.6252326
51
270.062487
0
ARC
8
DEFAULT_255_2_778
10
27.966209
20
50.2832864
40
2.8048766
50
191.7961906
51
250.5443211
0
ARC
8
DEFAULT_255_2_778
10
27.9743764
20
50.2786462
40
2.8119298
50
179.9692966
51
191.6696183
0
LINE
8
DEFAULT_255_2_778
10
25.162447
20
50.280153
11
25.162447
21
50.280153
0
LINE
8
DEFAULT_255_2_778
10
23.712498
20
47.080403
11
32.212498
21
47.080403
0
LINE
8
DEFAULT_255_2_778
10
32.212498
20
47.080403
11
32.212498
21
53.480403
0
LINE
8
DEFAULT_255_2_778
10
32.212498
20
53.480403
11
23.712498
21
53.480403
0
LINE
8
DEFAULT_255_2_778
10
30.962422
20
47.280378
11
30.962422
21
53.280378
0
LINE
8
DEFAULT_255_2_778
10
30.962422
20
53.280378
11
24.962422
21
53.280378
0
LINE
8
DEFAULT_255_2_778
10
24.962422
20
53.280378
11
24.962422
21
47.280378
0
LINE
8
DEFAULT_255_2_778
10
24.962422
20
47.280378
11
30.962422
21
47.280378
0
LINE
8
DEFAULT_255_2_778
10
15.2124659
20
24.2803904
11
15.2124659
21
3.7804904
0
LINE
8
DEFAULT_255_2_778
10
15.2124659
20
3.7804904
11
33.2123659
21
3.7804904
0
LINE
8
DEFAULT_255_2_778
10
33.2123659
20
3.7804904
11
33.2123659
21
96.7804904
0
LINE
8
DEFAULT_255_2_778
10
33.2123659
20
96.7804904
11
15.2124659
21
96.7804904
0
LINE
8
DEFAULT_255_2_778
10
15.2124659
20
96.7804904
11
15.2124659
21
83.8804904
0
LINE
8
DEFAULT_255_2_778
10
25.982623
20
44.660177
11
29.942423
21
40.700377
0
LINE
8
DEFAULT_255_2_778
10
26.6551615
20
41.3727385
11
29.2700615
21
43.9876385
0
ARC
8
DEFAULT_255_2_778
10
27.9580257
20
42.6833042
40
2.7955804
50
160.6250898
51
180.0625339
0
ARC
8
DEFAULT_255_2_778
10
27.9654872
20
42.6764633
40
2.8048915
50
101.7948804
51
160.5438283
0
ARC
8
DEFAULT_255_2_778
10
27.9609381
20
42.6680172
40
2.8122362
50
89.9692581
51
101.6689794
0
ARC
8
DEFAULT_255_2_778
10
27.9654925
20
42.6849398
40
2.7953149
50
70.6241591
51
90.0624243
0
ARC
8
DEFAULT_255_2_778
10
27.9585398
20
42.6772195
40
2.8049073
50
11.7946723
51
70.542501
0
ARC
8
DEFAULT_255_2_778
10
27.9500921
20
42.681761
40
2.8122552
50
359.969278
51
11.6689198
0
ARC
8
DEFAULT_255_2_778
10
27.9670072
20
42.6772098
40
2.7953414
50
340.624302
51
0.0623774
0
ARC
8
DEFAULT_255_2_778
10
27.9593204
20
42.6841325
40
2.8048924
50
281.7959826
51
340.5429938
0
ARC
8
DEFAULT_255_2_778
10
27.9639528
20
42.6923015
40
2.8119488
50
269.9693166
51
281.6695586
0
ARC
8
DEFAULT_255_2_778
10
27.9593981
20
42.6759583
40
2.7956069
50
250.6252326
51
270.062487
0
ARC
8
DEFAULT_255_2_778
10
27.966209
20
42.6833864
40
2.8048766
50
191.7961906
51
250.5443211
0
ARC
8
DEFAULT_255_2_778
10
27.9743764
20
42.6787462
40
2.8119298
50
179.9692966
51
191.6696183
0
LINE
8
DEFAULT_255_2_778
10
25.162447
20
42.680253
11
25.162447
21
42.680253
0
LINE
8
DEFAULT_255_2_778
10
23.712498
20
39.480503
11
32.212498
21
39.480503
0
LINE
8
DEFAULT_255_2_778
10
32.212498
20
39.480503
11
32.212498
21
45.880503
0
LINE
8
DEFAULT_255_2_778
10
32.212498
20
45.880503
11
23.712498
21
45.880503
0
LINE
8
DEFAULT_255_2_778
10
30.962422
20
39.680478
11
30.962422
21
45.680478
0
LINE
8
DEFAULT_255_2_778
10
30.962422
20
45.680478
11
24.962422
21
45.680478
0
LINE
8
DEFAULT_255_2_778
10
24.962422
20
45.680478
11
24.962422
21
39.680478
0
LINE
8
DEFAULT_255_2_778
10
24.962422
20
39.680478
11
30.962422
21
39.680478
0
LINE
8
DEFAULT_255_2_778
10
25.982623
20
37.060277
11
29.942423
21
33.100477
0
LINE
8
DEFAULT_255_2_778
10
26.6551615
20
33.7728385
11
29.2700615
21
36.3877385
0
ARC
8
DEFAULT_255_2_778
10
27.9580257
20
35.0832042
40
2.7955804
50
160.6250898
51
180.0625339
0
ARC
8
DEFAULT_255_2_778
10
27.9654872
20
35.0763633
40
2.8048915
50
101.7948804
51
160.5438283
0
ARC
8
DEFAULT_255_2_778
10
27.9609381
20
35.0679172
40
2.8122362
50
89.9692581
51
101.6689794
0
ARC
8
DEFAULT_255_2_778
10
27.9654925
20
35.0848398
40
2.7953149
50
70.6241591
51
90.0624243
0
ARC
8
DEFAULT_255_2_778
10
27.9585398
20
35.0771195
40
2.8049073
50
11.7946723
51
70.542501
0
ARC
8
DEFAULT_255_2_778
10
27.9500921
20
35.081661
40
2.8122552
50
359.969278
51
11.6689198
0
ARC
8
DEFAULT_255_2_778
10
27.9670072
20
35.0771098
40
2.7953414
50
340.624302
51
0.0623774
0
ARC
8
DEFAULT_255_2_778
10
27.9593204
20
35.0840325
40
2.8048924
50
281.7959826
51
340.5429938
0
ARC
8
DEFAULT_255_2_778
10
27.9639528
20
35.0922015
40
2.8119488
50
269.9693166
51
281.6695586
0
ARC
8
DEFAULT_255_2_778
10
27.9593981
20
35.0758583
40
2.7956069
50
250.6252326
51
270.062487
0
ARC
8
DEFAULT_255_2_778
10
27.966209
20
35.0832864
40
2.8048766
50
191.7961906
51
250.5443211
0
ARC
8
DEFAULT_255_2_778
10
27.9743764
20
35.0786462
40
2.8119298
50
179.9692966
51
191.6696183
0
LINE
8
DEFAULT_255_2_778
10
25.162447
20
35.080153
11
25.162447
21
35.080153
0
LINE
8
DEFAULT_255_2_778
10
23.712498
20
31.880303
11
32.212498
21
31.880303
0
LINE
8
DEFAULT_255_2_778
10
32.212498
20
31.880303
11
32.212498
21
38.280303
0
LINE
8
DEFAULT_255_2_778
10
32.212498
20
38.280303
11
23.712498
21
38.280303
0
LINE
8
DEFAULT_255_2_778
10
21.9625668
20
32.080278
11
30.9626668
21
32.080278
0
LINE
8
DEFAULT_255_2_778
10
30.9626668
20
32.080278
11
30.9626668
21
38.080278
0
LINE
8
DEFAULT_255_2_778
10
30.9626668
20
38.080278
11
21.9625668
21
38.080278
0
LINE
8
DEFAULT_255_2_778
10
24.9624
20
38.080278
11
24.9624
21
32.080278
0
LINE
8
DEFAULT_255_2_778
10
25.982623
20
29.460177
11
29.942423
21
25.500377
0
LINE
8
DEFAULT_255_2_778
10
26.6551615
20
26.1729385
11
29.2700615
21
28.7878385
0
ARC
8
DEFAULT_255_2_778
10
27.9580257
20
27.4833042
40
2.7955804
50
160.6250898
51
180.0625339
0
ARC
8
DEFAULT_255_2_778
10
27.9654872
20
27.4764633
40
2.8048915
50
101.7948804
51
160.5438283
0
ARC
8
DEFAULT_255_2_778
10
27.9609381
20
27.4680172
40
2.8122362
50
89.9692581
51
101.6689794
0
ARC
8
DEFAULT_255_2_778
10
27.9654925
20
27.4849398
40
2.7953149
50
70.6241591
51
90.0624243
0
ARC
8
DEFAULT_255_2_778
10
27.9585398
20
27.4772195
40
2.8049073
50
11.7946723
51
70.542501
0
ARC
8
DEFAULT_255_2_778
10
27.9500921
20
27.481761
40
2.8122552
50
359.969278
51
11.6689198
0
ARC
8
DEFAULT_255_2_778
10
27.9670072
20
27.4772098
40
2.7953414
50
340.624302
51
0.0623774
0
ARC
8
DEFAULT_255_2_778
10
27.9593204
20
27.4841325
40
2.8048924
50
281.7959826
51
340.5429938
0
ARC
8
DEFAULT_255_2_778
10
27.9639528
20
27.4923015
40
2.8119488
50
269.9693166
51
281.6695586
0
ARC
8
DEFAULT_255_2_778
10
27.9593981
20
27.4759583
40
2.7956069
50
250.6252326
51
270.062487
0
ARC
8
DEFAULT_255_2_778
10
27.966209
20
27.4833864
40
2.8048766
50
191.7961906
51
250.5443211
0
ARC
8
DEFAULT_255_2_778
10
27.9743764
20
27.4787462
40
2.8119298
50
179.9692966
51
191.6696183
0
LINE
8
DEFAULT_255_2_778
10
25.162447
20
27.480253
11
25.162447
21
27.480253
0
LINE
8
DEFAULT_255_2_778
10
23.712498
20
24.280403
11
32.212498
21
24.280403
0
LINE
8
DEFAULT_255_2_778
10
32.212498
20
24.280403
11
32.212498
21
30.680403
0
LINE
8
DEFAULT_255_2_778
10
32.212498
20
30.680403
11
23.712498
21
30.680403
0
LINE
8
DEFAULT_255_2_778
10
21.9625668
20
24.480378
11
30.9626668
21
24.480378
0
LINE
8
DEFAULT_255_2_778
10
30.9626668
20
24.480378
11
30.9626668
21
30.480378
0
LINE
8
DEFAULT_255_2_778
10
30.9626668
20
30.480378
11
21.9625668
21
30.480378
0
LINE
8
DEFAULT_255_2_778
10
24.9624
20
30.480378
11
24.9624
21
24.480378
0
LINE
8
DEFAULT_255_2_778
10
25.982623
20
21.860277
11
29.942423
21
17.900477
0
LINE
8
DEFAULT_255_2_778
10
26.6551615
20
18.5728385
11
29.2700615
21
21.1877385
0
ARC
8
DEFAULT_255_2_778
10
27.9580257
20
19.8834042
40
2.7955804
50
160.6250898
51
180.0625339
0
ARC
8
DEFAULT_255_2_778
10
27.9654872
20
19.8765633
40
2.8048915
50
101.7948804
51
160.5438283
0
ARC
8
DEFAULT_255_2_778
10
27.9609381
20
19.8681172
40
2.8122362
50
89.9692581
51
101.6689794
0
ARC
8
DEFAULT_255_2_778
10
27.9654925
20
19.8850398
40
2.7953149
50
70.6241591
51
90.0624243
0
ARC
8
DEFAULT_255_2_778
10
27.9585398
20
19.8773195
40
2.8049073
50
11.7946723
51
70.542501
0
ARC
8
DEFAULT_255_2_778
10
27.9500921
20
19.881861
40
2.8122552
50
359.969278
51
11.6689198
0
ARC
8
DEFAULT_255_2_778
10
27.9670072
20
19.8773098
40
2.7953414
50
340.624302
51
0.0623774
0
ARC
8
DEFAULT_255_2_778
10
27.9593204
20
19.8842325
40
2.8048924
50
281.7959826
51
340.5429938
0
ARC
8
DEFAULT_255_2_778
10
27.9639528
20
19.8924015
40
2.8119488
50
269.9693166
51
281.6695586
0
ARC
8
DEFAULT_255_2_778
10
27.9593981
20
19.8760583
40
2.7956069
50
250.6252326
51
270.062487
0
ARC
8
DEFAULT_255_2_778
10
27.966209
20
19.8834864
40
2.8048766
50
191.7961906
51
250.5443211
0
ARC
8
DEFAULT_255_2_778
10
27.9743764
20
19.8788462
40
2.8119298
50
179.9692966
51
191.6696183
0
LINE
8
DEFAULT_255_2_778
10
25.162447
20
19.880353
11
25.162447
21
19.880353
0
LINE
8
DEFAULT_255_2_778
10
23.712498
20
16.680303
11
32.212498
21
16.680303
0
LINE
8
DEFAULT_255_2_778
10
32.212498
20
16.680303
11
32.212498
21
23.080303
0
LINE
8
DEFAULT_255_2_778
10
32.212498
20
23.080303
11
23.712498
21
23.080303
0
LINE
8
DEFAULT_255_2_778
10
30.962422
20
16.880278
11
30.962422
21
22.880278
0
LINE
8
DEFAULT_255_2_778
10
30.962422
20
22.880278
11
24.962422
21
22.880278
0
LINE
8
DEFAULT_255_2_778
10
24.962422
20
22.880278
11
24.962422
21
16.880278
0
LINE
8
DEFAULT_255_2_778
10
24.962422
20
16.880278
11
30.962422
21
16.880278
0
LINE
8
DEFAULT_255_2_778
10
25.982623
20
14.260377
11
29.942423
21
10.300577
0
LINE
8
DEFAULT_255_2_778
10
26.6551615
20
10.9729385
11
29.2700615
21
13.5878385
0
ARC
8
DEFAULT_255_2_778
10
27.9580257
20
12.2832042
40
2.7955804
50
160.6250898
51
180.0625339
0
ARC
8
DEFAULT_255_2_778
10
27.9654872
20
12.2763633
40
2.8048915
50
101.7948804
51
160.5438283
0
ARC
8
DEFAULT_255_2_778
10
27.9609381
20
12.2679172
40
2.8122362
50
89.9692581
51
101.6689794
0
ARC
8
DEFAULT_255_2_778
10
27.9654925
20
12.2848398
40
2.7953149
50
70.6241591
51
90.0624243
0
ARC
8
DEFAULT_255_2_778
10
27.9585398
20
12.2771195
40
2.8049073
50
11.7946723
51
70.542501
0
ARC
8
DEFAULT_255_2_778
10
27.9500921
20
12.281661
40
2.8122552
50
359.969278
51
11.6689198
0
ARC
8
DEFAULT_255_2_778
10
27.9670072
20
12.2771098
40
2.7953414
50
340.624302
51
0.0623774
0
ARC
8
DEFAULT_255_2_778
10
27.9593204
20
12.2840325
40
2.8048924
50
281.7959826
51
340.5429938
0
ARC
8
DEFAULT_255_2_778
10
27.9639528
20
12.2922015
40
2.8119488
50
269.9693166
51
281.6695586
0
ARC
8
DEFAULT_255_2_778
10
27.9593981
20
12.2758583
40
2.7956069
50
250.6252326
51
270.062487
0
ARC
8
DEFAULT_255_2_778
10
27.966209
20
12.2832864
40
2.8048766
50
191.7961906
51
250.5443211
0
ARC
8
DEFAULT_255_2_778
10
27.9743764
20
12.2786462
40
2.8119298
50
179.9692966
51
191.6696183
0
LINE
8
DEFAULT_255_2_778
10
25.162447
20
12.280153
11
25.162447
21
12.280153
0
LINE
8
DEFAULT_255_2_778
10
23.712498
20
9.080403
11
32.212498
21
9.080403
0
LINE
8
DEFAULT_255_2_778
10
32.212498
20
9.080403
11
32.212498
21
15.480403
0
LINE
8
DEFAULT_255_2_778
10
32.212498
20
15.480403
11
23.712498
21
15.480403
0
LINE
8
DEFAULT_255_2_778
10
30.962422
20
9.280378
11
30.962422
21
15.280378
0
LINE
8
DEFAULT_255_2_778
10
30.962422
20
15.280378
11
24.962422
21
15.280378
0
LINE
8
DEFAULT_255_2_778
10
24.962422
20
15.280378
11
24.962422
21
9.280378
0
LINE
8
DEFAULT_255_2_778
10
24.962422
20
9.280378
11
30.962422
21
9.280378
0
LINE
8
DEFAULT_255_2_778
10
17.482623
20
18.060277
11
21.442423
21
14.100477
0
LINE
8
DEFAULT_255_2_778
10
18.1551615
20
14.7728385
11
20.7700615
21
17.3877385
0
ARC
8
DEFAULT_255_2_778
10
19.4580257
20
16.0832042
40
2.7955804
50
160.6250898
51
180.0625339
0
ARC
8
DEFAULT_255_2_778
10
19.4654872
20
16.0763633
40
2.8048915
50
101.7948804
51
160.5438283
0
ARC
8
DEFAULT_255_2_778
10
19.4609381
20
16.0679172
40
2.8122362
50
89.9692581
51
101.6689794
0
ARC
8
DEFAULT_255_2_778
10
19.4654925
20
16.0848398
40
2.7953149
50
70.6241591
51
90.0624243
0
ARC
8
DEFAULT_255_2_778
10
19.4585398
20
16.0771195
40
2.8049073
50
11.7946723
51
70.542501
0
ARC
8
DEFAULT_255_2_778
10
19.4500921
20
16.081661
40
2.8122552
50
359.969278
51
11.6689198
0
ARC
8
DEFAULT_255_2_778
10
19.4670072
20
16.0771098
40
2.7953414
50
340.624302
51
0.0623774
0
ARC
8
DEFAULT_255_2_778
10
19.4593204
20
16.0840325
40
2.8048924
50
281.7959826
51
340.5429938
0
ARC
8
DEFAULT_255_2_778
10
19.4639528
20
16.0922015
40
2.8119488
50
269.9693166
51
281.6695586
0
ARC
8
DEFAULT_255_2_778
10
19.4593981
20
16.0758583
40
2.7956069
50
250.6252326
51
270.062487
0
ARC
8
DEFAULT_255_2_778
10
19.466209
20
16.0832864
40
2.8048766
50
191.7961906
51
250.5443211
0
ARC
8
DEFAULT_255_2_778
10
19.4743764
20
16.0786462
40
2.8119298
50
179.9692966
51
191.6696183
0
LINE
8
DEFAULT_255_2_778
10
16.662447
20
16.080153
11
16.662447
21
16.080153
0
LINE
8
DEFAULT_255_2_778
10
15.212498
20
12.8802207
11
23.712498
21
12.8802207
0
LINE
8
DEFAULT_255_2_778
10
23.712498
20
11.6804207
11
15.212498
21
11.6804207
0
LINE
8
DEFAULT_255_2_778
10
23.712498
20
19.2803207
11
15.212498
21
19.2803207
0
LINE
8
DEFAULT_255_2_778
10
23.712498
20
20.4804207
11
15.212498
21
20.4804207
0
LINE
8
DEFAULT_255_2_778
10
22.462298
20
13.0802207
11
22.462298
21
19.0802207
0
LINE
8
DEFAULT_255_2_778
10
22.462298
20
19.0802207
11
16.462398
21
19.0802207
0
LINE
8
DEFAULT_255_2_778
10
16.462398
20
19.0802207
11
16.462398
21
13.0802207
0
LINE
8
DEFAULT_255_2_778
10
16.462398
20
13.0802207
11
22.462298
21
13.0802207
0
LINE
8
DEFAULT_255_2_778
10
17.482623
20
10.460177
11
21.442423
21
6.500377
0
LINE
8
DEFAULT_255_2_778
10
18.1551615
20
7.1729385
11
20.7700615
21
9.7878385
0
ARC
8
DEFAULT_255_2_778
10
19.4580257
20
8.4833042
40
2.7955804
50
160.6250898
51
180.0625339
0
ARC
8
DEFAULT_255_2_778
10
19.4654872
20
8.4764633
40
2.8048915
50
101.7948804
51
160.5438283
0
ARC
8
DEFAULT_255_2_778
10
19.4609381
20
8.4680172
40
2.8122362
50
89.9692581
51
101.6689794
0
ARC
8
DEFAULT_255_2_778
10
19.4654925
20
8.4849398
40
2.7953149
50
70.6241591
51
90.0624243
0
ARC
8
DEFAULT_255_2_778
10
19.4585398
20
8.4772195
40
2.8049073
50
11.7946723
51
70.542501
0
ARC
8
DEFAULT_255_2_778
10
19.4500921
20
8.481761
40
2.8122552
50
359.969278
51
11.6689198
0
ARC
8
DEFAULT_255_2_778
10
19.4670072
20
8.4772098
40
2.7953414
50
340.624302
51
0.0623774
0
ARC
8
DEFAULT_255_2_778
10
19.4593204
20
8.4841325
40
2.8048924
50
281.7959826
51
340.5429938
0
ARC
8
DEFAULT_255_2_778
10
19.4639528
20
8.4923015
40
2.8119488
50
269.9693166
51
281.6695586
0
ARC
8
DEFAULT_255_2_778
10
19.4593981
20
8.4759583
40
2.7956069
50
250.6252326
51
270.062487
0
ARC
8
DEFAULT_255_2_778
10
19.466209
20
8.4833864
40
2.8048766
50
191.7961906
51
250.5443211
0
ARC
8
DEFAULT_255_2_778
10
19.4743764
20
8.4787462
40
2.8119298
50
179.9692966
51
191.6696183
0
LINE
8
DEFAULT_255_2_778
10
16.662447
20
8.480253
11
16.662447
21
8.480253
0
ENDSEC
0
EOF