0
SECTION
2
HEADER
9
$MEASUREMENT
70
1
0
ENDSEC
0
SECTION
2
TABLES
0
TABLE
2
LTYPE
0
LTYPE
72
65
70
64
2
CONTINUOUS
3
______
73
0
40
0
0
ENDTAB
0
TABLE
2
LAYER
0
LAYER
2
DEFAULT_255_2_778
70
0
62
255
6
CONTINUOUS
0
ENDTAB
0
ENDSEC
0
SECTION
2
ENTITIES
0
LINE
8
DEFAULT_255_2_778
10
33.7123859
20
108.1803062
11
33.7123859
21
108.2803062
0
LINE
8
DEFAULT_255_2_778
10
1.2125859
20
108.2803062
11
1.2125859
21
108.1803062
0
LINE
8
DEFAULT_255_2_778
10
34.7125609
20
-0.2197466
11
34.7125609
21
129.7803534
0
LINE
8
DEFAULT_255_2_778
10
34.7125609
20
129.7803534
11
0.2124609
21
129.7803534
0
LINE
8
DEFAULT_255_2_778
10
0.2124609
20
129.7803534
11
0.2124609
21
-0.2197466
0
LINE
8
DEFAULT_255_2_778
10
0.2124609
20
-0.2197466
11
34.7125609
21
-0.2197466
0
ARC
8
DEFAULT_255_2_778
10
23.5057989
20
100.0780112
40
1.9933
50
179.9317062
51
204.3119945
0
ARC
8
DEFAULT_255_2_778
10
23.5142843
20
100.0828542
40
2.0030269
50
204.3383105
51
260.196385
0
ARC
8
DEFAULT_255_2_778
10
23.5118839
20
100.0934969
40
2.0131097
50
260.3152812
51
270.0175439
0
ARC
8
DEFAULT_255_2_778
10
23.5150532
20
100.0733014
40
1.9929158
50
269.926605
51
294.3113989
0
ARC
8
DEFAULT_255_2_778
10
23.5100001
20
100.0821446
40
2.0030556
50
294.3389823
51
350.1972101
0
ARC
8
DEFAULT_255_2_778
10
23.4993388
20
100.0797722
40
2.0131615
50
350.3154071
51
0.0175033
0
ARC
8
DEFAULT_255_2_778
10
11.4055145
20
100.0778343
40
1.9929158
50
179.926605
51
204.3113989
0
ARC
8
DEFAULT_255_2_778
10
11.4143578
20
100.0828874
40
2.0030556
50
204.3389823
51
260.1972101
0
ARC
8
DEFAULT_255_2_778
10
11.4119853
20
100.0935487
40
2.0131615
50
260.3154071
51
270.0175033
0
ARC
8
DEFAULT_255_2_778
10
11.4151596
20
100.0731994
40
1.9928139
50
269.9264183
51
294.3120318
0
ARC
8
DEFAULT_255_2_778
10
11.4099666
20
100.0822231
40
2.0031756
50
294.34113
51
350.1955271
0
ARC
8
DEFAULT_255_2_778
10
11.3989991
20
100.0799568
40
2.0136013
50
350.3122132
51
0.0122462
0
LINE
8
DEFAULT_255_2_778
10
21.5125003
20
104.5803872
11
21.5125003
21
100.0803872
0
LINE
8
DEFAULT_255_2_778
10
25.5125003
20
100.0803872
11
25.5125003
21
104.5803872
0
LINE
8
DEFAULT_255_2_778
10
25.5125003
20
104.5803872
11
21.5125003
21
104.5803872
0
LINE
8
DEFAULT_255_2_778
10
13.4126003
20
104.5803872
11
9.4126003
21
104.5803872
0
LINE
8
DEFAULT_255_2_778
10
9.4126003
20
104.5803872
11
9.4126003
21
100.0803872
0
LINE
8
DEFAULT_255_2_778
10
13.4126003
20
100.0803872
11
13.4126003
21
104.5803872
0
LINE
8
DEFAULT_255_2_778
10
32.2125003
20
95.2802872
11
32.2125003
21
92.6801872
0
LINE
8
DEFAULT_255_2_778
10
32.2125003
20
92.6801872
11
23.7125003
21
92.6801872
0
LINE
8
DEFAULT_255_2_778
10
32.2125003
20
5.2803872
11
32.2125003
21
7.8804872
0
LINE
8
DEFAULT_255_2_778
10
32.2125003
20
7.8804872
11
23.7125003
21
7.8804872
0
LINE
8
DEFAULT_255_2_778
10
15.2125003
20
5.2803872
11
33.2124003
21
5.2803872
0
LINE
8
DEFAULT_255_2_778
10
33.2124107
20
95.2802577
11
15.2125107
21
95.2802577
0
LINE
8
DEFAULT_255_2_778
10
30.2125107
20
3.7804577
11
30.2125107
21
5.2803577
0
LINE
8
DEFAULT_255_2_778
10
30.2125107
20
95.2804577
11
30.2125107
21
96.7804577
0
LINE
8
DEFAULT_255_2_778
10
20.2126107
20
120.7802577
11
20.2126107
21
119.2803577
0
LINE
8
DEFAULT_255_2_778
10
20.2126107
20
119.2803577
11
21.2127107
21
119.2803577
0
LINE
8
DEFAULT_255_2_778
10
21.2127107
20
119.2803577
11
21.2127107
21
120.7802577
0
LINE
8
DEFAULT_255_2_778
10
21.2127107
20
120.7802577
11
20.2126107
21
120.7802577
0
LINE
8
DEFAULT_255_2_778
10
20.3126107
20
119.3803577
11
21.1127107
21
119.3803577
0
LINE
8
DEFAULT_255_2_778
10
21.1127107
20
119.3803577
11
21.1127107
21
120.6802577
0
LINE
8
DEFAULT_255_2_778
10
21.1127107
20
120.6802577
11
20.3126107
21
120.6802577
0
LINE
8
DEFAULT_255_2_778
10
20.3126107
20
120.6802577
11
20.3126107
21
119.3803577
0
LINE
8
DEFAULT_255_2_778
10
13.1125107
20
116.3804577
11
13.1125107
21
117.6803577
0
LINE
8
DEFAULT_255_2_778
10
13.1125107
20
117.6803577
11
12.3124107
21
117.6803577
0
LINE
8
DEFAULT_255_2_778
10
12.3124107
20
117.6803577
11
12.3124107
21
116.3804577
0
LINE
8
DEFAULT_255_2_778
10
12.3124107
20
116.3804577
11
13.1125107
21
116.3804577
0
LINE
8
DEFAULT_255_2_778
10
12.2124107
20
123.7803577
11
12.2124107
21
122.2804577
0
LINE
8
DEFAULT_255_2_778
10
12.2124107
20
122.2804577
11
13.2125107
21
122.2804577
0
LINE
8
DEFAULT_255_2_778
10
13.2125107
20
122.2804577
11
13.2125107
21
123.7803577
0
LINE
8
DEFAULT_255_2_778
10
13.2125107
20
123.7803577
11
12.2124107
21
123.7803577
0
LINE
8
DEFAULT_255_2_778
10
12.2124107
20
120.7802577
11
12.2124107
21
119.2803577
0
LINE
8
DEFAULT_255_2_778
10
12.2124107
20
119.2803577
11
13.2125107
21
119.2803577
0
LINE
8
DEFAULT_255_2_778
10
13.2125107
20
119.2803577
11
13.2125107
21
120.7802577
0
LINE
8
DEFAULT_255_2_778
10
13.2125107
20
120.7802577
11
12.2124107
21
120.7802577
0
LINE
8
DEFAULT_255_2_778
10
12.2124107
20
117.7803577
11
12.2124107
21
116.2804577
0
LINE
8
DEFAULT_255_2_778
10
12.2124107
20
116.2804577
11
13.2125107
21
116.2804577
0
LINE
8
DEFAULT_255_2_778
10
13.2125107
20
116.2804577
11
13.2125107
21
117.7803577
0
LINE
8
DEFAULT_255_2_778
10
13.2125107
20
117.7803577
11
12.2124107
21
117.7803577
0
LINE
8
DEFAULT_255_2_778
10
13.1124609
20
120.6803425
11
12.3123609
21
120.6803425
0
LINE
8
DEFAULT_255_2_778
10
12.3123609
20
120.6803425
11
12.3123609
21
119.3804425
0
LINE
8
DEFAULT_255_2_778
10
12.3123609
20
119.3804425
11
13.1124609
21
119.3804425
0
LINE
8
DEFAULT_255_2_778
10
13.1124609
20
119.3804425
11
13.1124609
21
120.6803425
0
LINE
8
DEFAULT_255_2_778
10
13.1124609
20
123.6804425
11
12.3123609
21
123.6804425
0
LINE
8
DEFAULT_255_2_778
10
12.3123609
20
123.6804425
11
12.3123609
21
122.3805425
0
LINE
8
DEFAULT_255_2_778
10
12.3123609
20
122.3805425
11
13.1124609
21
122.3805425
0
LINE
8
DEFAULT_255_2_778
10
13.1124609
20
122.3805425
11
13.1124609
21
123.6804425
0
LINE
8
DEFAULT_255_2_778
10
34.7125609
20
108.1803425
11
0.2124609
21
108.1803425
0
LINE
8
DEFAULT_255_2_778
10
34.7125609
20
108.2803112
11
0.2124609
21
108.2803112
0
LINE
8
DEFAULT_255_2_778
10
20.5231609
20
91.0197112
11
18.4017609
21
93.1411112
0
LINE
8
DEFAULT_255_2_778
10
18.4017854
20
91.0197146
11
20.5231854
21
93.1411146
0
ARC
8
DEFAULT_255_2_778
10
19.4580257
20
92.0832042
40
2.7955804
50
160.6250898
51
180.0625339
0
ARC
8
DEFAULT_255_2_778
10
19.4654872
20
92.0763633
40
2.8048915
50
101.7948804
51
160.5438283
0
ARC
8
DEFAULT_255_2_778
10
19.4609381
20
92.0679172
40
2.8122362
50
89.9692581
51
101.6689794
0
ARC
8
DEFAULT_255_2_778
10
19.4654925
20
92.0848398
40
2.7953149
50
70.6241591
51
90.0624243
0
ARC
8
DEFAULT_255_2_778
10
19.4585398
20
92.0771195
40
2.8049073
50
11.7946723
51
70.542501
0
ARC
8
DEFAULT_255_2_778
10
19.4500921
20
92.081661
40
2.8122552
50
359.969278
51
11.6689198
0
ARC
8
DEFAULT_255_2_778
10
19.4670072
20
92.0771098
40
2.7953414
50
340.624302
51
0.0623774
0
ARC
8
DEFAULT_255_2_778
10
19.4593204
20
92.0840325
40
2.8048924
50
281.7959826
51
340.5429938
0
ARC
8
DEFAULT_255_2_778
10
19.4639528
20
92.0922015
40
2.8119488
50
269.9693166
51
281.6695586
0
ARC
8
DEFAULT_255_2_778
10
19.4593981
20
92.0758583
40
2.7956069
50
250.6252326
51
270.062487
0
ARC
8
DEFAULT_255_2_778
10
19.466209
20
92.0832864
40
2.8048766
50
191.7961906
51
250.5443211
0
ARC
8
DEFAULT_255_2_778
10
19.4743764
20
92.0786462
40
2.8119298
50
179.9692966
51
191.6696183
0
LINE
8
DEFAULT_255_2_778
10
16.662447
20
92.080153
11
16.662447
21
92.080153
0
LINE
8
DEFAULT_255_2_778
10
20.5231854
20
83.4196146
11
18.4017854
21
85.5410146
0
LINE
8
DEFAULT_255_2_778
10
18.4017854
20
83.4196146
11
20.5231854
21
85.5410146
0
ARC
8
DEFAULT_255_2_778
10
19.4580257
20
84.4833042
40
2.7955804
50
160.6250898
51
180.0625339
0
ARC
8
DEFAULT_255_2_778
10
19.4654872
20
84.4764633
40
2.8048915
50
101.7948804
51
160.5438283
0
ARC
8
DEFAULT_255_2_778
10
19.4609381
20
84.4680172
40
2.8122362
50
89.9692581
51
101.6689794
0
ARC
8
DEFAULT_255_2_778
10
19.4654925
20
84.4849398
40
2.7953149
50
70.6241591
51
90.0624243
0
ARC
8
DEFAULT_255_2_778
10
19.4585398
20
84.4772195
40
2.8049073
50
11.7946723
51
70.542501
0
ARC
8
DEFAULT_255_2_778
10
19.4500921
20
84.481761
40
2.8122552
50
359.969278
51
11.6689198
0
ARC
8
DEFAULT_255_2_778
10
19.4670072
20
84.4772098
40
2.7953414
50
340.624302
51
0.0623774
0
ARC
8
DEFAULT_255_2_778
10
19.4593204
20
84.4841325
40
2.8048924
50
281.7959826
51
340.5429938
0
ARC
8
DEFAULT_255_2_778
10
19.4639528
20
84.4923015
40
2.8119488
50
269.9693166
51
281.6695586
0
ARC
8
DEFAULT_255_2_778
10
19.4593981
20
84.4759583
40
2.7956069
50
250.6252326
51
270.062487
0
ARC
8
DEFAULT_255_2_778
10
19.466209
20
84.4833864
40
2.8048766
50
191.7961906
51
250.5443211
0
ARC
8
DEFAULT_255_2_778
10
19.4743764
20
84.4787462
40
2.8119298
50
179.9692966
51
191.6696183
0
LINE
8
DEFAULT_255_2_778
10
16.662447
20
84.480253
11
16.662447
21
84.480253
0
LINE
8
DEFAULT_255_2_778
10
23.712498
20
87.6803457
11
15.212498
21
87.6803457
0
LINE
8
DEFAULT_255_2_778
10
23.712498
20
88.8802457
11
15.212498
21
88.8802457
0
LINE
8
DEFAULT_255_2_778
10
23.712498
20
81.2803457
11
15.212498
21
81.2803457
0
LINE
8
DEFAULT_255_2_778
10
22.462422
20
87.480378
11
16.462422
21
87.480378
0
LINE
8
DEFAULT_255_2_778
10
16.462422
20
87.480378
11
16.462422
21
81.480378
0
LINE
8
DEFAULT_255_2_778
10
16.462422
20
81.480378
11
22.462422
21
81.480378
0
LINE
8
DEFAULT_255_2_778
10
22.462422
20
81.480378
11
22.462422
21
87.480378
0
LINE
8
DEFAULT_255_2_778
10
20.5231854
20
75.8197146
11
18.4017854
21
77.9411146
0
LINE
8
DEFAULT_255_2_778
10
18.4017854
20
75.8197146
11
20.5231854
21
77.9411146
0
ARC
8
DEFAULT_255_2_778
10
19.4580257
20
76.8834042
40
2.7955804
50
160.6250898
51
180.0625339
0
ARC
8
DEFAULT_255_2_778
10
19.4654872
20
76.8765633
40
2.8048915
50
101.7948804
51
160.5438283
0
ARC
8
DEFAULT_255_2_778
10
19.4609381
20
76.8681172
40
2.8122362
50
89.9692581
51
101.6689794
0
ARC
8
DEFAULT_255_2_778
10
19.4654925
20
76.8850398
40
2.7953149
50
70.6241591
51
90.0624243
0
ARC
8
DEFAULT_255_2_778
10
19.4585398
20
76.8773195
40
2.8049073
50
11.7946723
51
70.542501
0
ARC
8
DEFAULT_255_2_778
10
19.4500921
20
76.881861
40
2.8122552
50
359.969278
51
11.6689198
0
ARC
8
DEFAULT_255_2_778
10
19.4670072
20
76.8773098
40
2.7953414
50
340.624302
51
0.0623774
0
ARC
8
DEFAULT_255_2_778
10
19.4593204
20
76.8842325
40
2.8048924
50
281.7959826
51
340.5429938
0
ARC
8
DEFAULT_255_2_778
10
19.4639528
20
76.8924015
40
2.8119488
50
269.9693166
51
281.6695586
0
ARC
8
DEFAULT_255_2_778
10
19.4593981
20
76.8760583
40
2.7956069
50
250.6252326
51
270.062487
0
ARC
8
DEFAULT_255_2_778
10
19.466209
20
76.8834864
40
2.8048766
50
191.7961906
51
250.5443211
0
ARC
8
DEFAULT_255_2_778
10
19.4743764
20
76.8788462
40
2.8119298
50
179.9692966
51
191.6696183
0
LINE
8
DEFAULT_255_2_778
10
16.662447
20
76.880353
11
16.662447
21
76.880353
0
LINE
8
DEFAULT_255_2_778
10
23.712498
20
80.080478
11
15.212498
21
80.080478
0
LINE
8
DEFAULT_255_2_778
10
23.712498
20
72.480278
11
15.212498
21
72.480278
0
LINE
8
DEFAULT_255_2_778
10
22.462422
20
79.880478
11
16.462422
21
79.880478
0
LINE
8
DEFAULT_255_2_778
10
16.462422
20
79.880478
11
16.462422
21
73.880478
0
LINE
8
DEFAULT_255_2_778
10
16.462422
20
73.880478
11
22.462422
21
73.880478
0
LINE
8
DEFAULT_255_2_778
10
22.462422
20
73.880478
11
22.462422
21
79.880478
0
LINE
8
DEFAULT_255_2_778
10
20.5231854
20
68.2195146
11
18.4017854
21
70.3409146
0
LINE
8
DEFAULT_255_2_778
10
18.4017854
20
68.2195146
11
20.5231854
21
70.3409146
0
ARC
8
DEFAULT_255_2_778
10
19.4580257
20
69.2832042
40
2.7955804
50
160.6250898
51
180.0625339
0
ARC
8
DEFAULT_255_2_778
10
19.4654872
20
69.2763633
40
2.8048915
50
101.7948804
51
160.5438283
0
ARC
8
DEFAULT_255_2_778
10
19.4609381
20
69.2679172
40
2.8122362
50
89.9692581
51
101.6689794
0
ARC
8
DEFAULT_255_2_778
10
19.4654925
20
69.2848398
40
2.7953149
50
70.6241591
51
90.0624243
0
ARC
8
DEFAULT_255_2_778
10
19.4585398
20
69.2771195
40
2.8049073
50
11.7946723
51
70.542501
0
ARC
8
DEFAULT_255_2_778
10
19.4500921
20
69.281661
40
2.8122552
50
359.969278
51
11.6689198
0
ARC
8
DEFAULT_255_2_778
10
19.4670072
20
69.2771098
40
2.7953414
50
340.624302
51
0.0623774
0
ARC
8
DEFAULT_255_2_778
10
19.4593204
20
69.2840325
40
2.8048924
50
281.7959826
51
340.5429938
0
ARC
8
DEFAULT_255_2_778
10
19.4639528
20
69.2922015
40
2.8119488
50
269.9693166
51
281.6695586
0
ARC
8
DEFAULT_255_2_778
10
19.4593981
20
69.2758583
40
2.7956069
50
250.6252326
51
270.062487
0
ARC
8
DEFAULT_255_2_778
10
19.466209
20
69.2832864
40
2.8048766
50
191.7961906
51
250.5443211
0
ARC
8
DEFAULT_255_2_778
10
19.4743764
20
69.2786462
40
2.8119298
50
179.9692966
51
191.6696183
0
LINE
8
DEFAULT_255_2_778
10
16.662447
20
69.280153
11
16.662447
21
69.280153
0
LINE
8
DEFAULT_255_2_778
10
23.712498
20
73.680478
11
15.212498
21
73.680478
0
LINE
8
DEFAULT_255_2_778
10
23.712498
20
66.080278
11
15.212498
21
66.080278
0
LINE
8
DEFAULT_255_2_778
10
22.462422
20
72.2803582
11
16.462422
21
72.2803582
0
LINE
8
DEFAULT_255_2_778
10
16.462422
20
72.2803582
11
16.462422
21
66.2803582
0
LINE
8
DEFAULT_255_2_778
10
16.462422
20
66.2803582
11
22.462422
21
66.2803582
0
LINE
8
DEFAULT_255_2_778
10
22.462422
20
66.2803582
11
22.462422
21
72.2803582
0
LINE
8
DEFAULT_255_2_778
10
20.523222
20
60.6196582
11
18.401822
21
62.7410582
0
LINE
8
DEFAULT_255_2_778
10
18.4017854
20
60.6196146
11
20.5231854
21
62.7410146
0
ARC
8
DEFAULT_255_2_778
10
19.4580257
20
61.6833042
40
2.7955804
50
160.6250898
51
180.0625339
0
ARC
8
DEFAULT_255_2_778
10
19.4654872
20
61.6764633
40
2.8048915
50
101.7948804
51
160.5438283
0
ARC
8
DEFAULT_255_2_778
10
19.4609381
20
61.6680172
40
2.8122362
50
89.9692581
51
101.6689794
0
ARC
8
DEFAULT_255_2_778
10
19.4654925
20
61.6849398
40
2.7953149
50
70.6241591
51
90.0624243
0
ARC
8
DEFAULT_255_2_778
10
19.4585398
20
61.6772195
40
2.8049073
50
11.7946723
51
70.542501
0
ARC
8
DEFAULT_255_2_778
10
19.4500921
20
61.681761
40
2.8122552
50
359.969278
51
11.6689198
0
ARC
8
DEFAULT_255_2_778
10
19.4670072
20
61.6772098
40
2.7953414
50
340.624302
51
0.0623774
0
ARC
8
DEFAULT_255_2_778
10
19.4593204
20
61.6841325
40
2.8048924
50
281.7959826
51
340.5429938
0
ARC
8
DEFAULT_255_2_778
10
19.4639528
20
61.6923015
40
2.8119488
50
269.9693166
51
281.6695586
0
ARC
8
DEFAULT_255_2_778
10
19.4593981
20
61.6759583
40
2.7956069
50
250.6252326
51
270.062487
0
ARC
8
DEFAULT_255_2_778
10
19.466209
20
61.6833864
40
2.8048766
50
191.7961906
51
250.5443211
0
ARC
8
DEFAULT_255_2_778
10
19.4743764
20
61.6787462
40
2.8119298
50
179.9692966
51
191.6696183
0
LINE
8
DEFAULT_255_2_778
10
16.662447
20
61.680253
11
16.662447
21
61.680253
0
LINE
8
DEFAULT_255_2_778
10
23.712498
20
58.480503
11
15.212498
21
58.480503
0
LINE
8
DEFAULT_255_2_778
10
23.712498
20
64.880503
11
15.212498
21
64.880503
0
LINE
8
DEFAULT_255_2_778
10
22.462422
20
64.680478
11
16.462422
21
64.680478
0
LINE
8
DEFAULT_255_2_778
10
16.462422
20
64.680478
11
16.462422
21
58.680478
0
LINE
8
DEFAULT_255_2_778
10
16.462422
20
58.680478
11
22.462422
21
58.680478
0
LINE
8
DEFAULT_255_2_778
10
22.462422
20
58.680478
11
22.462422
21
64.680478
0
LINE
8
DEFAULT_255_2_778
10
20.5231854
20
53.0195146
11
18.4017854
21
55.1409146
0
LINE
8
DEFAULT_255_2_778
10
18.4017854
20
53.0195146
11
20.5231854
21
55.1409146
0
ARC
8
DEFAULT_255_2_778
10
19.4580257
20
54.0832042
40
2.7955804
50
160.6250898
51
180.0625339
0
ARC
8
DEFAULT_255_2_778
10
19.4654872
20
54.0763633
40
2.8048915
50
101.7948804
51
160.5438283
0
ARC
8
DEFAULT_255_2_778
10
19.4609381
20
54.0679172
40
2.8122362
50
89.9692581
51
101.6689794
0
ARC
8
DEFAULT_255_2_778
10
19.4654925
20
54.0848398
40
2.7953149
50
70.6241591
51
90.0624243
0
ARC
8
DEFAULT_255_2_778
10
19.4585398
20
54.0771195
40
2.8049073
50
11.7946723
51
70.542501
0
ARC
8
DEFAULT_255_2_778
10
19.4500921
20
54.081661
40
2.8122552
50
359.969278
51
11.6689198
0
ARC
8
DEFAULT_255_2_778
10
19.4670072
20
54.0771098
40
2.7953414
50
340.624302
51
0.0623774
0
ARC
8
DEFAULT_255_2_778
10
19.4593204
20
54.0840325
40
2.8048924
50
281.7959826
51
340.5429938
0
ARC
8
DEFAULT_255_2_778
10
19.4639528
20
54.0922015
40
2.8119488
50
269.9693166
51
281.6695586
0
ARC
8
DEFAULT_255_2_778
10
19.4593981
20
54.0758583
40
2.7956069
50
250.6252326
51
270.062487
0
ARC
8
DEFAULT_255_2_778
10
19.466209
20
54.0832864
40
2.8048766
50
191.7961906
51
250.5443211
0
ARC
8
DEFAULT_255_2_778
10
19.4743764
20
54.0786462
40
2.8119298
50
179.9692966
51
191.6696183
0
LINE
8
DEFAULT_255_2_778
10
16.662447
20
54.080153
11
16.662447
21
54.080153
0
LINE
8
DEFAULT_255_2_778
10
23.712498
20
50.880303
11
15.212498
21
50.880303
0
LINE
8
DEFAULT_255_2_778
10
23.712498
20
57.280303
11
15.212498
21
57.280303
0
LINE
8
DEFAULT_255_2_778
10
22.462422
20
57.080278
11
16.462422
21
57.080278
0
LINE
8
DEFAULT_255_2_778
10
16.462422
20
57.080278
11
16.462422
21
51.080278
0
LINE
8
DEFAULT_255_2_778
10
16.462422
20
51.080278
11
22.462422
21
51.080278
0
LINE
8
DEFAULT_255_2_778
10
22.462422
20
51.080278
11
22.462422
21
57.080278
0
LINE
8
DEFAULT_255_2_778
10
20.5231854
20
45.4196146
11
18.4017854
21
47.5410146
0
LINE
8
DEFAULT_255_2_778
10
18.4017854
20
45.4196146
11
20.5231854
21
47.5410146
0
ARC
8
DEFAULT_255_2_778
10
19.4580257
20
46.4833042
40
2.7955804
50
160.6250898
51
180.0625339
0
ARC
8
DEFAULT_255_2_778
10
19.4654872
20
46.4764633
40
2.8048915
50
101.7948804
51
160.5438283
0
ARC
8
DEFAULT_255_2_778
10
19.4609381
20
46.4680172
40
2.8122362
50
89.9692581
51
101.6689794
0
ARC
8
DEFAULT_255_2_778
10
19.4654925
20
46.4849398
40
2.7953149
50
70.6241591
51
90.0624243
0
ARC
8
DEFAULT_255_2_778
10
19.4585398
20
46.4772195
40
2.8049073
50
11.7946723
51
70.542501
0
ARC
8
DEFAULT_255_2_778
10
19.4500921
20
46.481761
40
2.8122552
50
359.969278
51
11.6689198
0
ARC
8
DEFAULT_255_2_778
10
19.4670072
20
46.4772098
40
2.7953414
50
340.624302
51
0.0623774
0
ARC
8
DEFAULT_255_2_778
10
19.4593204
20
46.4841325
40
2.8048924
50
281.7959826
51
340.5429938
0
ARC
8
DEFAULT_255_2_778
10
19.4639528
20
46.4923015
40
2.8119488
50
269.9693166
51
281.6695586
0
ARC
8
DEFAULT_255_2_778
10
19.4593981
20
46.4759583
40
2.7956069
50
250.6252326
51
270.062487
0
ARC
8
DEFAULT_255_2_778
10
19.466209
20
46.4833864
40
2.8048766
50
191.7961906
51
250.5443211
0
ARC
8
DEFAULT_255_2_778
10
19.4743764
20
46.4787462
40
2.8119298
50
179.9692966
51
191.6696183
0
LINE
8
DEFAULT_255_2_778
10
16.662447
20
46.480253
11
16.662447
21
46.480253
0
LINE
8
DEFAULT_255_2_778
10
23.712498
20
49.680403
11
15.212498
21
49.680403
0
LINE
8
DEFAULT_255_2_778
10
23.712498
20
43.280403
11
15.212498
21
43.280403
0
LINE
8
DEFAULT_255_2_778
10
22.462422
20
49.480378
11
16.462422
21
49.480378
0
LINE
8
DEFAULT_255_2_778
10
16.462422
20
49.480378
11
16.462422
21
43.480378
0
LINE
8
DEFAULT_255_2_778
10
16.462422
20
43.480378
11
22.462422
21
43.480378
0
LINE
8
DEFAULT_255_2_778
10
22.462422
20
43.480378
11
22.462422
21
49.480378
0
LINE
8
DEFAULT_255_2_778
10
29.0231854
20
87.2195146
11
26.9017854
21
89.3409146
0
LINE
8
DEFAULT_255_2_778
10
26.9017854
20
87.2195146
11
29.0231854
21
89.3409146
0
ARC
8
DEFAULT_255_2_778
10
27.9580257
20
88.2832042
40
2.7955804
50
160.6250898
51
180.0625339
0
ARC
8
DEFAULT_255_2_778
10
27.9654872
20
88.2763633
40
2.8048915
50
101.7948804
51
160.5438283
0
ARC
8
DEFAULT_255_2_778
10
27.9609381
20
88.2679172
40
2.8122362
50
89.9692581
51
101.6689794
0
ARC
8
DEFAULT_255_2_778
10
27.9654925
20
88.2848398
40
2.7953149
50
70.6241591
51
90.0624243
0
ARC
8
DEFAULT_255_2_778
10
27.9585398
20
88.2771195
40
2.8049073
50
11.7946723
51
70.542501
0
ARC
8
DEFAULT_255_2_778
10
27.9500921
20
88.281661
40
2.8122552
50
359.969278
51
11.6689198
0
ARC
8
DEFAULT_255_2_778
10
27.9670072
20
88.2771098
40
2.7953414
50
340.624302
51
0.0623774
0
ARC
8
DEFAULT_255_2_778
10
27.9593204
20
88.2840325
40
2.8048924
50
281.7959826
51
340.5429938
0
ARC
8
DEFAULT_255_2_778
10
27.9639528
20
88.2922015
40
2.8119488
50
269.9693166
51
281.6695586
0
ARC
8
DEFAULT_255_2_778
10
27.9593981
20
88.2758583
40
2.7956069
50
250.6252326
51
270.062487
0
ARC
8
DEFAULT_255_2_778
10
27.966209
20
88.2832864
40
2.8048766
50
191.7961906
51
250.5443211
0
ARC
8
DEFAULT_255_2_778
10
27.9743764
20
88.2786462
40
2.8119298
50
179.9692966
51
191.6696183
0
LINE
8
DEFAULT_255_2_778
10
25.162447
20
88.280153
11
25.162447
21
88.280153
0
LINE
8
DEFAULT_255_2_778
10
23.712498
20
85.080303
11
32.212498
21
85.080303
0
LINE
8
DEFAULT_255_2_778
10
32.212498
20
85.080303
11
32.212498
21
91.480303
0
LINE
8
DEFAULT_255_2_778
10
32.212498
20
91.480303
11
23.712498
21
91.480303
0
LINE
8
DEFAULT_255_2_778
10
24.962422
20
85.2803582
11
30.962422
21
85.2803582
0
LINE
8
DEFAULT_255_2_778
10
30.962422
20
85.2803582
11
30.962422
21
91.2803582
0
LINE
8
DEFAULT_255_2_778
10
30.962422
20
91.2803582
11
24.962422
21
91.2803582
0
LINE
8
DEFAULT_255_2_778
10
24.962422
20
91.2803582
11
24.962422
21
85.2803582
0
LINE
8
DEFAULT_255_2_778
10
29.023222
20
79.6196582
11
26.901822
21
81.7410582
0
LINE
8
DEFAULT_255_2_778
10
26.9017854
20
79.6196146
11
29.0231854
21
81.7410146
0
ARC
8
DEFAULT_255_2_778
10
27.9580257
20
80.6833042
40
2.7955804
50
160.6250898
51
180.0625339
0
ARC
8
DEFAULT_255_2_778
10
27.9654872
20
80.6764633
40
2.8048915
50
101.7948804
51
160.5438283
0
ARC
8
DEFAULT_255_2_778
10
27.9609381
20
80.6680172
40
2.8122362
50
89.9692581
51
101.6689794
0
ARC
8
DEFAULT_255_2_778
10
27.9654925
20
80.6849398
40
2.7953149
50
70.6241591
51
90.0624243
0
ARC
8
DEFAULT_255_2_778
10
27.9585398
20
80.6772195
40
2.8049073
50
11.7946723
51
70.542501
0
ARC
8
DEFAULT_255_2_778
10
27.9500921
20
80.681761
40
2.8122552
50
359.969278
51
11.6689198
0
ARC
8
DEFAULT_255_2_778
10
27.9670072
20
80.6772098
40
2.7953414
50
340.624302
51
0.0623774
0
ARC
8
DEFAULT_255_2_778
10
27.9593204
20
80.6841325
40
2.8048924
50
281.7959826
51
340.5429938
0
ARC
8
DEFAULT_255_2_778
10
27.9639528
20
80.6923015
40
2.8119488
50
269.9693166
51
281.6695586
0
ARC
8
DEFAULT_255_2_778
10
27.9593981
20
80.6759583
40
2.7956069
50
250.6252326
51
270.062487
0
ARC
8
DEFAULT_255_2_778
10
27.966209
20
80.6833864
40
2.8048766
50
191.7961906
51
250.5443211
0
ARC
8
DEFAULT_255_2_778
10
27.9743764
20
80.6787462
40
2.8119298
50
179.9692966
51
191.6696183
0
LINE
8
DEFAULT_255_2_778
10
25.162447
20
80.680253
11
25.162447
21
80.680253
0
LINE
8
DEFAULT_255_2_778
10
23.712498
20
77.480403
11
32.212498
21
77.480403
0
LINE
8
DEFAULT_255_2_778
10
32.212498
20
77.480403
11
32.212498
21
83.880403
0
LINE
8
DEFAULT_255_2_778
10
32.212498
20
83.880403
11
23.712498
21
83.880403
0
LINE
8
DEFAULT_255_2_778
10
30.962422
20
83.680378
11
24.962422
21
83.680378
0
LINE
8
DEFAULT_255_2_778
10
24.962422
20
83.680378
11
24.962422
21
77.680378
0
LINE
8
DEFAULT_255_2_778
10
24.962422
20
77.680378
11
30.962422
21
77.680378
0
LINE
8
DEFAULT_255_2_778
10
30.962422
20
77.680378
11
30.962422
21
83.680378
0
LINE
8
DEFAULT_255_2_778
10
29.0231854
20
72.0197146
11
26.9017854
21
74.1411146
0
LINE
8
DEFAULT_255_2_778
10
26.9017854
20
72.0197146
11
29.0231854
21
74.1411146
0
ARC
8
DEFAULT_255_2_778
10
27.9580257
20
73.0832042
40
2.7955804
50
160.6250898
51
180.0625339
0
ARC
8
DEFAULT_255_2_778
10
27.9654872
20
73.0763633
40
2.8048915
50
101.7948804
51
160.5438283
0
ARC
8
DEFAULT_255_2_778
10
27.9609381
20
73.0679172
40
2.8122362
50
89.9692581
51
101.6689794
0
ARC
8
DEFAULT_255_2_778
10
27.9654925
20
73.0848398
40
2.7953149
50
70.6241591
51
90.0624243
0
ARC
8
DEFAULT_255_2_778
10
27.9585398
20
73.0771195
40
2.8049073
50
11.7946723
51
70.542501
0
ARC
8
DEFAULT_255_2_778
10
27.9500921
20
73.081661
40
2.8122552
50
359.969278
51
11.6689198
0
ARC
8
DEFAULT_255_2_778
10
27.9670072
20
73.0771098
40
2.7953414
50
340.624302
51
0.0623774
0
ARC
8
DEFAULT_255_2_778
10
27.9593204
20
73.0840325
40
2.8048924
50
281.7959826
51
340.5429938
0
ARC
8
DEFAULT_255_2_778
10
27.9639528
20
73.0922015
40
2.8119488
50
269.9693166
51
281.6695586
0
ARC
8
DEFAULT_255_2_778
10
27.9593981
20
73.0758583
40
2.7956069
50
250.6252326
51
270.062487
0
ARC
8
DEFAULT_255_2_778
10
27.966209
20
73.0832864
40
2.8048766
50
191.7961906
51
250.5443211
0
ARC
8
DEFAULT_255_2_778
10
27.9743764
20
73.0786462
40
2.8119298
50
179.9692966
51
191.6696183
0
LINE
8
DEFAULT_255_2_778
10
25.162447
20
73.080153
11
25.162447
21
73.080153
0
LINE
8
DEFAULT_255_2_778
10
23.712498
20
69.880303
11
32.212498
21
69.880303
0
LINE
8
DEFAULT_255_2_778
10
32.212498
20
69.880303
11
32.212498
21
76.280303
0
LINE
8
DEFAULT_255_2_778
10
32.212498
20
76.280303
11
23.712498
21
76.280303
0
LINE
8
DEFAULT_255_2_778
10
30.962422
20
76.080278
11
24.962422
21
76.080278
0
LINE
8
DEFAULT_255_2_778
10
24.962422
20
76.080278
11
24.962422
21
70.080278
0
LINE
8
DEFAULT_255_2_778
10
24.962422
20
70.080278
11
30.962422
21
70.080278
0
LINE
8
DEFAULT_255_2_778
10
30.962422
20
70.080278
11
30.962422
21
76.080278
0
LINE
8
DEFAULT_255_2_778
10
29.0231854
20
64.4196146
11
26.9017854
21
66.5410146
0
LINE
8
DEFAULT_255_2_778
10
26.9017854
20
64.4196146
11
29.0231854
21
66.5410146
0
ARC
8
DEFAULT_255_2_778
10
27.9580257
20
65.4833042
40
2.7955804
50
160.6250898
51
180.0625339
0
ARC
8
DEFAULT_255_2_778
10
27.9654872
20
65.4764633
40
2.8048915
50
101.7948804
51
160.5438283
0
ARC
8
DEFAULT_255_2_778
10
27.9609381
20
65.4680172
40
2.8122362
50
89.9692581
51
101.6689794
0
ARC
8
DEFAULT_255_2_778
10
27.9654925
20
65.4849398
40
2.7953149
50
70.6241591
51
90.0624243
0
ARC
8
DEFAULT_255_2_778
10
27.9585398
20
65.4772195
40
2.8049073
50
11.7946723
51
70.542501
0
ARC
8
DEFAULT_255_2_778
10
27.9500921
20
65.481761
40
2.8122552
50
359.969278
51
11.6689198
0
ARC
8
DEFAULT_255_2_778
10
27.9670072
20
65.4772098
40
2.7953414
50
340.624302
51
0.0623774
0
ARC
8
DEFAULT_255_2_778
10
27.9593204
20
65.4841325
40
2.8048924
50
281.7959826
51
340.5429938
0
ARC
8
DEFAULT_255_2_778
10
27.9639528
20
65.4923015
40
2.8119488
50
269.9693166
51
281.6695586
0
ARC
8
DEFAULT_255_2_778
10
27.9593981
20
65.4759583
40
2.7956069
50
250.6252326
51
270.062487
0
ARC
8
DEFAULT_255_2_778
10
27.966209
20
65.4833864
40
2.8048766
50
191.7961906
51
250.5443211
0
ARC
8
DEFAULT_255_2_778
10
27.9743764
20
65.4787462
40
2.8119298
50
179.9692966
51
191.6696183
0
LINE
8
DEFAULT_255_2_778
10
25.162447
20
65.480253
11
25.162447
21
65.480253
0
LINE
8
DEFAULT_255_2_778
10
23.712498
20
62.280403
11
32.212498
21
62.280403
0
LINE
8
DEFAULT_255_2_778
10
32.212498
20
62.280403
11
32.212498
21
68.680403
0
LINE
8
DEFAULT_255_2_778
10
32.212498
20
68.680403
11
23.712498
21
68.680403
0
LINE
8
DEFAULT_255_2_778
10
30.962422
20
68.480378
11
24.962422
21
68.480378
0
LINE
8
DEFAULT_255_2_778
10
24.962422
20
68.480378
11
24.962422
21
62.480378
0
LINE
8
DEFAULT_255_2_778
10
24.962422
20
62.480378
11
30.962422
21
62.480378
0
LINE
8
DEFAULT_255_2_778
10
30.962422
20
62.480378
11
30.962422
21
68.480378
0
LINE
8
DEFAULT_255_2_778
10
29.0231854
20
56.8197146
11
26.9017854
21
58.9411146
0
LINE
8
DEFAULT_255_2_778
10
26.9017854
20
56.8197146
11
29.0231854
21
58.9411146
0
ARC
8
DEFAULT_255_2_778
10
27.9580257
20
57.8834042
40
2.7955804
50
160.6250898
51
180.0625339
0
ARC
8
DEFAULT_255_2_778
10
27.9654872
20
57.8765633
40
2.8048915
50
101.7948804
51
160.5438283
0
ARC
8
DEFAULT_255_2_778
10
27.9609381
20
57.8681172
40
2.8122362
50
89.9692581
51
101.6689794
0
ARC
8
DEFAULT_255_2_778
10
27.9654925
20
57.8850398
40
2.7953149
50
70.6241591
51
90.0624243
0
ARC
8
DEFAULT_255_2_778
10
27.9585398
20
57.8773195
40
2.8049073
50
11.7946723
51
70.542501
0
ARC
8
DEFAULT_255_2_778
10
27.9500921
20
57.881861
40
2.8122552
50
359.969278
51
11.6689198
0
ARC
8
DEFAULT_255_2_778
10
27.9670072
20
57.8773098
40
2.7953414
50
340.624302
51
0.0623774
0
ARC
8
DEFAULT_255_2_778
10
27.9593204
20
57.8842325
40
2.8048924
50
281.7959826
51
340.5429938
0
ARC
8
DEFAULT_255_2_778
10
27.9639528
20
57.8924015
40
2.8119488
50
269.9693166
51
281.6695586
0
ARC
8
DEFAULT_255_2_778
10
27.9593981
20
57.8760583
40
2.7956069
50
250.6252326
51
270.062487
0
ARC
8
DEFAULT_255_2_778
10
27.966209
20
57.8834864
40
2.8048766
50
191.7961906
51
250.5443211
0
ARC
8
DEFAULT_255_2_778
10
27.9743764
20
57.8788462
40
2.8119298
50
179.9692966
51
191.6696183
0
LINE
8
DEFAULT_255_2_778
10
25.162447
20
57.880353
11
25.162447
21
57.880353
0
LINE
8
DEFAULT_255_2_778
10
23.712498
20
61.080203
11
32.212498
21
61.080203
0
LINE
8
DEFAULT_255_2_778
10
32.212498
20
61.080203
11
32.212498
21
54.680203
0
LINE
8
DEFAULT_255_2_778
10
32.212498
20
54.680203
11
23.712498
21
54.680203
0
LINE
8
DEFAULT_255_2_778
10
30.962422
20
60.8802582
11
24.962422
21
60.8802582
0
LINE
8
DEFAULT_255_2_778
10
24.962422
20
60.8802582
11
24.962422
21
54.8802582
0
LINE
8
DEFAULT_255_2_778
10
24.962422
20
54.8802582
11
30.962422
21
54.8802582
0
LINE
8
DEFAULT_255_2_778
10
30.962422
20
54.8802582
11
30.962422
21
60.8802582
0
LINE
8
DEFAULT_255_2_778
10
29.023222
20
49.2195582
11
26.901822
21
51.3409582
0
LINE
8
DEFAULT_255_2_778
10
26.9017854
20
49.2195146
11
29.0231854
21
51.3409146
0
ARC
8
DEFAULT_255_2_778
10
27.9580257
20
50.2832042
40
2.7955804
50
160.6250898
51
180.0625339
0
ARC
8
DEFAULT_255_2_778
10
27.9654872
20
50.2763633
40
2.8048915
50
101.7948804
51
160.5438283
0
ARC
8
DEFAULT_255_2_778
10
27.9609381
20
50.2679172
40
2.8122362
50
89.9692581
51
101.6689794
0
ARC
8
DEFAULT_255_2_778
10
27.9654925
20
50.2848398
40
2.7953149
50
70.6241591
51
90.0624243
0
ARC
8
DEFAULT_255_2_778
10
27.9585398
20
50.2771195
40
2.8049073
50
11.7946723
51
70.542501
0
ARC
8
DEFAULT_255_2_778
10
27.9500921
20
50.281661
40
2.8122552
50
359.969278
51
11.6689198
0
ARC
8
DEFAULT_255_2_778
10
27.9670072
20
50.2771098
40
2.7953414
50
340.624302
51
0.0623774
0
ARC
8
DEFAULT_255_2_778
10
27.9593204
20
50.2840325
40
2.8048924
50
281.7959826
51
340.5429938
0
ARC
8
DEFAULT_255_2_778
10
27.9639528
20
50.2922015
40
2.8119488
50
269.9693166
51
281.6695586
0
ARC
8
DEFAULT_255_2_778
10
27.9593981
20
50.2758583
40
2.7956069
50
250.6252326
51
270.062487
0
ARC
8
DEFAULT_255_2_778
10
27.966209
20
50.2832864
40
2.8048766
50
191.7961906
51
250.5443211
0
ARC
8
DEFAULT_255_2_778
10
27.9743764
20
50.2786462
40
2.8119298
50
179.9692966
51
191.6696183
0
LINE
8
DEFAULT_255_2_778
10
25.162447
20
50.280153
11
25.162447
21
50.280153
0
LINE
8
DEFAULT_255_2_778
10
23.712498
20
47.080403
11
32.212498
21
47.080403
0
LINE
8
DEFAULT_255_2_778
10
32.212498
20
47.080403
11
32.212498
21
53.480403
0
LINE
8
DEFAULT_255_2_778
10
32.212498
20
53.480403
11
23.712498
21
53.480403
0
LINE
8
DEFAULT_255_2_778
10
30.962422
20
53.280378
11
24.962422
21
53.280378
0
LINE
8
DEFAULT_255_2_778
10
24.962422
20
53.280378
11
24.962422
21
47.280378
0
LINE
8
DEFAULT_255_2_778
10
24.962422
20
47.280378
11
30.962422
21
47.280378
0
LINE
8
DEFAULT_255_2_778
10
30.962422
20
47.280378
11
30.962422
21
53.280378
0
LINE
8
DEFAULT_255_2_778
10
33.2123659
20
3.7804904
11
33.2123659
21
96.7804904
0
LINE
8
DEFAULT_255_2_778
10
33.2123659
20
96.7804904
11
15.2124659
21
96.7804904
0
LINE
8
DEFAULT_255_2_778
10
15.2124659
20
96.7804904
11
15.2124659
21
3.7804904
0
LINE
8
DEFAULT_255_2_778
10
15.2124659
20
3.7804904
11
33.2123659
21
3.7804904
0
LINE
8
DEFAULT_255_2_778
10
23.7124417
20
5.2804352
11
23.7124417
21
95.2803352
0
LINE
8
DEFAULT_255_2_778
10
20.5231417
20
37.8197352
11
18.4017417
21
39.9411352
0
LINE
8
DEFAULT_255_2_778
10
18.4017854
20
37.8197146
11
20.5231854
21
39.9411146
0
ARC
8
DEFAULT_255_2_778
10
19.4580257
20
38.8834042
40
2.7955804
50
160.6250898
51
180.0625339
0
ARC
8
DEFAULT_255_2_778
10
19.4654872
20
38.8765633
40
2.8048915
50
101.7948804
51
160.5438283
0
ARC
8
DEFAULT_255_2_778
10
19.4609381
20
38.8681172
40
2.8122362
50
89.9692581
51
101.6689794
0
ARC
8
DEFAULT_255_2_778
10
19.4654925
20
38.8850398
40
2.7953149
50
70.6241591
51
90.0624243
0
ARC
8
DEFAULT_255_2_778
10
19.4585398
20
38.8773195
40
2.8049073
50
11.7946723
51
70.542501
0
ARC
8
DEFAULT_255_2_778
10
19.4500921
20
38.881861
40
2.8122552
50
359.969278
51
11.6689198
0
ARC
8
DEFAULT_255_2_778
10
19.4670072
20
38.8773098
40
2.7953414
50
340.624302
51
0.0623774
0
ARC
8
DEFAULT_255_2_778
10
19.4593204
20
38.8842325
40
2.8048924
50
281.7959826
51
340.5429938
0
ARC
8
DEFAULT_255_2_778
10
19.4639528
20
38.8924015
40
2.8119488
50
269.9693166
51
281.6695586
0
ARC
8
DEFAULT_255_2_778
10
19.4593981
20
38.8760583
40
2.7956069
50
250.6252326
51
270.062487
0
ARC
8
DEFAULT_255_2_778
10
19.466209
20
38.8834864
40
2.8048766
50
191.7961906
51
250.5443211
0
ARC
8
DEFAULT_255_2_778
10
19.4743764
20
38.8788462
40
2.8119298
50
179.9692966
51
191.6696183
0
LINE
8
DEFAULT_255_2_778
10
16.662447
20
38.880353
11
16.662447
21
38.880353
0
LINE
8
DEFAULT_255_2_778
10
23.712498
20
34.4803457
11
15.212498
21
34.4803457
0
LINE
8
DEFAULT_255_2_778
10
23.712498
20
42.0802457
11
15.212498
21
42.0802457
0
LINE
8
DEFAULT_255_2_778
10
22.462422
20
41.8804905
11
16.462422
21
41.8804905
0
LINE
8
DEFAULT_255_2_778
10
16.462422
20
41.8804905
11
16.462422
21
35.8804905
0
LINE
8
DEFAULT_255_2_778
10
16.462422
20
35.8804905
11
22.462422
21
35.8804905
0
LINE
8
DEFAULT_255_2_778
10
22.462422
20
35.8804905
11
22.462422
21
41.8804905
0
LINE
8
DEFAULT_255_2_778
10
20.523222
20
30.2194905
11
18.401822
21
32.3408905
0
LINE
8
DEFAULT_255_2_778
10
18.4017854
20
30.2195146
11
20.5231854
21
32.3409146
0
ARC
8
DEFAULT_255_2_778
10
19.4580257
20
31.2832042
40
2.7955804
50
160.6250898
51
180.0625339
0
ARC
8
DEFAULT_255_2_778
10
19.4654872
20
31.2763633
40
2.8048915
50
101.7948804
51
160.5438283
0
ARC
8
DEFAULT_255_2_778
10
19.4609381
20
31.2679172
40
2.8122362
50
89.9692581
51
101.6689794
0
ARC
8
DEFAULT_255_2_778
10
19.4654925
20
31.2848398
40
2.7953149
50
70.6241591
51
90.0624243
0
ARC
8
DEFAULT_255_2_778
10
19.4585398
20
31.2771195
40
2.8049073
50
11.7946723
51
70.542501
0
ARC
8
DEFAULT_255_2_778
10
19.4500921
20
31.281661
40
2.8122552
50
359.969278
51
11.6689198
0
ARC
8
DEFAULT_255_2_778
10
19.4670072
20
31.2771098
40
2.7953414
50
340.624302
51
0.0623774
0
ARC
8
DEFAULT_255_2_778
10
19.4593204
20
31.2840325
40
2.8048924
50
281.7959826
51
340.5429938
0
ARC
8
DEFAULT_255_2_778
10
19.4639528
20
31.2922015
40
2.8119488
50
269.9693166
51
281.6695586
0
ARC
8
DEFAULT_255_2_778
10
19.4593981
20
31.2758583
40
2.7956069
50
250.6252326
51
270.062487
0
ARC
8
DEFAULT_255_2_778
10
19.466209
20
31.2832864
40
2.8048766
50
191.7961906
51
250.5443211
0
ARC
8
DEFAULT_255_2_778
10
19.4743764
20
31.2786462
40
2.8119298
50
179.9692966
51
191.6696183
0
LINE
8
DEFAULT_255_2_778
10
16.662447
20
31.280153
11
16.662447
21
31.280153
0
LINE
8
DEFAULT_255_2_778
10
23.712498
20
35.6802457
11
15.212498
21
35.6802457
0
LINE
8
DEFAULT_255_2_778
10
23.712498
20
28.0803457
11
15.212498
21
28.0803457
0
LINE
8
DEFAULT_255_2_778
10
16.462422
20
28.2803582
11
22.462422
21
28.2803582
0
LINE
8
DEFAULT_255_2_778
10
22.462422
20
28.2803582
11
22.462422
21
34.2803582
0
LINE
8
DEFAULT_255_2_778
10
22.462422
20
34.2803582
11
16.462422
21
34.2803582
0
LINE
8
DEFAULT_255_2_778
10
16.462422
20
34.2803582
11
16.462422
21
28.2803582
0
LINE
8
DEFAULT_255_2_778
10
20.523222
20
22.6196582
11
18.401822
21
24.7410582
0
LINE
8
DEFAULT_255_2_778
10
18.4017854
20
22.6196146
11
20.5231854
21
24.7410146
0
ARC
8
DEFAULT_255_2_778
10
19.4580257
20
23.6833042
40
2.7955804
50
160.6250898
51
180.0625339
0
ARC
8
DEFAULT_255_2_778
10
19.4654872
20
23.6764633
40
2.8048915
50
101.7948804
51
160.5438283
0
ARC
8
DEFAULT_255_2_778
10
19.4609381
20
23.6680172
40
2.8122362
50
89.9692581
51
101.6689794
0
ARC
8
DEFAULT_255_2_778
10
19.4654925
20
23.6849398
40
2.7953149
50
70.6241591
51
90.0624243
0
ARC
8
DEFAULT_255_2_778
10
19.4585398
20
23.6772195
40
2.8049073
50
11.7946723
51
70.542501
0
ARC
8
DEFAULT_255_2_778
10
19.4500921
20
23.681761
40
2.8122552
50
359.969278
51
11.6689198
0
ARC
8
DEFAULT_255_2_778
10
19.4670072
20
23.6772098
40
2.7953414
50
340.624302
51
0.0623774
0
ARC
8
DEFAULT_255_2_778
10
19.4593204
20
23.6841325
40
2.8048924
50
281.7959826
51
340.5429938
0
ARC
8
DEFAULT_255_2_778
10
19.4639528
20
23.6923015
40
2.8119488
50
269.9693166
51
281.6695586
0
ARC
8
DEFAULT_255_2_778
10
19.4593981
20
23.6759583
40
2.7956069
50
250.6252326
51
270.062487
0
ARC
8
DEFAULT_255_2_778
10
19.466209
20
23.6833864
40
2.8048766
50
191.7961906
51
250.5443211
0
ARC
8
DEFAULT_255_2_778
10
19.4743764
20
23.6787462
40
2.8119298
50
179.9692966
51
191.6696183
0
LINE
8
DEFAULT_255_2_778
10
16.662447
20
23.680253
11
16.662447
21
23.680253
0
LINE
8
DEFAULT_255_2_778
10
23.712498
20
26.880503
11
15.212498
21
26.880503
0
LINE
8
DEFAULT_255_2_778
10
23.712498
20
20.480503
11
15.212498
21
20.480503
0
LINE
8
DEFAULT_255_2_778
10
16.462422
20
26.6804582
11
16.462422
21
20.6804582
0
LINE
8
DEFAULT_255_2_778
10
16.462422
20
20.6804582
11
22.462422
21
20.6804582
0
LINE
8
DEFAULT_255_2_778
10
22.462422
20
20.6804582
11
22.462422
21
26.6804582
0
LINE
8
DEFAULT_255_2_778
10
22.462422
20
26.6804582
11
16.462422
21
26.6804582
0
LINE
8
DEFAULT_255_2_778
10
20.523222
20
15.0197582
11
18.401822
21
17.1411582
0
LINE
8
DEFAULT_255_2_778
10
18.4017854
20
15.0197146
11
20.5231854
21
17.1411146
0
ARC
8
DEFAULT_255_2_778
10
19.4580257
20
16.0832042
40
2.7955804
50
160.6250898
51
180.0625339
0
ARC
8
DEFAULT_255_2_778
10
19.4654872
20
16.0763633
40
2.8048915
50
101.7948804
51
160.5438283
0
ARC
8
DEFAULT_255_2_778
10
19.4609381
20
16.0679172
40
2.8122362
50
89.9692581
51
101.6689794
0
ARC
8
DEFAULT_255_2_778
10
19.4654925
20
16.0848398
40
2.7953149
50
70.6241591
51
90.0624243
0
ARC
8
DEFAULT_255_2_778
10
19.4585398
20
16.0771195
40
2.8049073
50
11.7946723
51
70.542501
0
ARC
8
DEFAULT_255_2_778
10
19.4500921
20
16.081661
40
2.8122552
50
359.969278
51
11.6689198
0
ARC
8
DEFAULT_255_2_778
10
19.4670072
20
16.0771098
40
2.7953414
50
340.624302
51
0.0623774
0
ARC
8
DEFAULT_255_2_778
10
19.4593204
20
16.0840325
40
2.8048924
50
281.7959826
51
340.5429938
0
ARC
8
DEFAULT_255_2_778
10
19.4639528
20
16.0922015
40
2.8119488
50
269.9693166
51
281.6695586
0
ARC
8
DEFAULT_255_2_778
10
19.4593981
20
16.0758583
40
2.7956069
50
250.6252326
51
270.062487
0
ARC
8
DEFAULT_255_2_778
10
19.466209
20
16.0832864
40
2.8048766
50
191.7961906
51
250.5443211
0
ARC
8
DEFAULT_255_2_778
10
19.4743764
20
16.0786462
40
2.8119298
50
179.9692966
51
191.6696183
0
LINE
8
DEFAULT_255_2_778
10
16.662447
20
16.080153
11
16.662447
21
16.080153
0
LINE
8
DEFAULT_255_2_778
10
15.212498
20
12.8803457
11
23.712498
21
12.8803457
0
LINE
8
DEFAULT_255_2_778
10
23.712498
20
11.6804457
11
15.212498
21
11.6804457
0
LINE
8
DEFAULT_255_2_778
10
23.712498
20
19.2803457
11
15.212498
21
19.2803457
0
LINE
8
DEFAULT_255_2_778
10
22.462422
20
19.080278
11
16.462422
21
19.080278
0
LINE
8
DEFAULT_255_2_778
10
16.462422
20
19.080278
11
16.462422
21
13.080278
0
LINE
8
DEFAULT_255_2_778
10
16.462422
20
13.080278
11
22.462422
21
13.080278
0
LINE
8
DEFAULT_255_2_778
10
22.462422
20
13.080278
11
22.462422
21
19.080278
0
LINE
8
DEFAULT_255_2_778
10
20.5231854
20
7.4196146
11
18.4017854
21
9.5410146
0
LINE
8
DEFAULT_255_2_778
10
18.4017854
20
7.4196146
11
20.5231854
21
9.5410146
0
ARC
8
DEFAULT_255_2_778
10
19.4580257
20
8.4833042
40
2.7955804
50
160.6250898
51
180.0625339
0
ARC
8
DEFAULT_255_2_778
10
19.4654872
20
8.4764633
40
2.8048915
50
101.7948804
51
160.5438283
0
ARC
8
DEFAULT_255_2_778
10
19.4609381
20
8.4680172
40
2.8122362
50
89.9692581
51
101.6689794
0
ARC
8
DEFAULT_255_2_778
10
19.4654925
20
8.4849398
40
2.7953149
50
70.6241591
51
90.0624243
0
ARC
8
DEFAULT_255_2_778
10
19.4585398
20
8.4772195
40
2.8049073
50
11.7946723
51
70.542501
0
ARC
8
DEFAULT_255_2_778
10
19.4500921
20
8.481761
40
2.8122552
50
359.969278
51
11.6689198
0
ARC
8
DEFAULT_255_2_778
10
19.4670072
20
8.4772098
40
2.7953414
50
340.624302
51
0.0623774
0
ARC
8
DEFAULT_255_2_778
10
19.4593204
20
8.4841325
40
2.8048924
50
281.7959826
51
340.5429938
0
ARC
8
DEFAULT_255_2_778
10
19.4639528
20
8.4923015
40
2.8119488
50
269.9693166
51
281.6695586
0
ARC
8
DEFAULT_255_2_778
10
19.4593981
20
8.4759583
40
2.7956069
50
250.6252326
51
270.062487
0
ARC
8
DEFAULT_255_2_778
10
19.466209
20
8.4833864
40
2.8048766
50
191.7961906
51
250.5443211
0
ARC
8
DEFAULT_255_2_778
10
19.4743764
20
8.4787462
40
2.8119298
50
179.9692966
51
191.6696183
0
LINE
8
DEFAULT_255_2_778
10
16.662447
20
8.480253
11
16.662447
21
8.480253
0
LINE
8
DEFAULT_255_2_778
10
29.0231854
20
41.6196146
11
26.9017854
21
43.7410146
0
LINE
8
DEFAULT_255_2_778
10
26.9017854
20
41.6196146
11
29.0231854
21
43.7410146
0
ARC
8
DEFAULT_255_2_778
10
27.9580257
20
42.6833042
40
2.7955804
50
160.6250898
51
180.0625339
0
ARC
8
DEFAULT_255_2_778
10
27.9654872
20
42.6764633
40
2.8048915
50
101.7948804
51
160.5438283
0
ARC
8
DEFAULT_255_2_778
10
27.9609381
20
42.6680172
40
2.8122362
50
89.9692581
51
101.6689794
0
ARC
8
DEFAULT_255_2_778
10
27.9654925
20
42.6849398
40
2.7953149
50
70.6241591
51
90.0624243
0
ARC
8
DEFAULT_255_2_778
10
27.9585398
20
42.6772195
40
2.8049073
50
11.7946723
51
70.542501
0
ARC
8
DEFAULT_255_2_778
10
27.9500921
20
42.681761
40
2.8122552
50
359.969278
51
11.6689198
0
ARC
8
DEFAULT_255_2_778
10
27.9670072
20
42.6772098
40
2.7953414
50
340.624302
51
0.0623774
0
ARC
8
DEFAULT_255_2_778
10
27.9593204
20
42.6841325
40
2.8048924
50
281.7959826
51
340.5429938
0
ARC
8
DEFAULT_255_2_778
10
27.9639528
20
42.6923015
40
2.8119488
50
269.9693166
51
281.6695586
0
ARC
8
DEFAULT_255_2_778
10
27.9593981
20
42.6759583
40
2.7956069
50
250.6252326
51
270.062487
0
ARC
8
DEFAULT_255_2_778
10
27.966209
20
42.6833864
40
2.8048766
50
191.7961906
51
250.5443211
0
ARC
8
DEFAULT_255_2_778
10
27.9743764
20
42.6787462
40
2.8119298
50
179.9692966
51
191.6696183
0
LINE
8
DEFAULT_255_2_778
10
25.162447
20
42.680253
11
25.162447
21
42.680253
0
LINE
8
DEFAULT_255_2_778
10
23.712498
20
39.480503
11
32.212498
21
39.480503
0
LINE
8
DEFAULT_255_2_778
10
32.212498
20
39.480503
11
32.212498
21
45.880503
0
LINE
8
DEFAULT_255_2_778
10
32.212498
20
45.880503
11
23.712498
21
45.880503
0
LINE
8
DEFAULT_255_2_778
10
24.962422
20
45.6803905
11
24.962422
21
39.6803905
0
LINE
8
DEFAULT_255_2_778
10
24.962422
20
39.6803905
11
30.962422
21
39.6803905
0
LINE
8
DEFAULT_255_2_778
10
30.962422
20
39.6803905
11
30.962422
21
45.6803905
0
LINE
8
DEFAULT_255_2_778
10
30.962422
20
45.6803905
11
24.962422
21
45.6803905
0
LINE
8
DEFAULT_255_2_778
10
29.023222
20
34.0193905
11
26.901822
21
36.1407905
0
LINE
8
DEFAULT_255_2_778
10
26.9017854
20
34.0195146
11
29.0231854
21
36.1409146
0
ARC
8
DEFAULT_255_2_778
10
27.9580257
20
35.0832042
40
2.7955804
50
160.6250898
51
180.0625339
0
ARC
8
DEFAULT_255_2_778
10
27.9654872
20
35.0763633
40
2.8048915
50
101.7948804
51
160.5438283
0
ARC
8
DEFAULT_255_2_778
10
27.9609381
20
35.0679172
40
2.8122362
50
89.9692581
51
101.6689794
0
ARC
8
DEFAULT_255_2_778
10
27.9654925
20
35.0848398
40
2.7953149
50
70.6241591
51
90.0624243
0
ARC
8
DEFAULT_255_2_778
10
27.9585398
20
35.0771195
40
2.8049073
50
11.7946723
51
70.542501
0
ARC
8
DEFAULT_255_2_778
10
27.9500921
20
35.081661
40
2.8122552
50
359.969278
51
11.6689198
0
ARC
8
DEFAULT_255_2_778
10
27.9670072
20
35.0771098
40
2.7953414
50
340.624302
51
0.0623774
0
ARC
8
DEFAULT_255_2_778
10
27.9593204
20
35.0840325
40
2.8048924
50
281.7959826
51
340.5429938
0
ARC
8
DEFAULT_255_2_778
10
27.9639528
20
35.0922015
40
2.8119488
50
269.9693166
51
281.6695586
0
ARC
8
DEFAULT_255_2_778
10
27.9593981
20
35.0758583
40
2.7956069
50
250.6252326
51
270.062487
0
ARC
8
DEFAULT_255_2_778
10
27.966209
20
35.0832864
40
2.8048766
50
191.7961906
51
250.5443211
0
ARC
8
DEFAULT_255_2_778
10
27.9743764
20
35.0786462
40
2.8119298
50
179.9692966
51
191.6696183
0
LINE
8
DEFAULT_255_2_778
10
25.162447
20
35.080153
11
25.162447
21
35.080153
0
LINE
8
DEFAULT_255_2_778
10
23.712498
20
31.880303
11
32.212498
21
31.880303
0
LINE
8
DEFAULT_255_2_778
10
32.212498
20
31.880303
11
32.212498
21
38.280303
0
LINE
8
DEFAULT_255_2_778
10
32.212498
20
38.280303
11
23.712498
21
38.280303
0
LINE
8
DEFAULT_255_2_778
10
30.962422
20
38.080278
11
24.962422
21
38.080278
0
LINE
8
DEFAULT_255_2_778
10
24.962422
20
38.080278
11
24.962422
21
32.080278
0
LINE
8
DEFAULT_255_2_778
10
24.962422
20
32.080278
11
30.962422
21
32.080278
0
LINE
8
DEFAULT_255_2_778
10
30.962422
20
32.080278
11
30.962422
21
38.080278
0
LINE
8
DEFAULT_255_2_778
10
29.0231854
20
26.4196146
11
26.9017854
21
28.5410146
0
LINE
8
DEFAULT_255_2_778
10
26.9017854
20
26.4196146
11
29.0231854
21
28.5410146
0
ARC
8
DEFAULT_255_2_778
10
27.9580257
20
27.4833042
40
2.7955804
50
160.6250898
51
180.0625339
0
ARC
8
DEFAULT_255_2_778
10
27.9654872
20
27.4764633
40
2.8048915
50
101.7948804
51
160.5438283
0
ARC
8
DEFAULT_255_2_778
10
27.9609381
20
27.4680172
40
2.8122362
50
89.9692581
51
101.6689794
0
ARC
8
DEFAULT_255_2_778
10
27.9654925
20
27.4849398
40
2.7953149
50
70.6241591
51
90.0624243
0
ARC
8
DEFAULT_255_2_778
10
27.9585398
20
27.4772195
40
2.8049073
50
11.7946723
51
70.542501
0
ARC
8
DEFAULT_255_2_778
10
27.9500921
20
27.481761
40
2.8122552
50
359.969278
51
11.6689198
0
ARC
8
DEFAULT_255_2_778
10
27.9670072
20
27.4772098
40
2.7953414
50
340.624302
51
0.0623774
0
ARC
8
DEFAULT_255_2_778
10
27.9593204
20
27.4841325
40
2.8048924
50
281.7959826
51
340.5429938
0
ARC
8
DEFAULT_255_2_778
10
27.9639528
20
27.4923015
40
2.8119488
50
269.9693166
51
281.6695586
0
ARC
8
DEFAULT_255_2_778
10
27.9593981
20
27.4759583
40
2.7956069
50
250.6252326
51
270.062487
0
ARC
8
DEFAULT_255_2_778
10
27.966209
20
27.4833864
40
2.8048766
50
191.7961906
51
250.5443211
0
ARC
8
DEFAULT_255_2_778
10
27.9743764
20
27.4787462
40
2.8119298
50
179.9692966
51
191.6696183
0
LINE
8
DEFAULT_255_2_778
10
25.162447
20
27.480253
11
25.162447
21
27.480253
0
LINE
8
DEFAULT_255_2_778
10
23.712498
20
24.280403
11
32.212498
21
24.280403
0
LINE
8
DEFAULT_255_2_778
10
32.212498
20
24.280403
11
32.212498
21
30.680403
0
LINE
8
DEFAULT_255_2_778
10
32.212498
20
30.680403
11
23.712498
21
30.680403
0
LINE
8
DEFAULT_255_2_778
10
30.962422
20
24.4803582
11
30.962422
21
30.4803582
0
LINE
8
DEFAULT_255_2_778
10
30.962422
20
30.4803582
11
24.962422
21
30.4803582
0
LINE
8
DEFAULT_255_2_778
10
24.962422
20
30.4803582
11
24.962422
21
24.4803582
0
LINE
8
DEFAULT_255_2_778
10
24.962422
20
24.4803582
11
30.962422
21
24.4803582
0
LINE
8
DEFAULT_255_2_778
10
29.023222
20
18.8196582
11
26.901822
21
20.9410582
0
LINE
8
DEFAULT_255_2_778
10
26.9017854
20
18.8197146
11
29.0231854
21
20.9411146
0
ARC
8
DEFAULT_255_2_778
10
27.9580257
20
19.8834042
40
2.7955804
50
160.6250898
51
180.0625339
0
ARC
8
DEFAULT_255_2_778
10
27.9654872
20
19.8765633
40
2.8048915
50
101.7948804
51
160.5438283
0
ARC
8
DEFAULT_255_2_778
10
27.9609381
20
19.8681172
40
2.8122362
50
89.9692581
51
101.6689794
0
ARC
8
DEFAULT_255_2_778
10
27.9654925
20
19.8850398
40
2.7953149
50
70.6241591
51
90.0624243
0
ARC
8
DEFAULT_255_2_778
10
27.9585398
20
19.8773195
40
2.8049073
50
11.7946723
51
70.542501
0
ARC
8
DEFAULT_255_2_778
10
27.9500921
20
19.881861
40
2.8122552
50
359.969278
51
11.6689198
0
ARC
8
DEFAULT_255_2_778
10
27.9670072
20
19.8773098
40
2.7953414
50
340.624302
51
0.0623774
0
ARC
8
DEFAULT_255_2_778
10
27.9593204
20
19.8842325
40
2.8048924
50
281.7959826
51
340.5429938
0
ARC
8
DEFAULT_255_2_778
10
27.9639528
20
19.8924015
40
2.8119488
50
269.9693166
51
281.6695586
0
ARC
8
DEFAULT_255_2_778
10
27.9593981
20
19.8760583
40
2.7956069
50
250.6252326
51
270.062487
0
ARC
8
DEFAULT_255_2_778
10
27.966209
20
19.8834864
40
2.8048766
50
191.7961906
51
250.5443211
0
ARC
8
DEFAULT_255_2_778
10
27.9743764
20
19.8788462
40
2.8119298
50
179.9692966
51
191.6696183
0
LINE
8
DEFAULT_255_2_778
10
25.162447
20
19.880353
11
25.162447
21
19.880353
0
LINE
8
DEFAULT_255_2_778
10
23.712498
20
16.680303
11
32.212498
21
16.680303
0
LINE
8
DEFAULT_255_2_778
10
32.212498
20
16.680303
11
32.212498
21
23.080303
0
LINE
8
DEFAULT_255_2_778
10
32.212498
20
23.080303
11
23.712498
21
23.080303
0
LINE
8
DEFAULT_255_2_778
10
30.962422
20
22.880278
11
24.962422
21
22.880278
0
LINE
8
DEFAULT_255_2_778
10
24.962422
20
22.880278
11
24.962422
21
16.880278
0
LINE
8
DEFAULT_255_2_778
10
24.962422
20
16.880278
11
30.962422
21
16.880278
0
LINE
8
DEFAULT_255_2_778
10
30.962422
20
16.880278
11
30.962422
21
22.880278
0
LINE
8
DEFAULT_255_2_778
10
29.0231854
20
11.2195146
11
26.9017854
21
13.3409146
0
LINE
8
DEFAULT_255_2_778
10
26.9017854
20
11.2195146
11
29.0231854
21
13.3409146
0
ARC
8
DEFAULT_255_2_778
10
27.9580257
20
12.2832042
40
2.7955804
50
160.6250898
51
180.0625339
0
ARC
8
DEFAULT_255_2_778
10
27.9654872
20
12.2763633
40
2.8048915
50
101.7948804
51
160.5438283
0
ARC
8
DEFAULT_255_2_778
10
27.9609381
20
12.2679172
40
2.8122362
50
89.9692581
51
101.6689794
0
ARC
8
DEFAULT_255_2_778
10
27.9654925
20
12.2848398
40
2.7953149
50
70.6241591
51
90.0624243
0
ARC
8
DEFAULT_255_2_778
10
27.9585398
20
12.2771195
40
2.8049073
50
11.7946723
51
70.542501
0
ARC
8
DEFAULT_255_2_778
10
27.9500921
20
12.281661
40
2.8122552
50
359.969278
51
11.6689198
0
ARC
8
DEFAULT_255_2_778
10
27.9670072
20
12.2771098
40
2.7953414
50
340.624302
51
0.0623774
0
ARC
8
DEFAULT_255_2_778
10
27.9593204
20
12.2840325
40
2.8048924
50
281.7959826
51
340.5429938
0
ARC
8
DEFAULT_255_2_778
10
27.9639528
20
12.2922015
40
2.8119488
50
269.9693166
51
281.6695586
0
ARC
8
DEFAULT_255_2_778
10
27.9593981
20
12.2758583
40
2.7956069
50
250.6252326
51
270.062487
0
ARC
8
DEFAULT_255_2_778
10
27.966209
20
12.2832864
40
2.8048766
50
191.7961906
51
250.5443211
0
ARC
8
DEFAULT_255_2_778
10
27.9743764
20
12.2786462
40
2.8119298
50
179.9692966
51
191.6696183
0
LINE
8
DEFAULT_255_2_778
10
25.162447
20
12.280153
11
25.162447
21
12.280153
0
LINE
8
DEFAULT_255_2_778
10
23.712498
20
9.080403
11
32.212498
21
9.080403
0
LINE
8
DEFAULT_255_2_778
10
32.212498
20
9.080403
11
32.212498
21
15.480403
0
LINE
8
DEFAULT_255_2_778
10
32.212498
20
15.480403
11
23.712498
21
15.480403
0
LINE
8
DEFAULT_255_2_778
10
30.962422
20
15.280378
11
24.962422
21
15.280378
0
LINE
8
DEFAULT_255_2_778
10
24.962422
20
15.280378
11
24.962422
21
9.280378
0
LINE
8
DEFAULT_255_2_778
10
24.962422
20
9.280378
11
30.962422
21
9.280378
0
LINE
8
DEFAULT_255_2_778
10
30.962422
20
9.280378
11
30.962422
21
15.280378
0
ENDSEC
0
EOF