0
SECTION
2
HEADER
9
$MEASUREMENT
70
1
0
ENDSEC
0
SECTION
2
TABLES
0
TABLE
2
LTYPE
0
LTYPE
72
65
70
64
2
CONTINUOUS
3
______
73
0
40
0
0
ENDTAB
0
TABLE
2
LAYER
0
LAYER
2
DEFAULT_255_2_778
70
0
62
255
6
CONTINUOUS
0
ENDTAB
0
ENDSEC
0
SECTION
2
ENTITIES
0
LINE
8
DEFAULT_255_2_778
10
34.7125609
20
129.7803534
11
0.2124609
21
129.7803534
0
LINE
8
DEFAULT_255_2_778
10
0.2124609
20
129.7803534
11
0.2124609
21
-0.2197466
0
LINE
8
DEFAULT_255_2_778
10
0.2124609
20
-0.2197466
11
34.7125609
21
-0.2197466
0
LINE
8
DEFAULT_255_2_778
10
34.7125609
20
-0.2197466
11
34.7125609
21
129.7803534
0
ARC
8
DEFAULT_255_2_778
10
11.4057575
20
100.0779999
40
1.993198
50
179.9315196
51
204.3126274
0
ARC
8
DEFAULT_255_2_778
10
11.4144233
20
100.0829826
40
2.0031469
50
204.3404582
51
260.1947019
0
ARC
8
DEFAULT_255_2_778
10
11.4121291
20
100.0939316
40
2.0135495
50
260.3120873
51
270.0122867
0
ARC
8
DEFAULT_255_2_778
10
11.4149432
20
100.0735788
40
1.993198
50
269.9315196
51
294.3126274
0
ARC
8
DEFAULT_255_2_778
10
11.4099604
20
100.0822445
40
2.0031469
50
294.3404582
51
350.1947019
0
ARC
8
DEFAULT_255_2_778
10
11.3990115
20
100.0799504
40
2.0135495
50
350.3120873
51
0.0122867
0
ARC
8
DEFAULT_255_2_778
10
23.5056575
20
100.0779999
40
1.993198
50
179.9315196
51
204.3126274
0
ARC
8
DEFAULT_255_2_778
10
23.5143233
20
100.0829826
40
2.0031469
50
204.3404582
51
260.1947019
0
ARC
8
DEFAULT_255_2_778
10
23.5120291
20
100.0939316
40
2.0135495
50
260.3120873
51
270.0122867
0
ARC
8
DEFAULT_255_2_778
10
23.5148368
20
100.0736808
40
1.9933
50
269.9317062
51
294.3119945
0
ARC
8
DEFAULT_255_2_778
10
23.5099939
20
100.0821661
40
2.0030269
50
294.3383105
51
350.196385
0
ARC
8
DEFAULT_255_2_778
10
23.4993512
20
100.0797657
40
2.0131097
50
350.3152812
51
0.0175439
0
LINE
8
DEFAULT_255_2_778
10
13.4125609
20
104.5804821
11
9.4125609
21
104.5804821
0
LINE
8
DEFAULT_255_2_778
10
9.4125609
20
104.5804821
11
9.4125609
21
100.0803821
0
LINE
8
DEFAULT_255_2_778
10
13.4125609
20
100.0803821
11
13.4125609
21
104.5804821
0
LINE
8
DEFAULT_255_2_778
10
1.2125609
20
108.3803821
11
1.2125609
21
108.2803821
0
LINE
8
DEFAULT_255_2_778
10
25.5124609
20
104.5804821
11
21.5124609
21
104.5804821
0
LINE
8
DEFAULT_255_2_778
10
21.5124609
20
104.5804821
11
21.5124609
21
100.0803821
0
LINE
8
DEFAULT_255_2_778
10
25.5124609
20
100.0803821
11
25.5124609
21
104.5804821
0
LINE
8
DEFAULT_255_2_778
10
33.7124609
20
108.2803821
11
33.7124609
21
108.3803821
0
LINE
8
DEFAULT_255_2_778
10
34.7125609
20
108.2803821
11
0.2124609
21
108.2803821
0
LINE
8
DEFAULT_255_2_778
10
34.7125609
20
108.380303
11
0.2124609
21
108.380303
0
LINE
8
DEFAULT_255_2_778
10
13.4625609
20
113.280403
11
13.4625609
21
114.780303
0
LINE
8
DEFAULT_255_2_778
10
13.4625609
20
114.780303
11
12.4623609
21
114.780303
0
LINE
8
DEFAULT_255_2_778
10
12.4623609
20
114.780303
11
12.4623609
21
113.280403
0
LINE
8
DEFAULT_255_2_778
10
12.4623609
20
113.280403
11
13.4625609
21
113.280403
0
LINE
8
DEFAULT_255_2_778
10
13.4625231
20
110.2806161
11
13.4625231
21
111.7805161
0
LINE
8
DEFAULT_255_2_778
10
13.4625231
20
111.7805161
11
12.4624231
21
111.7805161
0
LINE
8
DEFAULT_255_2_778
10
12.4624231
20
111.7805161
11
12.4624231
21
110.2806161
0
LINE
8
DEFAULT_255_2_778
10
12.4624231
20
110.2806161
11
13.4625231
21
110.2806161
0
LINE
8
DEFAULT_255_2_778
10
13.4625231
20
117.7804161
11
12.4624231
21
117.7804161
0
LINE
8
DEFAULT_255_2_778
10
12.4624231
20
117.7804161
11
12.4624231
21
116.2805161
0
LINE
8
DEFAULT_255_2_778
10
12.4624231
20
116.2805161
11
13.4625231
21
116.2805161
0
LINE
8
DEFAULT_255_2_778
10
13.4625231
20
116.2805161
11
13.4625231
21
117.7804161
0
LINE
8
DEFAULT_255_2_778
10
13.4625231
20
119.2804161
11
13.4625231
21
120.7803161
0
LINE
8
DEFAULT_255_2_778
10
13.4625231
20
120.7803161
11
12.4624231
21
120.7803161
0
LINE
8
DEFAULT_255_2_778
10
12.4624231
20
120.7803161
11
12.4624231
21
119.2804161
0
LINE
8
DEFAULT_255_2_778
10
12.4624231
20
119.2804161
11
13.4625231
21
119.2804161
0
LINE
8
DEFAULT_255_2_778
10
13.4625231
20
123.7804161
11
12.4624231
21
123.7804161
0
LINE
8
DEFAULT_255_2_778
10
12.4624231
20
123.7804161
11
12.4624231
21
122.2805161
0
LINE
8
DEFAULT_255_2_778
10
12.4624231
20
122.2805161
11
13.4625231
21
122.2805161
0
LINE
8
DEFAULT_255_2_778
10
13.4625231
20
122.2805161
11
13.4625231
21
123.7804161
0
LINE
8
DEFAULT_255_2_778
10
21.4625231
20
119.2804161
11
21.4625231
21
120.7803161
0
LINE
8
DEFAULT_255_2_778
10
21.4625231
20
120.7803161
11
20.4623231
21
120.7803161
0
LINE
8
DEFAULT_255_2_778
10
20.4623231
20
120.7803161
11
20.4623231
21
119.2804161
0
LINE
8
DEFAULT_255_2_778
10
20.4623231
20
119.2804161
11
21.4625231
21
119.2804161
0
LINE
8
DEFAULT_255_2_778
10
21.4625231
20
117.7804161
11
20.4623231
21
117.7804161
0
LINE
8
DEFAULT_255_2_778
10
20.4623231
20
117.7804161
11
20.4623231
21
116.2805161
0
LINE
8
DEFAULT_255_2_778
10
20.4623231
20
116.2805161
11
21.4625231
21
116.2805161
0
LINE
8
DEFAULT_255_2_778
10
21.4625231
20
116.2805161
11
21.4625231
21
117.7804161
0
LINE
8
DEFAULT_255_2_778
10
22.8124231
20
86.2805161
11
18.7124231
21
86.2805161
0
LINE
8
DEFAULT_255_2_778
10
18.7124231
20
86.2805161
11
18.7124231
21
46.6806161
0
LINE
8
DEFAULT_255_2_778
10
22.8124231
20
7.0804161
11
18.7124231
21
7.0804161
0
LINE
8
DEFAULT_255_2_778
10
18.7124231
20
7.0804161
11
18.7124231
21
46.6803161
0
LINE
8
DEFAULT_255_2_778
10
22.8124231
20
86.2805161
11
26.9124231
21
86.2805161
0
LINE
8
DEFAULT_255_2_778
10
26.9124231
20
86.2805161
11
26.9124231
21
46.6806161
0
LINE
8
DEFAULT_255_2_778
10
22.8124231
20
7.0804161
11
26.9124231
21
7.0804161
0
LINE
8
DEFAULT_255_2_778
10
26.9124231
20
7.0804161
11
26.9124231
21
46.6803161
0
LINE
8
DEFAULT_255_2_778
10
22.8126293
20
78.1802782
11
19.8125293
21
77.6801782
0
LINE
8
DEFAULT_255_2_778
10
19.8125293
20
77.6801782
11
19.8125293
21
46.6802782
0
LINE
8
DEFAULT_255_2_778
10
22.8126293
20
15.1803782
11
19.8125293
21
15.6803782
0
LINE
8
DEFAULT_255_2_778
10
19.8125293
20
15.6803782
11
19.8125293
21
46.6802782
0
LINE
8
DEFAULT_255_2_778
10
22.8124293
20
78.1802782
11
25.8125293
21
78.6803782
0
LINE
8
DEFAULT_255_2_778
10
25.8125293
20
78.6803782
11
25.8125293
21
46.6802782
0
LINE
8
DEFAULT_255_2_778
10
22.8124293
20
15.1803782
11
25.8125293
21
14.6802782
0
LINE
8
DEFAULT_255_2_778
10
25.8125293
20
14.6802782
11
25.8125293
21
46.6802782
0
LINE
8
DEFAULT_255_2_778
10
22.8124293
20
81.1803782
11
18.8124293
21
81.1803782
0
LINE
8
DEFAULT_255_2_778
10
18.8124293
20
81.1803782
11
18.8124293
21
46.6802782
0
LINE
8
DEFAULT_255_2_778
10
22.8124293
20
12.1801782
11
18.8124293
21
12.1801782
0
LINE
8
DEFAULT_255_2_778
10
18.8124293
20
12.1801782
11
18.8124293
21
46.6802782
0
LINE
8
DEFAULT_255_2_778
10
22.8124293
20
81.1803782
11
26.8123293
21
81.1803782
0
LINE
8
DEFAULT_255_2_778
10
26.8123293
20
81.1803782
11
26.8123293
21
46.6802782
0
LINE
8
DEFAULT_255_2_778
10
22.8124293
20
12.1801782
11
26.8123293
21
12.1801782
0
LINE
8
DEFAULT_255_2_778
10
26.8123293
20
12.1801782
11
26.8123293
21
46.6802782
0
ARC
8
DEFAULT_255_2_778
10
22.8153076
20
84.1834465
40
1.297198
50
359.8675993
51
31.7229145
0
ARC
8
DEFAULT_255_2_778
10
22.8161594
20
84.1839633
40
1.2962017
50
31.723283
51
82.9773607
0
ARC
8
DEFAULT_255_2_778
10
22.8129504
20
84.1561952
40
1.3241537
50
82.9864487
51
90.0150691
0
ARC
8
DEFAULT_255_2_778
10
22.8096045
20
84.1831544
40
1.297198
50
89.8675993
51
121.7229145
0
ARC
8
DEFAULT_255_2_778
10
22.8090878
20
84.1840062
40
1.2962017
50
121.723283
51
172.9773607
0
ARC
8
DEFAULT_255_2_778
10
22.8368558
20
84.1807972
40
1.3241537
50
172.9864487
51
180.0150691
0
ARC
8
DEFAULT_255_2_778
10
22.8153076
20
84.1774513
40
1.297198
50
328.2770855
51
0.1324007
0
ARC
8
DEFAULT_255_2_778
10
22.8161594
20
84.1769346
40
1.2962017
50
277.0226393
51
328.276717
0
ARC
8
DEFAULT_255_2_778
10
22.8129504
20
84.2047026
40
1.3241537
50
269.9849309
51
277.0135513
0
ARC
8
DEFAULT_255_2_778
10
22.8096045
20
84.1777435
40
1.297198
50
238.2770855
51
270.1324007
0
ARC
8
DEFAULT_255_2_778
10
22.8090878
20
84.1768917
40
1.2962017
50
187.0226393
51
238.276717
0
ARC
8
DEFAULT_255_2_778
10
22.8368558
20
84.1801007
40
1.3241537
50
179.9849309
51
187.0135513
0
LINE
8
DEFAULT_255_2_778
10
18.8124293
20
84.1804416
11
18.8124293
21
81.2803416
0
LINE
8
DEFAULT_255_2_778
10
18.8124293
20
81.2803416
11
26.8123293
21
81.2803416
0
LINE
8
DEFAULT_255_2_778
10
26.8123293
20
81.2803416
11
26.8123293
21
84.1804416
0
LINE
8
DEFAULT_255_2_778
10
18.8124293
20
84.1804416
11
18.8124293
21
86.1804416
0
LINE
8
DEFAULT_255_2_778
10
18.8124293
20
86.1804416
11
26.8123293
21
86.1804416
0
LINE
8
DEFAULT_255_2_778
10
26.8123293
20
86.1804416
11
26.8123293
21
84.1804416
0
ARC
8
DEFAULT_255_2_778
10
22.8153076
20
9.1833465
40
1.297198
50
359.8675993
51
31.7229145
0
ARC
8
DEFAULT_255_2_778
10
22.8161594
20
9.1838633
40
1.2962017
50
31.723283
51
82.9773607
0
ARC
8
DEFAULT_255_2_778
10
22.8129504
20
9.1560952
40
1.3241537
50
82.9864487
51
90.0150691
0
ARC
8
DEFAULT_255_2_778
10
22.8096045
20
9.1830544
40
1.297198
50
89.8675993
51
121.7229145
0
ARC
8
DEFAULT_255_2_778
10
22.8090878
20
9.1839062
40
1.2962017
50
121.723283
51
172.9773607
0
ARC
8
DEFAULT_255_2_778
10
22.8368558
20
9.1806972
40
1.3241537
50
172.9864487
51
180.0150691
0
ARC
8
DEFAULT_255_2_778
10
22.8153076
20
9.1773513
40
1.297198
50
328.2770855
51
0.1324007
0
ARC
8
DEFAULT_255_2_778
10
22.8161594
20
9.1768346
40
1.2962017
50
277.0226393
51
328.276717
0
ARC
8
DEFAULT_255_2_778
10
22.8129504
20
9.2046026
40
1.3241537
50
269.9849309
51
277.0135513
0
ARC
8
DEFAULT_255_2_778
10
22.8096045
20
9.1776435
40
1.297198
50
238.2770855
51
270.1324007
0
ARC
8
DEFAULT_255_2_778
10
22.8090878
20
9.1767917
40
1.2962017
50
187.0226393
51
238.276717
0
ARC
8
DEFAULT_255_2_778
10
22.8368558
20
9.1800007
40
1.3241537
50
179.9849309
51
187.0135513
0
LINE
8
DEFAULT_255_2_778
10
26.8123293
20
9.1803416
11
26.8123293
21
12.0804416
0
LINE
8
DEFAULT_255_2_778
10
26.8123293
20
12.0804416
11
18.8124293
21
12.0804416
0
LINE
8
DEFAULT_255_2_778
10
18.8124293
20
12.0804416
11
18.8124293
21
9.1803416
0
LINE
8
DEFAULT_255_2_778
10
26.8123293
20
9.1803416
11
26.8123293
21
7.1803416
0
LINE
8
DEFAULT_255_2_778
10
26.8123293
20
7.1803416
11
18.8124293
21
7.1803416
0
LINE
8
DEFAULT_255_2_778
10
18.8124293
20
7.1803416
11
18.8124293
21
9.1803416
0
ENDSEC
0
EOF