0
SECTION
2
HEADER
9
$MEASUREMENT
70
1
0
ENDSEC
0
SECTION
2
TABLES
0
TABLE
2
LTYPE
0
LTYPE
72
65
70
64
2
CONTINUOUS
3
______
73
0
40
0
0
ENDTAB
0
TABLE
2
LAYER
0
LAYER
2
DEFAULT_255_2_778
70
0
62
255
6
CONTINUOUS
0
ENDTAB
0
ENDSEC
0
SECTION
2
ENTITIES
0
LINE
8
DEFAULT_255_2_778
10
2.5530305
20
129.7803205
11
0.1530305
21
129.7803205
0
LINE
8
DEFAULT_255_2_778
10
0.1530305
20
129.7803205
11
0.1530305
21
108.3803205
0
LINE
8
DEFAULT_255_2_778
10
0.1530305
20
108.3803205
11
2.5530305
21
108.3803205
0
LINE
8
DEFAULT_255_2_778
10
2.5530305
20
108.3803205
11
2.5530305
21
129.7803205
0
LINE
8
DEFAULT_255_2_778
10
1.1531305
20
108.2803205
11
1.1531305
21
108.3803205
0
LINE
8
DEFAULT_255_2_778
10
2.5530305
20
128.7802205
11
2.6530305
21
128.7802205
0
LINE
8
DEFAULT_255_2_778
10
98.6531305
20
129.7803205
11
99.5421305
21
125.7803205
0
LINE
8
DEFAULT_255_2_778
10
98.6531379
20
129.7803534
11
2.6530379
21
129.7803534
0
LINE
8
DEFAULT_255_2_778
10
2.6530379
20
129.7803534
11
2.6530379
21
108.2803534
0
LINE
8
DEFAULT_255_2_778
10
2.6530379
20
108.2803534
11
0.1530379
21
108.2803534
0
LINE
8
DEFAULT_255_2_778
10
0.1530379
20
108.2803534
11
0.1530379
21
-0.2197466
0
LINE
8
DEFAULT_255_2_778
10
0.1530379
20
-0.2197466
11
100.6531379
21
-0.2197466
0
LINE
8
DEFAULT_255_2_778
10
100.6531379
20
-0.2197466
11
100.6531379
21
120.7802534
0
LINE
8
DEFAULT_255_2_778
10
100.6531379
20
120.7802534
11
99.5421379
21
125.7803534
0
ENDSEC
0
EOF