0
SECTION
2
HEADER
9
$MEASUREMENT
70
1
0
ENDSEC
0
SECTION
2
TABLES
0
TABLE
2
LTYPE
0
LTYPE
72
65
70
64
2
CONTINUOUS
3
______
73
0
40
0
0
ENDTAB
0
TABLE
2
LAYER
0
LAYER
2
DEFAULT_255_2_778
70
0
62
255
6
CONTINUOUS
0
ENDTAB
0
ENDSEC
0
SECTION
2
ENTITIES
0
ARC
8
DEFAULT_255_2_778
10
17.4581323
20
64.8767693
40
7.5965386
50
259.3215687
51
270.0313493
0
ARC
8
DEFAULT_255_2_778
10
17.4338829
20
64.7387127
40
7.4563796
50
245.5173183
51
259.3081066
0
ARC
8
DEFAULT_255_2_778
10
17.4527493
20
64.7704445
40
7.4930779
50
203.5462496
51
245.4865802
0
ARC
8
DEFAULT_255_2_778
10
17.4238149
20
64.7527051
40
7.4594673
50
189.9873096
51
203.5101235
0
ARC
8
DEFAULT_255_2_778
10
17.5659904
20
64.7764273
40
7.6036024
50
179.9720847
51
189.9775528
0
ARC
8
DEFAULT_255_2_778
10
17.558991
20
64.7842841
40
7.5966034
50
169.3220466
51
180.0313173
0
ARC
8
DEFAULT_255_2_778
10
17.421029
20
64.8085165
40
7.4565406
50
155.5184308
51
169.3086
0
ARC
8
DEFAULT_255_2_778
10
17.4524988
20
64.7898087
40
7.4929349
50
113.546936
51
155.4879605
0
ARC
8
DEFAULT_255_2_778
10
17.4347763
20
64.8186427
40
7.4594231
50
99.9873064
51
113.5106234
0
ARC
8
DEFAULT_255_2_778
10
17.4585793
20
64.6760131
40
7.6040197
50
89.9720498
51
99.9775566
0
ARC
8
DEFAULT_255_2_778
10
17.4666487
20
64.8770233
40
7.5967926
50
269.9686254
51
280.6782523
0
ARC
8
DEFAULT_255_2_778
10
17.4909417
20
64.7387404
40
7.4564032
50
280.6917042
51
294.4825656
0
ARC
8
DEFAULT_255_2_778
10
17.4721398
20
64.7703261
40
7.4929417
50
294.5133186
51
336.4542843
0
ARC
8
DEFAULT_255_2_778
10
17.5008742
20
64.7526855
40
7.4595541
50
336.4903308
51
350.0129607
0
ARC
8
DEFAULT_255_2_778
10
17.3586044
20
64.7764262
40
7.6037853
50
350.022698
51
0.0279229
0
ARC
8
DEFAULT_255_2_778
10
17.366173
20
64.7842831
40
7.5962169
50
359.9686886
51
10.6785108
0
ARC
8
DEFAULT_255_2_778
10
17.5038868
20
64.8084656
40
7.4564072
50
10.6919919
51
24.4824662
0
ARC
8
DEFAULT_255_2_778
10
17.472053
20
64.7895682
40
7.4932113
50
24.5130963
51
66.4528131
0
ARC
8
DEFAULT_255_2_778
10
17.4899147
20
64.8187235
40
7.4593495
50
66.4891196
51
80.0123232
0
ARC
8
DEFAULT_255_2_778
10
17.4661921
20
64.6765378
40
7.603495
50
80.0220976
51
90.0279067
0
LINE
8
DEFAULT_255_2_778
10
17.8374888
20
42.1553319
11
19.0872888
21
42.1553319
0
LINE
8
DEFAULT_255_2_778
10
19.0872888
20
42.1553319
11
19.0872888
21
43.4052319
0
LINE
8
DEFAULT_255_2_778
10
19.0872888
20
43.4052319
11
17.8374888
21
43.4052319
0
LINE
8
DEFAULT_255_2_778
10
17.8374888
20
43.4052319
11
17.8374888
21
42.1553319
0
LINE
8
DEFAULT_255_2_778
10
17.8374888
20
67.1553319
11
19.0872888
21
67.1553319
0
LINE
8
DEFAULT_255_2_778
10
19.0872888
20
67.1553319
11
19.0872888
21
68.4052319
0
LINE
8
DEFAULT_255_2_778
10
19.0872888
20
68.4052319
11
17.8374888
21
68.4052319
0
LINE
8
DEFAULT_255_2_778
10
17.8374888
20
68.4052319
11
17.8374888
21
67.1553319
0
ARC
8
DEFAULT_255_2_778
10
17.4612369
20
64.7748151
40
6.5944841
50
253.4717717
51
270.0107041
0
ARC
8
DEFAULT_255_2_778
10
17.4637525
20
64.7820361
40
6.6021223
50
216.9221198
51
253.4686705
0
ARC
8
DEFAULT_255_2_778
10
17.4691827
20
64.7838332
40
6.6075434
50
209.9962996
51
216.9062915
0
ARC
8
DEFAULT_255_2_778
10
17.4620266
20
64.7809771
40
6.599918
50
199.0978326
51
210.0058845
0
ARC
8
DEFAULT_255_2_778
10
17.4612189
20
64.7796214
40
6.5987111
50
181.181755
51
199.0890038
0
ARC
8
DEFAULT_255_2_778
10
17.47195
20
64.7804031
40
6.6094561
50
180.0000826
51
181.1866116
0
LINE
8
DEFAULT_255_2_778
10
10.8624939
20
64.7803936
11
10.8624939
21
64.7807546
0
ARC
8
DEFAULT_255_2_778
10
17.4625196
20
64.7809526
40
6.6000257
50
161.3810994
51
180.0017196
0
ARC
8
DEFAULT_255_2_778
10
17.4614065
20
64.7802393
40
6.5991986
50
150.3537546
51
161.3721445
0
ARC
8
DEFAULT_255_2_778
10
17.481929
20
64.7694544
40
6.6223692
50
150.0020777
51
150.3604878
0
ARC
8
DEFAULT_255_2_778
10
17.458591
20
64.7839335
40
6.5949185
50
133.471649
51
150.0096469
0
ARC
8
DEFAULT_255_2_778
10
17.4633452
20
64.7784619
40
6.6021601
50
96.9230455
51
133.468922
0
ARC
8
DEFAULT_255_2_778
10
17.4620633
20
64.7734304
40
6.6070007
50
89.9964828
51
96.9067511
0
ARC
8
DEFAULT_255_2_778
10
17.4637187
20
64.7749913
40
6.5946604
50
269.989142
51
286.5280055
0
ARC
8
DEFAULT_255_2_778
10
17.4612858
20
64.7818645
40
6.6019416
50
286.5312775
51
323.0785645
0
ARC
8
DEFAULT_255_2_778
10
17.4554994
20
64.7839751
40
6.6078358
50
323.0940741
51
330.0037435
0
ARC
8
DEFAULT_255_2_778
10
17.4632631
20
64.7810568
40
6.5996532
50
329.9919882
51
340.9006391
0
ARC
8
DEFAULT_255_2_778
10
17.4643063
20
64.7796241
40
6.5981988
50
340.9094315
51
358.8181294
0
ARC
8
DEFAULT_255_2_778
10
17.4549274
20
64.7803934
40
6.6075916
50
358.8131373
51
0.0000011
0
LINE
8
DEFAULT_255_2_778
10
24.0625189
20
64.7803936
11
24.0625189
21
64.7807546
0
ARC
8
DEFAULT_255_2_778
10
17.4630079
20
64.7809504
40
6.5995111
50
359.9983001
51
18.6204271
0
ARC
8
DEFAULT_255_2_778
10
17.4638998
20
64.7801646
40
6.5989166
50
18.6293648
51
29.6483835
0
ARC
8
DEFAULT_255_2_778
10
17.4274276
20
64.7602351
40
6.6404726
50
29.6421572
51
29.9995977
0
ARC
8
DEFAULT_255_2_778
10
17.4661837
20
64.7838541
40
6.5950995
50
29.9902417
51
46.5276939
0
ARC
8
DEFAULT_255_2_778
10
17.461696
20
64.7786512
40
6.601963
50
46.530496
51
83.0774157
0
ARC
8
DEFAULT_255_2_778
10
17.4628777
20
64.7730386
40
6.6073924
50
83.0934547
51
90.003545
0
ARC
8
DEFAULT_255_2_778
10
17.4612533
20
64.7852382
40
4.9950153
50
89.9884418
51
116.9300555
0
ARC
8
DEFAULT_255_2_778
10
17.4680793
20
64.7735016
40
5.0085708
50
116.9388673
51
122.9598425
0
ARC
8
DEFAULT_255_2_778
10
13.9648165
20
68.3529699
40
0.9969596
50
14.3052973
51
38.6736307
0
ARC
8
DEFAULT_255_2_778
10
13.9606529
20
68.3522621
40
1.0011693
50
0.8333692
51
14.2856729
0
ARC
8
DEFAULT_255_2_778
10
13.958758
20
68.3520909
40
1.0030665
50
359.9992616
51
0.8415689
0
ARC
8
DEFAULT_255_2_778
10
13.9632002
20
68.351166
40
0.9986247
50
321.0956558
51
0.0523264
0
ARC
8
DEFAULT_255_2_778
10
13.9565884
20
68.3572966
40
1.0076203
50
314.4141315
51
321.0604875
0
ARC
8
DEFAULT_255_2_778
10
13.9634243
20
68.3481073
40
0.9962734
50
287.1876271
51
314.5031688
0
ARC
8
DEFAULT_255_2_778
10
13.961603
20
68.3548025
40
1.0032078
50
269.9934558
51
287.1740091
0
ARC
8
DEFAULT_255_2_778
10
13.9614683
20
68.3552348
40
1.0036401
50
269.43847
51
270.0011477
0
ARC
8
DEFAULT_255_2_778
10
13.9606773
20
68.3488703
40
0.9972682
50
236.8485068
51
269.4803278
0
ARC
8
DEFAULT_255_2_778
10
13.9665512
20
68.3573167
40
1.0075521
50
230.2335604
51
236.8315118
0
ARC
8
DEFAULT_255_2_778
10
17.4633354
20
64.7783421
40
5.0015435
50
145.893761
51
158.5265988
0
ARC
8
DEFAULT_255_2_778
10
17.4610361
20
64.7807534
40
4.9989605
50
201.4701286
51
214.1095206
0
ARC
8
DEFAULT_255_2_778
10
13.9603794
20
61.2120137
40
0.9966687
50
104.9834162
51
129.8255394
0
ARC
8
DEFAULT_255_2_778
10
13.9613133
20
61.2072102
40
1.0015502
50
90.5538327
51
104.9639762
0
ARC
8
DEFAULT_255_2_778
10
13.9614687
20
61.2050427
40
1.0037192
50
89.9988439
51
90.56151
0
ARC
8
DEFAULT_255_2_778
10
13.9623805
20
61.210389
40
0.9983734
50
52.3798337
51
90.0511659
0
ARC
8
DEFAULT_255_2_778
10
13.9564917
20
61.2037002
40
1.0072665
50
45.5584482
51
52.3467605
0
ARC
8
DEFAULT_255_2_778
10
13.9647025
20
61.2102077
40
0.9968723
50
18.1584873
51
45.6335028
0
ARC
8
DEFAULT_255_2_778
10
13.9583479
20
61.2083905
40
1.0034768
50
359.9945297
51
18.1439999
0
ARC
8
DEFAULT_255_2_778
10
13.9572373
20
61.2082952
40
1.0045872
50
359.1660893
51
359.9999705
0
ARC
8
DEFAULT_255_2_778
10
13.9649899
20
61.2075117
40
0.9968242
50
328.0439877
51
359.2046369
0
ARC
8
DEFAULT_255_2_778
10
13.9558969
20
61.2134588
40
1.0076868
50
321.3759703
51
328.0307287
0
ARC
8
DEFAULT_255_2_778
10
17.4614556
20
64.775195
40
4.9951418
50
237.0308286
51
269.9996515
0
LINE
8
DEFAULT_255_2_778
10
17.4614253
20
59.7800533
11
17.4624609
21
59.7800534
0
LINE
8
DEFAULT_255_2_778
10
17.4622609
20
69.7802534
11
17.463424
21
69.7802535
0
ARC
8
DEFAULT_255_2_778
10
17.4634952
20
64.7838983
40
4.9963553
50
60.6061058
51
90.0008159
0
ARC
8
DEFAULT_255_2_778
10
21.1363605
20
68.4566836
40
1.3974142
50
150.8644342
51
169.9369239
0
ARC
8
DEFAULT_255_2_778
10
21.1367432
20
68.4568897
40
1.397755
50
169.9479835
51
177.8269753
0
ARC
8
DEFAULT_255_2_778
10
21.1400556
20
68.4567203
40
1.4010717
50
177.8251856
51
179.9998343
0
ARC
8
DEFAULT_255_2_778
10
21.1380534
20
68.456118
40
1.3990696
50
179.975169
51
219.7500899
0
ARC
8
DEFAULT_255_2_778
10
21.1437217
20
68.4615629
40
1.4069094
50
219.7729675
51
225.0042821
0
ARC
8
DEFAULT_255_2_778
10
21.1371431
20
68.4536123
40
1.3966359
50
224.9645152
51
252.5041051
0
ARC
8
DEFAULT_255_2_778
10
21.1391611
20
68.45976
40
1.403106
50
252.5009833
51
269.998291
0
ARC
8
DEFAULT_255_2_778
10
21.1391258
20
68.4575536
40
1.4008997
50
269.9997312
51
272.1710674
0
ARC
8
DEFAULT_255_2_778
10
21.1395409
20
68.4524628
40
1.3957967
50
272.1619571
51
294.6147646
0
ARC
8
DEFAULT_255_2_778
10
21.1346848
20
68.4633994
40
1.4077623
50
294.6090467
51
299.1014655
0
ARC
8
DEFAULT_255_2_778
10
17.4784475
20
64.7878308
40
4.98238
50
21.4428376
51
29.3954273
0
ARC
8
DEFAULT_255_2_778
10
17.4689349
20
64.7776678
40
4.9931324
50
325.8879475
51
338.5416145
0
ARC
8
DEFAULT_255_2_778
10
20.9644993
20
61.2116764
40
0.9970194
50
50.1805628
51
75.0143662
0
ARC
8
DEFAULT_255_2_778
10
20.9636555
20
61.2071639
40
1.0015967
50
75.034488
51
89.4430862
0
ARC
8
DEFAULT_255_2_778
10
20.9634827
20
61.2028918
40
1.0058702
50
89.435609
51
89.9999935
0
ARC
8
DEFAULT_255_2_778
10
20.9626131
20
61.2102366
40
0.9985258
50
89.9500957
51
127.6171847
0
ARC
8
DEFAULT_255_2_778
10
20.9687313
20
61.2031954
40
1.0078379
50
127.6483632
51
134.4336832
0
ARC
8
DEFAULT_255_2_778
10
20.960433
20
61.2101878
40
0.9970359
50
134.3744781
51
162.1962916
0
ARC
8
DEFAULT_255_2_778
10
20.966764
20
61.2083794
40
1.0036168
50
162.2085057
51
180.0047455
0
ARC
8
DEFAULT_255_2_778
10
20.9679534
20
61.2082968
40
1.004806
50
180.0000295
51
180.8338194
0
ARC
8
DEFAULT_255_2_778
10
20.9597705
20
61.2074996
40
0.9966127
50
180.7948389
51
211.9627763
0
ARC
8
DEFAULT_255_2_778
10
20.9688611
20
61.2134492
40
1.0074746
50
211.9761588
51
218.6329689
0
ARC
8
DEFAULT_255_2_778
10
17.4635418
20
64.7752773
40
4.9952241
50
269.9994826
51
302.9688929
0
LINE
8
DEFAULT_255_2_778
10
17.4634966
20
59.7800533
11
17.4624609
21
59.7800534
0
LINE
8
DEFAULT_255_2_778
10
12.8089609
20
66.6092534
11
13.1624609
21
66.4052534
0
LINE
8
DEFAULT_255_2_778
10
13.1624609
20
66.4052534
11
13.1624609
21
63.1550534
0
LINE
8
DEFAULT_255_2_778
10
13.1624609
20
63.1550534
11
12.8089609
21
62.9510534
0
LINE
8
DEFAULT_255_2_778
10
22.1159609
20
66.6092534
11
21.7624609
21
66.4052534
0
LINE
8
DEFAULT_255_2_778
10
21.7624609
20
66.4052534
11
21.7624609
21
63.1550534
0
LINE
8
DEFAULT_255_2_778
10
21.7624609
20
63.1550534
11
22.1159609
21
62.9510534
0
LINE
8
DEFAULT_255_2_778
10
17.4624609
20
-0.2197466
11
0.2124609
21
-0.2197466
0
LINE
8
DEFAULT_255_2_778
10
0.2124609
20
-0.2197466
11
0.2124609
21
129.7803534
0
LINE
8
DEFAULT_255_2_778
10
0.2124609
20
129.7803534
11
17.4624609
21
129.7803534
0
LINE
8
DEFAULT_255_2_778
10
17.4624609
20
-0.2197466
11
34.7125609
21
-0.2197466
0
LINE
8
DEFAULT_255_2_778
10
34.7125609
20
-0.2197466
11
34.7125609
21
129.7803534
0
LINE
8
DEFAULT_255_2_778
10
34.7125609
20
129.7803534
11
17.4624609
21
129.7803534
0
ARC
8
DEFAULT_255_2_778
10
17.3656693
20
39.7846698
40
7.5967206
50
359.9686358
51
10.6781566
0
ARC
8
DEFAULT_255_2_778
10
17.5038264
20
39.8089378
40
7.4564594
50
10.6916158
51
24.4822271
0
ARC
8
DEFAULT_255_2_778
10
17.4722887
20
39.7901701
40
7.4929403
50
24.5128957
51
66.4538758
0
ARC
8
DEFAULT_255_2_778
10
17.489957
20
39.8189392
40
7.4595098
50
66.4900098
51
80.01287
0
ARC
8
DEFAULT_255_2_778
10
17.4661966
20
39.6765513
40
7.6038608
50
80.0226165
51
90.0279388
0
ARC
8
DEFAULT_255_2_778
10
17.4583438
20
39.6839425
40
7.5964699
50
89.9687369
51
100.6780472
0
ARC
8
DEFAULT_255_2_778
10
17.4341911
20
39.8214885
40
7.4568307
50
100.691505
51
114.4812244
0
ARC
8
DEFAULT_255_2_778
10
17.452911
20
39.7899239
40
7.4933161
50
114.5114786
51
156.4511873
0
ARC
8
DEFAULT_255_2_778
10
17.4234637
20
39.8079666
40
7.459114
50
156.4878658
51
170.0118304
0
ARC
8
DEFAULT_255_2_778
10
17.565781
20
39.7842208
40
7.603393
50
170.0216136
51
180.0279536
0
ARC
8
DEFAULT_255_2_778
10
17.3654153
20
39.7761492
40
7.5969746
50
349.3220225
51
0.0313895
0
ARC
8
DEFAULT_255_2_778
10
17.5037987
20
39.7518376
40
7.456483
50
335.517889
51
349.3085734
0
ARC
8
DEFAULT_255_2_778
10
17.472407
20
39.7705408
40
7.4928042
50
293.5455903
51
335.4872054
0
ARC
8
DEFAULT_255_2_778
10
17.4899766
20
39.7419718
40
7.4595966
50
279.9868597
51
293.5095359
0
ARC
8
DEFAULT_255_2_778
10
17.4661977
20
39.8844539
40
7.6040437
50
269.9720536
51
279.9771327
0
ARC
8
DEFAULT_255_2_778
10
17.4583428
20
39.8770849
40
7.5966748
50
259.3222516
51
270.0312699
0
ARC
8
DEFAULT_255_2_778
10
17.4341656
20
39.7394031
40
7.4568974
50
245.519224
51
259.308791
0
ARC
8
DEFAULT_255_2_778
10
17.4527916
20
39.7707861
40
7.4931786
50
203.5486873
51
245.4890454
0
ARC
8
DEFAULT_255_2_778
10
17.4235065
20
39.7528132
40
7.4591532
50
189.9879855
51
203.5120023
0
ARC
8
DEFAULT_255_2_778
10
17.5660393
20
39.7765985
40
7.6036514
50
179.9720229
51
189.9782171
0
ARC
8
DEFAULT_255_2_778
10
17.4905463
20
39.7948267
40
6.5720358
50
359.8727801
51
0.0007735
0
ARC
8
DEFAULT_255_2_778
10
17.4786751
20
39.7950705
40
6.5839072
50
359.9986505
51
24.5991499
0
ARC
8
DEFAULT_255_2_778
10
17.4780983
20
39.7954078
40
6.5842913
50
24.5943919
51
45.0028227
0
ARC
8
DEFAULT_255_2_778
10
17.4780052
20
39.796441
40
6.5836264
50
44.9958918
51
69.4245813
0
ARC
8
DEFAULT_255_2_778
10
17.4775388
20
39.7967409
40
6.5835096
50
69.4198634
51
90.0025191
0
ARC
8
DEFAULT_255_2_778
10
17.4771607
20
39.806112
40
6.5741384
50
89.9992279
51
90.1271987
0
ARC
8
DEFAULT_255_2_778
10
17.4479704
20
39.8054669
40
6.5747834
50
89.8728078
51
90.0007733
0
ARC
8
DEFAULT_255_2_778
10
17.4476497
20
39.7957187
40
6.5845317
50
89.9979811
51
114.5967749
0
ARC
8
DEFAULT_255_2_778
10
17.4468255
20
39.7963265
40
6.583636
50
114.5924546
51
135.0027815
0
ARC
8
DEFAULT_255_2_778
10
17.4469127
20
39.7954442
40
6.5843214
50
134.9978889
51
159.2499016
0
ARC
8
DEFAULT_255_2_778
10
17.4460671
20
39.795199
40
6.5836175
50
159.2452981
51
180.0024495
0
ARC
8
DEFAULT_255_2_778
10
17.436588
20
39.7948289
40
6.5741384
50
179.9992279
51
180.1271987
0
ARC
8
DEFAULT_255_2_778
10
17.489814
20
39.7656407
40
6.5727681
50
359.9992265
51
0.127213
0
ARC
8
DEFAULT_255_2_778
10
17.4785442
20
39.7653519
40
6.5840381
50
335.4010986
51
0.0017406
0
ARC
8
DEFAULT_255_2_778
10
17.478891
20
39.7646159
40
6.5834164
50
314.9950342
51
335.4056664
0
ARC
8
DEFAULT_255_2_778
10
17.4776318
20
39.7643777
40
6.5841383
50
290.5772077
51
315.0042491
0
ARC
8
DEFAULT_255_2_778
10
17.4775074
20
39.7631575
40
6.5830398
50
269.9977357
51
290.5819541
0
ARC
8
DEFAULT_255_2_778
10
17.4771585
20
39.7521537
40
6.5720359
50
269.8727801
51
270.0007735
0
ARC
8
DEFAULT_255_2_778
10
17.4479725
20
39.752886
40
6.5727681
50
269.9992265
51
270.127213
0
ARC
8
DEFAULT_255_2_778
10
17.4476959
20
39.7642871
40
6.5841694
50
245.4013477
51
270.0016346
0
ARC
8
DEFAULT_255_2_778
10
17.4472386
20
39.7645435
40
6.5842123
50
224.9971492
51
245.4058945
0
ARC
8
DEFAULT_255_2_778
10
17.4462012
20
39.7646417
40
6.5835481
50
200.5750337
51
225.0041371
0
ARC
8
DEFAULT_255_2_778
10
17.4462843
20
39.7652362
40
6.5838348
50
179.9972705
51
200.5796233
0
ARC
8
DEFAULT_255_2_778
10
17.4372331
20
39.7656386
40
6.5747835
50
179.8728078
51
180.0007733
0
ARC
8
DEFAULT_255_2_778
10
17.4732316
20
39.7852527
40
5.011827
50
201.4661207
51
214.0718064
0
ARC
8
DEFAULT_255_2_778
10
13.9603245
20
36.2115479
40
0.9971999
50
104.9934211
51
129.8189032
0
ARC
8
DEFAULT_255_2_778
10
13.9611566
20
36.2071023
40
1.0017095
50
90.5685813
51
104.9736132
0
ARC
8
DEFAULT_255_2_778
10
13.9613455
20
36.2028967
40
1.0059169
50
90.0011405
51
90.5769616
0
ARC
8
DEFAULT_255_2_778
10
13.9622385
20
36.2106873
40
0.9981266
50
52.3730653
51
90.0524098
0
ARC
8
DEFAULT_255_2_778
10
13.9562726
20
36.2039036
40
1.0071418
50
45.550481
51
52.3398756
0
ARC
8
DEFAULT_255_2_778
10
13.9648859
20
36.2104403
40
0.9964448
50
17.8051195
51
45.6408279
0
ARC
8
DEFAULT_255_2_778
10
13.958154
20
36.208499
40
1.0034481
50
359.994715
51
17.7931184
0
ARC
8
DEFAULT_255_2_778
10
13.9575524
20
36.2083936
40
1.0040496
50
359.1557414
51
0.000735
0
ARC
8
DEFAULT_255_2_778
10
13.9647947
20
36.2076223
40
0.9967968
50
328.0354383
51
359.1939355
0
ARC
8
DEFAULT_255_2_778
10
13.9557307
20
36.2135588
40
1.0076293
50
321.3672643
51
328.0219095
0
ARC
8
DEFAULT_255_2_778
10
17.4633304
20
39.7810215
40
5.0012037
50
237.046087
51
248.9870031
0
ARC
8
DEFAULT_255_2_778
10
17.4613408
20
39.779237
40
4.9988244
50
249.0009575
51
268.7039553
0
ARC
8
DEFAULT_255_2_778
10
17.4622541
20
39.7899358
40
5.0095411
50
268.6962791
51
270.000003
0
ARC
8
DEFAULT_255_2_778
10
17.462928
20
39.7803839
40
4.9999894
50
269.9922809
51
290.4165116
0
ARC
8
DEFAULT_255_2_778
10
17.4622065
20
39.7788947
40
4.9988456
50
290.4302157
51
302.1637251
0
ARC
8
DEFAULT_255_2_778
10
17.445816
20
39.8065174
40
5.0309543
50
302.1542777
51
302.9427732
0
ARC
8
DEFAULT_255_2_778
10
20.9598802
20
36.2075583
40
0.9969328
50
194.4580484
51
218.6826115
0
ARC
8
DEFAULT_255_2_778
10
20.9638753
20
36.2082179
40
1.0009661
50
180.8368009
51
194.4375109
0
ARC
8
DEFAULT_255_2_778
10
20.9669563
20
36.2083936
40
1.0040494
50
179.999265
51
180.8442586
0
ARC
8
DEFAULT_255_2_778
10
20.9614345
20
36.2093107
40
0.9985282
50
141.0946287
51
180.0518853
0
ARC
8
DEFAULT_255_2_778
10
20.968102
20
36.2031488
40
1.0075868
50
134.4140147
51
141.0600721
0
ARC
8
DEFAULT_255_2_778
10
20.9612556
20
36.2123571
40
0.9962192
50
107.188309
51
134.5033865
0
ARC
8
DEFAULT_255_2_778
10
20.9630664
20
36.2056854
40
1.0031281
50
89.9933202
51
107.1745035
0
ARC
8
DEFAULT_255_2_778
10
20.9631633
20
36.2028967
40
1.0059167
50
89.4230384
51
89.9988595
0
ARC
8
DEFAULT_255_2_778
10
20.9639755
20
36.2113915
40
0.9974146
50
56.8423829
51
89.4647773
0
ARC
8
DEFAULT_255_2_778
10
20.957939
20
36.2026577
40
1.0080279
50
50.232033
51
56.8266588
0
ARC
8
DEFAULT_255_2_778
10
17.4582536
20
39.7830146
40
5.0047947
50
325.9046731
51
338.5297532
0
ARC
8
DEFAULT_255_2_778
10
17.4706752
20
39.7765321
40
5.0089556
50
145.9245615
51
158.5375027
0
ARC
8
DEFAULT_255_2_778
10
13.9602095
20
43.3487573
40
0.9970235
50
230.1812444
51
255.0107031
0
ARC
8
DEFAULT_255_2_778
10
13.9610945
20
43.3533892
40
1.0017268
50
255.0303281
51
269.4349816
0
ARC
8
DEFAULT_255_2_778
10
13.9612678
20
43.3540235
40
1.0023627
50
269.4254322
51
269.9999932
0
ARC
8
DEFAULT_255_2_778
10
13.9621685
20
43.35005
40
0.9983895
50
269.9483052
51
307.6198535
0
ARC
8
DEFAULT_255_2_778
10
13.9563096
20
43.3566963
40
1.0072306
50
307.653056
51
314.4416129
0
ARC
8
DEFAULT_255_2_778
10
13.9648859
20
43.3499988
40
0.9964448
50
314.3591721
51
342.1948805
0
ARC
8
DEFAULT_255_2_778
10
13.958154
20
43.3519401
40
1.0034481
50
342.2068816
51
0.005285
0
ARC
8
DEFAULT_255_2_778
10
13.9575524
20
43.3520455
40
1.0040496
50
359.999265
51
0.8442586
0
ARC
8
DEFAULT_255_2_778
10
13.9647947
20
43.3528168
40
0.9967968
50
0.8060645
51
31.9645617
0
ARC
8
DEFAULT_255_2_778
10
13.9557307
20
43.3468804
40
1.0076293
50
31.9780905
51
38.6327357
0
ARC
8
DEFAULT_255_2_778
10
17.4623409
20
39.781188
40
4.9991799
50
110.0577786
51
122.9554343
0
ARC
8
DEFAULT_255_2_778
10
17.4622184
20
39.7784892
40
5.001673
50
89.994717
51
110.0458569
0
ARC
8
DEFAULT_255_2_778
10
17.4626562
20
39.7662282
40
5.0139341
50
89.4946788
51
89.9997326
0
ARC
8
DEFAULT_255_2_778
10
17.4632941
20
39.7819904
40
4.9981668
50
71.1279841
51
89.5003976
0
ARC
8
DEFAULT_255_2_778
10
17.4613521
20
39.7789862
40
5.0016377
50
60.6160464
51
71.1180651
0
ARC
8
DEFAULT_255_2_778
10
21.1362846
20
43.4569113
40
1.3975613
50
150.8730283
51
169.9471464
0
ARC
8
DEFAULT_255_2_778
10
21.1369315
20
43.4570586
40
1.3981727
50
169.9577177
51
177.8364222
0
ARC
8
DEFAULT_255_2_778
10
21.139579
20
43.4569009
40
1.4008242
50
177.834065
51
180.0002796
0
ARC
8
DEFAULT_255_2_778
10
21.1380921
20
43.4562594
40
1.3993374
50
179.9740154
51
219.74715
0
ARC
8
DEFAULT_255_2_778
10
21.1433562
20
43.4614218
40
1.4066858
50
219.7717239
51
225.0043304
0
ARC
8
DEFAULT_255_2_778
10
21.136866
20
43.4537998
40
1.3967071
50
224.9715328
51
252.5943519
0
ARC
8
DEFAULT_255_2_778
10
21.138919
20
43.4600357
40
1.4032715
50
252.5905319
51
269.9982745
0
ARC
8
DEFAULT_255_2_778
10
21.138878
20
43.4578964
40
1.4011323
50
269.9999482
51
272.172399
0
ARC
8
DEFAULT_255_2_778
10
21.1393043
20
43.4526544
40
1.395878
50
272.1630688
51
294.6145975
0
ARC
8
DEFAULT_255_2_778
10
21.1344783
20
43.4635157
40
1.4077624
50
294.6090466
51
299.1014655
0
ARC
8
DEFAULT_255_2_778
10
17.4513838
20
39.7754749
40
5.0119016
50
21.4622428
51
29.3689498
0
ARC
8
DEFAULT_255_2_778
10
15.7649435
20
85.5729628
40
1.7924951
50
269.9172416
51
296.062542
0
ARC
8
DEFAULT_255_2_778
10
15.7604555
20
85.5816288
40
1.8022517
50
296.0696674
51
350.5890409
0
ARC
8
DEFAULT_255_2_778
10
15.7499826
20
85.5796999
40
1.8122718
50
350.7033465
51
0.0211728
0
ARC
8
DEFAULT_255_2_778
10
15.764945
20
85.5879041
40
1.7924673
50
63.9370787
51
90.0828073
0
ARC
8
DEFAULT_255_2_778
10
15.7604089
20
85.579189
40
1.8022892
50
9.4091003
51
63.9292644
0
ARC
8
DEFAULT_255_2_778
10
15.7496662
20
85.5810407
40
1.8125882
50
359.9787853
51
9.295842
0
ARC
8
DEFAULT_255_2_778
10
8.1598533
20
85.5876756
40
1.7926959
50
89.9168684
51
116.0612339
0
ARC
8
DEFAULT_255_2_778
10
8.1642696
20
85.57919
40
1.802259
50
116.0688391
51
170.5907706
0
ARC
8
DEFAULT_255_2_778
10
8.1750124
20
85.5810419
40
1.8125581
50
170.7040416
51
180.0212539
0
ARC
8
DEFAULT_255_2_778
10
8.1598548
20
85.5731913
40
1.7927236
50
243.9391455
51
270.0830827
0
ARC
8
DEFAULT_255_2_778
10
8.1641592
20
85.5815618
40
1.8021342
50
189.1528718
51
243.933124
0
ARC
8
DEFAULT_255_2_778
10
8.1752707
20
85.5797305
40
1.8128165
50
179.9798026
51
189.0398651
0
LINE
8
DEFAULT_255_2_778
10
13.1625544
20
39.7802696
11
13.1625544
21
38.1551696
0
LINE
8
DEFAULT_255_2_778
10
13.1625544
20
38.1551696
11
12.8090544
21
37.9511696
0
LINE
8
DEFAULT_255_2_778
10
22.1157544
20
37.9511696
11
21.7622544
21
38.1551696
0
LINE
8
DEFAULT_255_2_778
10
21.7622544
20
38.1551696
11
21.7622544
21
39.7802696
0
LINE
8
DEFAULT_255_2_778
10
13.1625544
20
39.7802696
11
13.1625544
21
41.4052696
0
LINE
8
DEFAULT_255_2_778
10
13.1625544
20
41.4052696
11
12.8090544
21
41.6092696
0
LINE
8
DEFAULT_255_2_778
10
22.1157544
20
41.6092696
11
21.7622544
21
41.4052696
0
LINE
8
DEFAULT_255_2_778
10
21.7622544
20
41.4052696
11
21.7622544
21
39.7802696
0
LINE
8
DEFAULT_255_2_778
10
11.9623544
20
83.7804696
11
15.7623544
21
83.7804696
0
LINE
8
DEFAULT_255_2_778
10
11.9623544
20
87.3803696
11
15.7623544
21
87.3803696
0
LINE
8
DEFAULT_255_2_778
10
11.9623544
20
87.3803696
11
8.1624544
21
87.3803696
0
LINE
8
DEFAULT_255_2_778
10
11.9623544
20
83.7804696
11
8.1624544
21
83.7804696
0
ARC
8
DEFAULT_255_2_778
10
10.1664368
20
85.5816672
40
0.9960851
50
359.917714
51
41.6472347
0
ARC
8
DEFAULT_255_2_778
10
10.1636847
20
85.5825603
40
0.9975513
50
41.5038595
51
88.2696505
0
ARC
8
DEFAULT_255_2_778
10
10.1625306
20
85.561381
40
1.0187558
50
88.2407396
51
90.0005454
0
ARC
8
DEFAULT_255_2_778
10
10.1610695
20
85.5838566
40
0.9962812
50
89.9165325
51
131.6420984
0
ARC
8
DEFAULT_255_2_778
10
10.159937
20
85.5813676
40
0.9973918
50
131.4984726
51
178.2678032
0
ARC
8
DEFAULT_255_2_778
10
10.180912
20
85.5802464
40
1.0183913
50
178.2404235
51
180.0005453
0
ARC
8
DEFAULT_255_2_778
10
10.1662817
20
85.5789808
40
0.9962403
50
318.3561595
51
0.0837306
0
ARC
8
DEFAULT_255_2_778
10
10.1636898
20
85.5779715
40
0.9975096
50
271.7301295
51
318.4984071
0
ARC
8
DEFAULT_255_2_778
10
10.1625306
20
85.5991923
40
1.0187558
50
269.9994546
51
271.7592604
0
ARC
8
DEFAULT_255_2_778
10
10.161065
20
85.5766759
40
0.9962403
50
228.3561595
51
270.0837306
0
ARC
8
DEFAULT_255_2_778
10
10.1600558
20
85.5792678
40
0.9975096
50
181.7301295
51
228.4984071
0
ARC
8
DEFAULT_255_2_778
10
10.1812765
20
85.580427
40
1.0187558
50
179.9994546
51
181.7592604
0
ARC
8
DEFAULT_255_2_778
10
11.5058367
20
100.2781382
40
2.178517
50
179.9395505
51
202.9106009
0
ARC
8
DEFAULT_255_2_778
10
11.5146559
20
100.2836978
40
2.1888053
50
202.9547797
51
259.8504651
0
ARC
8
DEFAULT_255_2_778
10
11.5119447
20
100.2946379
40
2.1991012
50
259.9702256
51
270.0098018
0
ARC
8
DEFAULT_255_2_778
10
11.5190051
20
100.2781382
40
2.178517
50
337.0893991
51
0.0604495
0
ARC
8
DEFAULT_255_2_778
10
11.5101859
20
100.2836978
40
2.1888053
50
280.1495349
51
337.0452203
0
ARC
8
DEFAULT_255_2_778
10
11.5128971
20
100.2946379
40
2.1991012
50
269.9901982
51
280.0297744
0
LINE
8
DEFAULT_255_2_778
10
13.6975209
20
103.2662367
11
13.6975209
21
106.2203367
0
LINE
8
DEFAULT_255_2_778
10
13.6975209
20
106.2203367
11
12.3650209
21
106.2203367
0
LINE
8
DEFAULT_255_2_778
10
12.3650209
20
106.2203367
11
11.5125209
21
104.7437367
0
LINE
8
DEFAULT_255_2_778
10
9.3273209
20
103.2662367
11
9.3273209
21
106.2203367
0
LINE
8
DEFAULT_255_2_778
10
9.3273209
20
106.2203367
11
10.6624209
21
106.2203367
0
LINE
8
DEFAULT_255_2_778
10
10.6624209
20
106.2203367
11
11.5123209
21
104.7437367
0
LINE
8
DEFAULT_255_2_778
10
9.3273209
20
103.2662367
11
9.3273209
21
100.2804367
0
LINE
8
DEFAULT_255_2_778
10
13.6975209
20
103.2662367
11
13.6975209
21
100.2804367
0
ARC
8
DEFAULT_255_2_778
10
11.51401
20
100.2850629
40
3.6952479
50
53.7799301
51
73.8048519
0
ARC
8
DEFAULT_255_2_778
10
11.5129634
20
100.2778456
40
3.702471
50
73.8204492
51
90.0057977
0
ARC
8
DEFAULT_255_2_778
10
11.5108675
20
100.2850629
40
3.6952479
50
106.1951481
51
126.2200699
0
ARC
8
DEFAULT_255_2_778
10
11.5119141
20
100.2778456
40
3.702471
50
89.9942023
51
106.1795508
0
ARC
8
DEFAULT_255_2_778
10
23.4135169
20
100.283892
40
3.6964248
50
53.7857385
51
90.0013406
0
LINE
8
DEFAULT_255_2_778
10
23.4134304
20
103.9803168
11
23.4124888
21
103.9803166
0
ARC
8
DEFAULT_255_2_778
10
23.4110675
20
100.2850629
40
3.6952479
50
106.1951481
51
126.2200699
0
ARC
8
DEFAULT_255_2_778
10
23.4121141
20
100.2778456
40
3.702471
50
89.9942023
51
106.1795508
0
LINE
8
DEFAULT_255_2_778
10
23.4124888
20
104.7436166
11
23.4124888
21
103.9803166
0
ARC
8
DEFAULT_255_2_778
10
23.4060222
20
100.2781211
40
2.178517
50
179.9395505
51
202.9106009
0
ARC
8
DEFAULT_255_2_778
10
23.4148414
20
100.2836807
40
2.1888053
50
202.9547797
51
259.8504651
0
ARC
8
DEFAULT_255_2_778
10
23.4121302
20
100.2946208
40
2.1991012
50
259.9702256
51
270.0098018
0
ARC
8
DEFAULT_255_2_778
10
23.4188677
20
100.2781225
40
2.17854
50
337.0896177
51
0.0604133
0
ARC
8
DEFAULT_255_2_778
10
23.4100865
20
100.2836432
40
2.1887783
50
280.1511459
51
337.0459866
0
ARC
8
DEFAULT_255_2_778
10
23.4128812
20
100.2943049
40
2.1987853
50
269.9902347
51
280.030498
0
LINE
8
DEFAULT_255_2_778
10
25.5974064
20
103.2662196
11
25.5974064
21
106.2203196
0
LINE
8
DEFAULT_255_2_778
10
25.5974064
20
106.2203196
11
24.2623064
21
106.2203196
0
LINE
8
DEFAULT_255_2_778
10
24.2623064
20
106.2203196
11
23.4125064
21
104.7436196
0
LINE
8
DEFAULT_255_2_778
10
21.2275064
20
103.2662196
11
21.2275064
21
106.2203196
0
LINE
8
DEFAULT_255_2_778
10
21.2275064
20
106.2203196
11
22.5600064
21
106.2203196
0
LINE
8
DEFAULT_255_2_778
10
22.5600064
20
106.2203196
11
23.4125064
21
104.7436196
0
LINE
8
DEFAULT_255_2_778
10
21.2275064
20
103.2662196
11
21.2275064
21
100.2804196
0
LINE
8
DEFAULT_255_2_778
10
25.5974064
20
103.2662196
11
25.5974064
21
100.2804196
0
LINE
8
DEFAULT_255_2_778
10
13.5625064
20
113.5805196
11
12.9625064
21
113.5805196
0
LINE
8
DEFAULT_255_2_778
10
12.9625064
20
114.3803196
11
12.3624064
21
114.3803196
0
LINE
8
DEFAULT_255_2_778
10
12.3624064
20
114.3803196
11
12.3624064
21
113.5802196
0
LINE
8
DEFAULT_255_2_778
10
12.3624064
20
113.5802196
11
12.9625064
21
113.5802196
0
LINE
8
DEFAULT_255_2_778
10
13.562525
20
114.3802624
11
12.962525
21
114.3802624
0
LINE
8
DEFAULT_255_2_778
10
13.562525
20
111.7304624
11
12.962525
21
111.7304624
0
LINE
8
DEFAULT_255_2_778
10
12.962525
20
110.2305624
11
12.362425
21
110.2305624
0
LINE
8
DEFAULT_255_2_778
10
12.362425
20
110.2305624
11
12.362425
21
111.7304624
0
LINE
8
DEFAULT_255_2_778
10
12.362425
20
111.7304624
11
12.962525
21
111.7304624
0
LINE
8
DEFAULT_255_2_778
10
13.562525
20
111.7304728
11
13.562525
21
110.2305728
0
LINE
8
DEFAULT_255_2_778
10
13.562525
20
110.2305728
11
12.962525
21
110.2305728
0
LINE
8
DEFAULT_255_2_778
10
13.562525
20
119.9804728
11
13.562525
21
120.3804728
0
LINE
8
DEFAULT_255_2_778
10
13.562525
20
120.3804728
11
12.962525
21
120.3804728
0
LINE
8
DEFAULT_255_2_778
10
12.362425
20
119.9804728
11
12.362425
21
120.3804728
0
LINE
8
DEFAULT_255_2_778
10
12.362425
20
120.3804728
11
12.962525
21
120.3804728
0
LINE
8
DEFAULT_255_2_778
10
13.562525
20
119.5804729
11
12.962525
21
119.5804729
0
LINE
8
DEFAULT_255_2_778
10
12.362425
20
119.9804729
11
12.362425
21
119.5804729
0
LINE
8
DEFAULT_255_2_778
10
12.362425
20
119.5804729
11
12.962525
21
119.5804729
0
LINE
8
DEFAULT_255_2_778
10
12.362425
20
122.9803729
11
12.362425
21
123.3803729
0
LINE
8
DEFAULT_255_2_778
10
12.362425
20
123.3803729
11
12.962525
21
123.3803729
0
LINE
8
DEFAULT_255_2_778
10
13.5624918
20
122.9803832
11
13.5624918
21
123.3803832
0
LINE
8
DEFAULT_255_2_778
10
13.5624918
20
123.3803832
11
12.9624918
21
123.3803832
0
LINE
8
DEFAULT_255_2_778
10
12.3623918
20
122.9803832
11
12.3623918
21
122.5802832
0
LINE
8
DEFAULT_255_2_778
10
12.3623918
20
122.5802832
11
12.9624918
21
122.5802832
0
LINE
8
DEFAULT_255_2_778
10
13.5624918
20
122.9803832
11
13.5624918
21
122.5802832
0
LINE
8
DEFAULT_255_2_778
10
13.5624918
20
122.5802832
11
12.9624918
21
122.5802832
0
LINE
8
DEFAULT_255_2_778
10
13.5624918
20
114.3802832
11
13.5624918
21
113.5801832
0
LINE
8
DEFAULT_255_2_778
10
13.5624918
20
119.9804832
11
13.5624918
21
119.5804832
0
LINE
8
DEFAULT_255_2_778
10
22.5625918
20
113.5804832
11
21.9624918
21
113.5804832
0
LINE
8
DEFAULT_255_2_778
10
21.9624918
20
114.3802832
11
21.3624918
21
114.3802832
0
LINE
8
DEFAULT_255_2_778
10
21.3624918
20
114.3802832
11
21.3624918
21
113.5801832
0
LINE
8
DEFAULT_255_2_778
10
21.3624918
20
113.5801832
11
21.9624918
21
113.5801832
0
LINE
8
DEFAULT_255_2_778
10
22.562525
20
114.3802624
11
21.962525
21
114.3802624
0
LINE
8
DEFAULT_255_2_778
10
22.562525
20
111.7304624
11
21.962525
21
111.7304624
0
LINE
8
DEFAULT_255_2_778
10
21.962525
20
110.2305624
11
21.362425
21
110.2305624
0
LINE
8
DEFAULT_255_2_778
10
21.362425
20
110.2305624
11
21.362425
21
111.7304624
0
LINE
8
DEFAULT_255_2_778
10
21.362425
20
111.7304624
11
21.962525
21
111.7304624
0
LINE
8
DEFAULT_255_2_778
10
22.562525
20
111.7304405
11
22.562525
21
110.2305405
0
LINE
8
DEFAULT_255_2_778
10
22.562525
20
110.2305405
11
21.962525
21
110.2305405
0
LINE
8
DEFAULT_255_2_778
10
22.562525
20
119.9802405
11
22.562525
21
120.3802405
0
LINE
8
DEFAULT_255_2_778
10
22.562525
20
120.3802405
11
21.962525
21
120.3802405
0
LINE
8
DEFAULT_255_2_778
10
21.362425
20
119.9802405
11
21.362425
21
120.3802405
0
LINE
8
DEFAULT_255_2_778
10
21.362425
20
120.3802405
11
21.962525
21
120.3802405
0
LINE
8
DEFAULT_255_2_778
10
22.562525
20
119.5804729
11
21.962525
21
119.5804729
0
LINE
8
DEFAULT_255_2_778
10
21.362425
20
119.9804729
11
21.362425
21
119.5804729
0
LINE
8
DEFAULT_255_2_778
10
21.362425
20
119.5804729
11
21.962525
21
119.5804729
0
LINE
8
DEFAULT_255_2_778
10
21.362425
20
122.9803729
11
21.362425
21
123.3803729
0
LINE
8
DEFAULT_255_2_778
10
21.362425
20
123.3803729
11
21.962525
21
123.3803729
0
LINE
8
DEFAULT_255_2_778
10
22.5625609
20
122.9803098
11
22.5625609
21
123.3803098
0
LINE
8
DEFAULT_255_2_778
10
22.5625609
20
123.3803098
11
21.9625609
21
123.3803098
0
LINE
8
DEFAULT_255_2_778
10
21.3624609
20
122.9803098
11
21.3624609
21
122.5802098
0
LINE
8
DEFAULT_255_2_778
10
21.3624609
20
122.5802098
11
21.9625609
21
122.5802098
0
LINE
8
DEFAULT_255_2_778
10
22.5625609
20
122.9803098
11
22.5625609
21
122.5802098
0
LINE
8
DEFAULT_255_2_778
10
22.5625609
20
122.5802098
11
21.9625609
21
122.5802098
0
LINE
8
DEFAULT_255_2_778
10
22.5623609
20
114.3802098
11
22.5623609
21
113.5801098
0
LINE
8
DEFAULT_255_2_778
10
22.5623609
20
119.9804098
11
22.5623609
21
119.5804098
0
LINE
8
DEFAULT_255_2_778
10
34.7125609
20
107.8792098
11
0.2124609
21
107.8792098
0
LINE
8
DEFAULT_255_2_778
10
34.7125609
20
107.7791098
11
0.2124609
21
107.7791098
0
LINE
8
DEFAULT_255_2_778
10
20.9623609
20
22.2804098
11
14.0623609
21
22.2804098
0
LINE
8
DEFAULT_255_2_778
10
14.0623609
20
22.2804098
11
14.0623609
21
5.2804098
0
LINE
8
DEFAULT_255_2_778
10
14.0623609
20
5.2804098
11
20.9623609
21
5.2804098
0
LINE
8
DEFAULT_255_2_778
10
20.9623609
20
5.2804098
11
27.8624609
21
5.2804098
0
LINE
8
DEFAULT_255_2_778
10
27.8624609
20
5.2804098
11
27.8624609
21
22.2804098
0
LINE
8
DEFAULT_255_2_778
10
27.8624609
20
22.2804098
11
20.9623609
21
22.2804098
0
LINE
8
DEFAULT_255_2_778
10
26.9623609
20
22.2904098
11
14.9624609
21
22.2904098
0
LINE
8
DEFAULT_255_2_778
10
14.9624609
20
22.2804098
11
14.9624609
21
22.9902098
0
LINE
8
DEFAULT_255_2_778
10
14.9624609
20
22.9902098
11
26.9623609
21
22.9902098
0
LINE
8
DEFAULT_255_2_778
10
26.9623609
20
22.9902098
11
26.9623609
21
22.2804098
0
LINE
8
DEFAULT_255_2_778
10
26.9623609
20
5.2703098
11
14.9624609
21
5.2703098
0
LINE
8
DEFAULT_255_2_778
10
14.9624609
20
5.2804098
11
14.9624609
21
4.5705098
0
LINE
8
DEFAULT_255_2_778
10
14.9624609
20
4.5705098
11
26.9623609
21
4.5705098
0
LINE
8
DEFAULT_255_2_778
10
26.9623609
20
4.5705098
11
26.9623609
21
5.2804098
0
LINE
8
DEFAULT_255_2_778
10
25.4624609
20
22.9902098
11
25.4624609
21
22.2902098
0
LINE
8
DEFAULT_255_2_778
10
16.4623609
20
22.9902098
11
16.4623609
21
22.2902098
0
LINE
8
DEFAULT_255_2_778
10
27.6624609
20
22.2801098
11
27.6624609
21
23.9800098
0
LINE
8
DEFAULT_255_2_778
10
27.6624609
20
23.9800098
11
14.6624609
21
23.9800098
0
LINE
8
DEFAULT_255_2_778
10
14.6624609
20
23.9800098
11
14.6624609
21
22.2801098
0
LINE
8
DEFAULT_255_2_778
10
25.4624609
20
5.2700098
11
25.4624609
21
4.5700098
0
LINE
8
DEFAULT_255_2_778
10
16.4623609
20
5.2700098
11
16.4623609
21
4.5700098
0
LINE
8
DEFAULT_255_2_778
10
14.6624609
20
5.2798098
11
14.6624609
21
3.5799098
0
LINE
8
DEFAULT_255_2_778
10
14.6624609
20
3.5799098
11
27.6624609
21
3.5799098
0
LINE
8
DEFAULT_255_2_778
10
27.6624609
20
3.5799098
11
27.6624609
21
5.2798098
0
ENDSEC
0
EOF