0
SECTION
2
HEADER
9
$MEASUREMENT
70
1
0
ENDSEC
0
SECTION
2
TABLES
0
TABLE
2
LTYPE
0
LTYPE
72
65
70
64
2
CONTINUOUS
3
______
73
0
40
0
0
ENDTAB
0
TABLE
2
LAYER
0
LAYER
2
DEFAULT_255_2_778
70
0
62
255
6
CONTINUOUS
0
LAYER
2
DEFAULT_255_2_778_1
70
0
62
255
6
CONTINUOUS
0
LAYER
2
DEFAULT_255_1_234
70
0
62
255
6
CONTINUOUS
0
ENDTAB
0
ENDSEC
0
SECTION
2
ENTITIES
0
ARC
8
DEFAULT_255_2_778
10
3.5700693
20
91.6802028
40
0.7914215
50
129.1312896
51
180.1450914
0
ARC
8
DEFAULT_255_2_778
10
3.5703345
20
91.6806899
40
0.7912112
50
89.854026
51
129.1684493
0
ARC
8
DEFAULT_255_2_778
10
25.7993937
20
91.6803765
40
0.7915249
50
39.4792447
51
90.147911
0
ARC
8
DEFAULT_255_2_778
10
25.7999935
20
91.6802231
40
0.7911595
50
359.8533901
51
39.5154338
0
ARC
8
DEFAULT_255_2_778
10
25.7996693
20
-1.9863495
40
0.7914836
50
309.4761667
51
0.1482649
0
ARC
8
DEFAULT_255_2_778
10
25.799398
20
-1.9867805
40
0.7913235
50
269.8517415
51
309.511178
0
ARC
8
DEFAULT_255_2_778
10
3.570342
20
-1.9867224
40
0.7913815
50
219.1282118
51
270.1454017
0
ARC
8
DEFAULT_255_2_778
10
3.5700247
20
-1.9863399
40
0.7913769
50
179.8524075
51
219.1641908
0
LINE
8
DEFAULT_255_2_778
10
3.5723503
20
92.4718987
11
25.7973503
21
92.4718987
0
LINE
8
DEFAULT_255_2_778
10
26.5911503
20
91.6781987
11
26.5911503
21
-1.9843013
0
LINE
8
DEFAULT_255_2_778
10
25.7973503
20
-2.7781013
11
3.5723503
21
-2.7781013
0
LINE
8
DEFAULT_255_2_778
10
2.7786503
20
-1.9843013
11
2.7786503
21
91.6781987
0
ARC
8
DEFAULT_255_2_778
10
15.2718323
20
90.236689
40
0.3782009
50
0.4397807
51
91.3045231
0
ARC
8
DEFAULT_255_2_778
10
15.2696879
20
90.2344064
40
0.3803695
50
269.0259909
51
0.7811192
0
ARC
8
DEFAULT_255_2_778
10
15.4288293
20
90.2219643
40
0.7639615
50
290.7362057
51
357.8000295
0
ARC
8
DEFAULT_255_2_778
10
15.3436031
20
90.2395235
40
0.8499188
50
356.8376875
51
0.0046095
0
ARC
8
DEFAULT_255_2_778
10
15.3422443
20
90.2395748
40
0.8512778
50
0.0011515
51
85.3589632
0
ARC
8
DEFAULT_255_2_778
10
15.3422371
20
90.2205092
40
0.8702827
50
85.4600549
51
90.0075769
0
ARC
8
DEFAULT_255_2_778
10
20.173385
20
90.2302426
40
0.3845507
50
1.3931151
51
90.158378
0
ARC
8
DEFAULT_255_2_778
10
20.2329096
20
90.2238635
40
0.8684198
50
359.7643557
51
42.1181505
0
ARC
8
DEFAULT_255_2_778
10
20.2353156
20
90.2242931
40
0.866348
50
42.2037872
51
87.9292218
0
ARC
8
DEFAULT_255_2_778
10
20.2305626
20
90.1830097
40
0.9077821
50
87.7235759
51
90.0025578
0
ARC
8
DEFAULT_255_2_778
10
12.9264947
20
90.2371344
40
0.3777354
50
0.3727528
51
91.1638813
0
ARC
8
DEFAULT_255_2_778
10
12.9805692
20
90.2238595
40
0.8684602
50
359.7646302
51
42.1161032
0
ARC
8
DEFAULT_255_2_778
10
12.9830774
20
90.2244127
40
0.8662296
50
42.2002176
51
87.9268901
0
ARC
8
DEFAULT_255_2_778
10
12.9783626
20
90.1833749
40
0.9074169
50
87.7231194
51
90.002558
0
ARC
8
DEFAULT_255_2_778
10
17.559042
20
89.8320858
40
1.2841942
50
233.3100129
51
270.0348017
0
ARC
8
DEFAULT_255_2_778
10
17.5711133
20
89.8524622
40
1.3077482
50
187.7860459
51
233.4193197
0
ARC
8
DEFAULT_255_2_778
10
17.5893588
20
89.8540185
40
1.3260368
50
179.9838663
51
187.7458681
0
ARC
8
DEFAULT_255_2_778
10
17.5478523
20
89.8546375
40
1.2845303
50
143.7084173
51
180.0109545
0
ARC
8
DEFAULT_255_2_778
10
17.5629238
20
89.8495899
40
1.2996747
50
94.9692901
51
143.9223324
0
ARC
8
DEFAULT_255_2_778
10
17.5597032
20
89.8502347
40
1.2987573
50
89.9947559
51
94.8302073
0
ARC
8
DEFAULT_255_2_778
10
17.5619339
20
89.8444304
40
1.3045632
50
58.1407344
51
90.0927508
0
ARC
8
DEFAULT_255_2_778
10
17.5700831
20
89.8500662
40
1.2954809
50
3.5056409
51
58.315291
0
ARC
8
DEFAULT_255_2_778
10
17.5711163
20
89.8541563
40
1.2942058
50
359.9971467
51
3.3277024
0
ARC
8
DEFAULT_255_2_778
10
17.3826088
20
89.8520483
40
1.4827147
50
0.006083
51
0.0789681
0
ARC
8
DEFAULT_255_2_778
10
17.5604187
20
89.8522022
40
1.3049047
50
315.0308293
51
0.0001529
0
ARC
8
DEFAULT_255_2_778
10
17.5609377
20
89.8519521
40
1.3043608
50
270.000667
51
315.0224921
0
LINE
8
DEFAULT_255_2_778
10
17.5609529
20
88.5475914
11
17.5598221
21
88.5475919
0
ARC
8
DEFAULT_255_2_778
10
17.5640812
20
89.8504112
40
0.7580313
50
269.6780691
51
315.5292436
0
ARC
8
DEFAULT_255_2_778
10
17.5610107
20
89.8496878
40
0.7597205
50
315.7303962
51
0.2857903
0
ARC
8
DEFAULT_255_2_778
10
17.8487376
20
89.8539382
40
0.4719845
50
359.944048
51
0.0186519
0
ARC
8
DEFAULT_255_2_778
10
17.5687772
20
89.8529605
40
0.7519457
50
0.086204
51
85.4319233
0
ARC
8
DEFAULT_255_2_778
10
17.5599609
20
89.8105338
40
0.7949581
50
85.0420495
51
90.0100075
0
ARC
8
DEFAULT_255_2_778
10
17.5579396
20
89.8672519
40
0.7382424
50
89.8538973
51
89.9999976
0
ARC
8
DEFAULT_255_2_778
10
17.558077
20
89.8543044
40
0.7511899
50
90.01048
51
134.9443097
0
ARC
8
DEFAULT_255_2_778
10
17.5582947
20
89.8541222
40
0.7514726
50
134.9462486
51
180.0023145
0
ARC
8
DEFAULT_255_2_778
10
17.5708624
20
89.8501875
40
0.7640503
50
179.7072119
51
222.5790813
0
ARC
8
DEFAULT_255_2_778
10
17.5579296
20
89.8391475
40
0.7470579
50
222.6267201
51
270.1451401
0
ARC
8
DEFAULT_255_2_778
10
9.564442
20
89.8320858
40
1.2841942
50
233.3100129
51
270.0348017
0
ARC
8
DEFAULT_255_2_778
10
9.5765133
20
89.8524622
40
1.3077482
50
187.7860459
51
233.4193197
0
ARC
8
DEFAULT_255_2_778
10
9.5947588
20
89.8540185
40
1.3260368
50
179.9838663
51
187.7458681
0
ARC
8
DEFAULT_255_2_778
10
9.5535129
20
89.8544961
40
1.2847909
50
143.1940819
51
180.0046489
0
ARC
8
DEFAULT_255_2_778
10
9.5683078
20
89.8498006
40
1.2994598
50
94.9233187
51
143.4191345
0
ARC
8
DEFAULT_255_2_778
10
9.5651008
20
89.850512
40
1.2984798
50
89.9946509
51
94.7850278
0
ARC
8
DEFAULT_255_2_778
10
9.5673902
20
89.8443441
40
1.3046496
50
58.1428905
51
90.0952196
0
ARC
8
DEFAULT_255_2_778
10
9.5758177
20
89.8504453
40
1.2950254
50
3.2656058
51
58.3171105
0
ARC
8
DEFAULT_255_2_778
10
9.5763693
20
89.8544485
40
1.2942527
50
359.997494
51
3.0900664
0
ARC
8
DEFAULT_255_2_778
10
9.5936718
20
89.8522448
40
1.276952
50
359.9949307
51
0.0963391
0
ARC
8
DEFAULT_255_2_778
10
9.5663093
20
89.8522585
40
1.3043147
50
315.0200668
51
359.994431
0
ARC
8
DEFAULT_255_2_778
10
9.5663338
20
89.85202
40
1.3041287
50
270.0008363
51
315.026719
0
LINE
8
DEFAULT_255_2_778
10
9.5663529
20
88.5478914
11
9.5652221
21
88.5478919
0
ARC
8
DEFAULT_255_2_778
10
9.5694412
20
89.8504135
40
0.7580334
50
269.6810953
51
315.6152252
0
ARC
8
DEFAULT_255_2_778
10
9.5663839
20
89.8497381
40
0.7597504
50
315.8129036
51
0.3254485
0
ARC
8
DEFAULT_255_2_778
10
9.5738176
20
89.8526565
40
0.7523058
50
0.1093155
51
85.7820321
0
ARC
8
DEFAULT_255_2_778
10
9.5653381
20
89.8111263
40
0.7943655
50
85.3923987
51
90.0083732
0
ARC
8
DEFAULT_255_2_778
10
9.5633385
20
89.8663348
40
0.7391595
50
89.8539942
51
89.9999859
0
ARC
8
DEFAULT_255_2_778
10
9.563405
20
89.8544783
40
0.7510159
50
90.0050654
51
134.9497993
0
ARC
8
DEFAULT_255_2_778
10
9.5632746
20
89.8542963
40
0.7510526
50
134.9329452
51
180.0155944
0
ARC
8
DEFAULT_255_2_778
10
9.5762945
20
89.8501612
40
0.7640826
50
179.7052536
51
222.5741919
0
ARC
8
DEFAULT_255_2_778
10
9.5632805
20
89.8391163
40
0.7470269
50
222.6256588
51
270.1489141
0
LINE
8
DEFAULT_255_2_778
10
14.0768221
20
91.0701919
11
14.0768221
21
88.6073919
0
LINE
8
DEFAULT_255_2_778
10
14.0768221
20
88.6073919
11
14.6203221
21
88.6073919
0
LINE
8
DEFAULT_255_2_778
10
14.6203221
20
88.6073919
11
14.6203221
21
90.6147919
0
LINE
8
DEFAULT_255_2_778
10
14.6203221
20
90.6147919
11
15.2632221
21
90.6147919
0
LINE
8
DEFAULT_255_2_778
10
15.2632221
20
89.8540919
11
14.7986221
21
89.8540919
0
LINE
8
DEFAULT_255_2_778
10
14.7986221
20
89.8540919
11
15.6397221
21
88.6070919
0
LINE
8
DEFAULT_255_2_778
10
15.6397221
20
88.6070919
11
16.3126221
21
88.6070919
0
LINE
8
DEFAULT_255_2_778
10
16.3126221
20
88.6070919
11
15.6993221
21
89.5074919
0
LINE
8
DEFAULT_255_2_778
10
15.3421221
20
91.0907919
11
14.6200221
21
91.0907919
0
LINE
8
DEFAULT_255_2_778
10
14.6200221
20
91.0907919
11
14.0766221
21
91.0701919
0
LINE
8
DEFAULT_255_2_778
10
14.0766221
20
91.0701919
11
14.0768221
21
91.0701919
0
LINE
8
DEFAULT_255_2_778
10
19.0142221
20
91.0701919
11
19.0142221
21
88.6073919
0
LINE
8
DEFAULT_255_2_778
10
19.0142221
20
88.6073919
11
19.5577221
21
88.6073919
0
LINE
8
DEFAULT_255_2_778
10
19.5577221
20
88.6073919
11
19.5577221
21
90.6147919
0
LINE
8
DEFAULT_255_2_778
10
19.5577221
20
90.6147919
11
20.1723221
21
90.6147919
0
LINE
8
DEFAULT_255_2_778
10
20.5578221
20
90.2395919
11
20.5578221
21
88.6073919
0
LINE
8
DEFAULT_255_2_778
10
20.5578221
20
88.6073919
11
21.1013221
21
88.6073919
0
LINE
8
DEFAULT_255_2_778
10
21.1013221
20
88.6073919
11
21.1013221
21
90.2202919
0
LINE
8
DEFAULT_255_2_778
10
20.2305221
20
91.0907919
11
19.5577221
21
91.0907919
0
LINE
8
DEFAULT_255_2_778
10
19.5577221
20
91.0907919
11
19.0142221
21
91.0701919
0
LINE
8
DEFAULT_255_2_778
10
19.0142221
20
91.0701919
11
19.0142221
21
91.0701919
0
LINE
8
DEFAULT_255_2_778
10
11.0196221
20
91.0701919
11
11.0196221
21
88.6073919
0
LINE
8
DEFAULT_255_2_778
10
11.0196221
20
88.6073919
11
11.5628221
21
88.6073919
0
LINE
8
DEFAULT_255_2_778
10
11.5628221
20
88.6073919
11
11.5628221
21
90.6147919
0
LINE
8
DEFAULT_255_2_778
10
11.5628221
20
90.6147919
11
12.1671221
21
90.6147919
0
LINE
8
DEFAULT_255_2_778
10
12.1671221
20
90.6147919
11
12.1671221
21
88.6073919
0
LINE
8
DEFAULT_255_2_778
10
12.1671221
20
88.6073919
11
12.7105221
21
88.6073919
0
LINE
8
DEFAULT_255_2_778
10
12.7105221
20
88.6073919
11
12.7105221
21
90.6147919
0
LINE
8
DEFAULT_255_2_778
10
12.7105221
20
90.6147919
11
12.9188221
21
90.6147919
0
LINE
8
DEFAULT_255_2_778
10
13.3042221
20
90.2395919
11
13.3042221
21
88.6073919
0
LINE
8
DEFAULT_255_2_778
10
13.3042221
20
88.6073919
11
13.8490221
21
88.6073919
0
LINE
8
DEFAULT_255_2_778
10
13.8490221
20
88.6073919
11
13.8490221
21
90.2202919
0
LINE
8
DEFAULT_255_2_778
10
12.9783221
20
91.0907919
11
11.5731221
21
91.0907919
0
LINE
8
DEFAULT_255_2_778
10
11.5731221
20
91.0907919
11
11.0193221
21
91.0701919
0
LINE
8
DEFAULT_255_2_778
10
11.0193221
20
91.0701919
11
11.0196221
21
91.0701919
0
LINE
8
DEFAULT_255_2_778
10
17.5598221
20
88.5475919
11
17.5598221
21
88.5478919
0
LINE
8
DEFAULT_255_2_778
10
9.5652221
20
88.5478919
11
9.5652221
21
88.5478919
0
LINE
8
DEFAULT_255_2_778
10
9.3932417
20
76.596908
11
10.7161417
21
76.596908
0
LINE
8
DEFAULT_255_2_778
10
10.7161417
20
76.596908
11
10.7161417
21
51.461508
0
LINE
8
DEFAULT_255_2_778
10
9.3932834
20
51.4614333
11
12.0390834
21
51.4614333
0
LINE
8
DEFAULT_255_2_778
10
12.0390834
20
51.4614333
11
12.0390834
21
46.1697333
0
LINE
8
DEFAULT_255_2_778
10
12.0390834
20
46.1697333
11
9.3932834
21
46.1697333
0
LINE
8
DEFAULT_255_2_778
10
9.3932834
20
46.1697333
11
9.3932834
21
51.4614333
0
ARC
8
DEFAULT_255_2_778_1
10
13.1928591
20
46.272177
40
4.816461
50
120.9442904
51
122.351755
0
ARC
8
DEFAULT_255_2_778_1
10
12.7462523
20
46.9758039
40
3.9830657
50
122.3407904
51
124.1946752
0
ARC
8
DEFAULT_255_2_778_1
10
12.3063464
20
47.6223306
40
3.2010724
50
124.1855758
51
126.4338849
0
ARC
8
DEFAULT_255_2_778_1
10
11.9204129
20
48.1450611
40
2.5513094
50
126.4326926
51
128.8877368
0
ARC
8
DEFAULT_255_2_778_1
10
11.5855968
20
48.5594658
40
2.0185498
50
128.8749205
51
131.8726567
0
ARC
8
DEFAULT_255_2_778_1
10
11.2884677
20
48.8904854
40
1.5737356
50
131.8616166
51
135.4168838
0
ARC
8
DEFAULT_255_2_778_1
10
11.025668
20
49.1486765
40
1.2053256
50
135.3893975
51
139.9687014
0
ARC
8
DEFAULT_255_2_778_1
10
10.7927889
20
49.3435102
40
0.9016937
50
139.9301659
51
145.9260426
0
ARC
8
DEFAULT_255_2_778_1
10
10.596654
20
49.4755104
40
0.6652776
50
145.8787362
51
153.8146208
0
ARC
8
DEFAULT_255_2_778_1
10
10.4445553
20
49.5498797
40
0.4959714
50
153.770634
51
164.3484794
0
ARC
8
DEFAULT_255_2_778_1
10
10.3432387
20
49.5780786
40
0.3908039
50
164.3220276
51
179.8083066
0
ARC
8
DEFAULT_255_2_778_1
10
10.3642789
20
49.586215
40
0.4118985
50
180.9499449
51
213.8111542
0
ARC
8
DEFAULT_255_2_778_1
10
10.6401828
20
49.7557896
40
0.73561
50
212.8271214
51
224.258472
0
ARC
8
DEFAULT_255_2_778_1
10
11.0230335
20
50.1251236
40
1.267567
50
224.1376218
51
231.4508261
0
ARC
8
DEFAULT_255_2_778_1
10
11.6657195
20
50.9281168
40
2.2960809
50
231.3955893
51
236.1256478
0
ARC
8
DEFAULT_255_2_778_1
10
13.4980223
20
53.6746293
40
5.5976905
50
236.2233172
51
239.1314682
0
ARC
8
DEFAULT_255_2_778_1
10
25.447927
20
73.4023568
40
28.6623793
50
238.8606853
51
239.0711101
0
ARC
8
DEFAULT_255_2_778_1
10
6.2757281
20
41.3052653
40
8.7248518
50
57.2420924
51
59.4062964
0
ARC
8
DEFAULT_255_2_778_1
10
9.5034241
20
46.3362102
40
2.747542
50
52.8289294
51
57.079028
0
ARC
8
DEFAULT_255_2_778_1
10
10.2780783
20
47.3565488
40
1.466457
50
46.3041868
51
52.8596521
0
ARC
8
DEFAULT_255_2_778_1
10
10.7103073
20
47.8066842
40
0.8424061
50
36.2174211
51
46.4090895
0
ARC
8
DEFAULT_255_2_778_1
10
10.9948088
20
48.0115128
40
0.4918609
50
17.400375
51
36.5489745
0
ARC
8
DEFAULT_255_2_778_1
10
11.1088994
20
48.0513754
40
0.3710912
50
0.0676858
51
16.7951297
0
ARC
8
DEFAULT_255_2_778_1
10
11.0878613
20
48.0532428
40
0.3921317
50
343.8035191
51
359.7912046
0
ARC
8
DEFAULT_255_2_778_1
10
10.9815912
20
48.0837167
40
0.5026844
50
333.2506233
51
343.8465691
0
ARC
8
DEFAULT_255_2_778_1
10
10.8277757
20
48.1604313
40
0.6745679
50
325.6600948
51
333.3122657
0
ARC
8
DEFAULT_255_2_778_1
10
10.6323344
20
48.2932296
40
0.9108568
50
319.7560915
51
325.6976089
0
ARC
8
DEFAULT_255_2_778_1
10
10.404199
20
48.4850002
40
1.2088854
50
315.4577584
51
319.8037947
0
ARC
8
DEFAULT_255_2_778_1
10
10.1408127
20
48.7438507
40
1.5781764
50
311.7298824
51
315.4670864
0
ARC
8
DEFAULT_255_2_778_1
10
9.8317879
20
49.0894074
40
2.0417554
50
308.723055
51
311.7470879
0
ARC
8
DEFAULT_255_2_778_1
10
9.477589
20
49.5306492
40
2.6075745
50
306.1165163
51
308.7300151
0
ARC
8
DEFAULT_255_2_778_1
10
9.0746091
20
50.0819523
40
3.2904564
50
303.9559446
51
306.1266333
0
ARC
8
DEFAULT_255_2_778_1
10
8.6630432
20
50.691215
40
4.0257023
50
302.3733397
51
303.9712246
0
ARC
8
DEFAULT_255_2_778_1
10
8.2434347
20
51.3527058
40
4.8090549
50
300.9434827
51
302.3758078
0
LINE
8
DEFAULT_255_2_778
10
10.7161417
20
46.169808
11
10.7161417
21
21.034408
0
LINE
8
DEFAULT_255_2_778
10
10.7161417
20
21.034408
11
9.3932417
21
21.034408
0
LINE
8
DEFAULT_255_1_234
10
10.164723
20
-0.2802337
11
10.3197355
21
-0.2802337
0
LINE
8
DEFAULT_255_1_234
10
9.4193777
20
-0.1212053
11
9.4193777
21
-0.0087609
0
LINE
8
DEFAULT_255_1_234
10
10.3197355
20
0.1422357
11
10.164723
21
0.1422357
0
LINE
8
DEFAULT_255_1_234
10
9.5743902
20
-0.0127768
11
9.5743902
21
-0.1260243
0
ARC
8
DEFAULT_255_1_234
10
9.7716742
20
-0.2205154
40
0.5513052
50
340.1774281
51
353.7814284
0
ARC
8
DEFAULT_255_1_234
10
9.9288095
20
-0.2790418
40
0.3836379
50
311.4558989
51
340.4421614
0
ARC
8
DEFAULT_255_1_234
10
9.9254763
20
-0.2679472
40
0.3941894
50
282.4333181
51
310.7513653
0
ARC
8
DEFAULT_255_1_234
10
9.8815502
20
-0.0864321
40
0.5809175
50
269.9358511
51
282.809604
0
ARC
8
DEFAULT_255_1_234
10
9.8763568
20
0.0593212
40
0.7266847
50
270.0021091
51
270.3581957
0
ARC
8
DEFAULT_255_1_234
10
9.8710985
20
-0.2007415
40
0.4666519
50
250.7884749
51
270.6489167
0
ARC
8
DEFAULT_255_1_234
10
9.854282
20
-0.2644681
40
0.4009729
50
219.3627325
51
250.0611886
0
ARC
8
DEFAULT_255_1_234
10
9.9372031
20
-0.1939958
40
0.5097822
50
193.5479632
51
219.5756669
0
ARC
8
DEFAULT_255_1_234
10
10.1743652
20
-0.1324081
40
0.7547848
50
181.1218675
51
193.87563
0
ARC
8
DEFAULT_255_1_234
10
10.3813833
20
-0.121342
40
0.9620055
50
179.9918545
51
181.5394234
0
ARC
8
DEFAULT_255_1_234
10
10.1962935
20
-0.0050212
40
0.7769248
50
169.5837241
51
180.2757934
0
ARC
8
DEFAULT_255_1_234
10
10.0125873
20
0.0289229
40
0.590109
50
155.0365899
51
169.6003176
0
ARC
8
DEFAULT_255_1_234
10
9.8990337
20
0.0836677
40
0.4640625
50
136.783148
51
155.2472683
0
ARC
8
DEFAULT_255_1_234
10
9.8600814
20
0.1167562
40
0.4130255
50
121.7633186
51
136.428115
0
ARC
8
DEFAULT_255_1_234
10
9.8735776
20
0.0918227
40
0.4413323
50
95.6459699
51
121.5490577
0
ARC
8
DEFAULT_255_1_234
10
9.8893058
20
-0.0190051
40
0.55319
50
89.924208
51
96.1377933
0
ARC
8
DEFAULT_255_1_234
10
9.8943491
20
-0.0071458
40
0.5413475
50
76.6779277
51
90.4563316
0
ARC
8
DEFAULT_255_1_234
10
9.9337114
20
0.1519114
40
0.3775041
50
47.485847
51
76.9287264
0
ARC
8
DEFAULT_255_1_234
10
9.9190087
20
0.1419159
40
0.3948286
50
16.5424086
51
46.8933463
0
ARC
8
DEFAULT_255_1_234
10
9.7582244
20
0.0890861
40
0.564021
50
5.4072051
51
17.0365086
0
ARC
8
DEFAULT_255_1_234
10
9.6143261
20
0.0659679
40
0.5556559
50
7.8891745
51
15.9239216
0
ARC
8
DEFAULT_255_1_234
10
9.8130274
20
0.1236631
40
0.3487515
50
15.7653144
51
27.9410532
0
ARC
8
DEFAULT_255_1_234
10
9.9234492
20
0.182779
40
0.2235026
50
27.8166557
51
46.4008329
0
ARC
8
DEFAULT_255_1_234
10
9.9284135
20
0.1822082
40
0.2205286
50
47.4371857
51
75.0698205
0
ARC
8
DEFAULT_255_1_234
10
9.8975529
20
0.0747765
40
0.3322915
50
74.7008593
51
87.8124495
0
ARC
8
DEFAULT_255_1_234
10
9.8902217
20
-0.0308156
40
0.4380987
50
87.3814673
51
90.0240855
0
ARC
8
DEFAULT_255_1_234
10
9.886376
20
0.0869291
40
0.3203749
50
89.3451631
51
108.5745436
0
ARC
8
DEFAULT_255_1_234
10
9.8726865
20
0.1382908
40
0.2673494
50
109.2998449
51
143.3037509
0
ARC
8
DEFAULT_255_1_234
10
9.9488938
20
0.0796881
40
0.3634757
50
143.0753173
51
163.1916937
0
ARC
8
DEFAULT_255_1_234
10
10.1440666
20
0.0180967
40
0.5681262
50
162.9373603
51
174.6208611
0
ARC
8
DEFAULT_255_1_234
10
10.4066708
20
-0.010699
40
0.8322832
50
174.3419979
51
180.1430411
0
ARC
8
DEFAULT_255_1_234
10
10.3135864
20
-0.1301302
40
0.7392076
50
179.6817502
51
189.150529
0
ARC
8
DEFAULT_255_1_234
10
10.0635112
20
-0.171781
40
0.4856932
50
188.9910863
51
203.5773039
0
ARC
8
DEFAULT_255_1_234
10
9.9555445
20
-0.2165789
40
0.3688271
50
203.9077269
51
215.1312379
0
ARC
8
DEFAULT_255_1_234
10
9.8632539
20
-0.2881059
40
0.2522457
50
213.9071664
51
263.8849284
0
ARC
8
DEFAULT_255_1_234
10
9.8757868
20
-0.2096482
40
0.3316174
50
263.1758525
51
270.1031083
0
ARC
8
DEFAULT_255_1_234
10
9.878996
20
-0.0849635
40
0.4563091
50
269.6719807
51
279.0609165
0
ARC
8
DEFAULT_255_1_234
10
9.9056728
20
-0.2462093
40
0.2928759
50
278.8750225
51
293.6346586
0
ARC
8
DEFAULT_255_1_234
10
9.9376936
20
-0.32141
40
0.2111472
50
293.8553404
51
310.0518804
0
ARC
8
DEFAULT_255_1_234
10
9.938179
20
-0.3276484
40
0.2060917
50
311.0646779
51
332.0108348
0
ARC
8
DEFAULT_255_1_234
10
9.8189517
20
-0.2619022
40
0.3422352
50
331.6588543
51
343.2878891
0
ARC
8
DEFAULT_255_1_234
10
9.6127032
20
-0.1985202
40
0.5580003
50
343.1446044
51
351.010618
0
ARC
8
DEFAULT_255_1_234
10
9.4585678
20
-0.1704129
40
0.7146438
50
350.7157277
51
351.1602153
0
LINE
8
DEFAULT_255_1_234
10
11.306033
20
0.1799849
11
11.1510205
21
0.1799849
0
LINE
8
DEFAULT_255_1_234
10
10.4586846
20
-0.3123606
11
10.6136972
21
-0.3123606
0
ARC
8
DEFAULT_255_1_234
10
11.2169017
20
1.0746768
40
1.252368
50
248.9199003
51
254.1439814
0
ARC
8
DEFAULT_255_1_234
10
11.0488512
20
0.6420234
40
0.788226
50
241.633709
51
249.0064503
0
ARC
8
DEFAULT_255_1_234
10
10.8959907
20
0.3619317
40
0.4691427
50
230.498225
51
241.8087113
0
ARC
8
DEFAULT_255_1_234
10
10.8175481
20
0.2619906
40
0.3421437
50
227.4064532
51
229.9881192
0
ARC
8
DEFAULT_255_1_234
10
10.7688002
20
0.2144088
40
0.2741476
50
200.6781896
51
228.1763934
0
ARC
8
DEFAULT_255_1_234
10
10.7760312
20
0.2129077
40
0.2804109
50
179.5061581
51
199.8694617
0
ARC
8
DEFAULT_255_1_234
10
10.7751064
20
0.220321
40
0.2795204
50
132.4834203
51
181.0242172
0
ARC
8
DEFAULT_255_1_234
10
10.8346646
20
0.1640704
40
0.3612768
50
129.2532479
51
133.4242687
0
ARC
8
DEFAULT_255_1_234
10
10.8493096
20
0.1420965
40
0.3875675
50
101.98776
51
128.8742646
0
ARC
8
DEFAULT_255_1_234
10
10.8891706
20
-0.0300259
40
0.5642249
50
89.5906553
51
102.3169264
0
ARC
8
DEFAULT_255_1_234
10
10.8962199
20
0.0018148
40
0.5323783
50
77.2360837
51
90.3248275
0
ARC
8
DEFAULT_255_1_234
10
10.9169278
20
0.09854
40
0.4334697
50
63.837784
51
77.0809408
0
ARC
8
DEFAULT_255_1_234
10
10.9447039
20
0.1502911
40
0.3747796
50
45.9864267
51
64.1607727
0
ARC
8
DEFAULT_255_1_234
10
10.9707921
20
0.1800866
40
0.3352302
50
32.2747395
51
45.6547121
0
ARC
8
DEFAULT_255_1_234
10
10.9774361
20
0.181988
40
0.328603
50
359.6507365
51
32.6130309
0
ARC
8
DEFAULT_255_1_234
10
10.8831457
20
0.182466
40
0.2678863
50
359.469343
51
14.9832209
0
ARC
8
DEFAULT_255_1_234
10
10.9536519
20
0.2013539
40
0.1948938
50
14.9781179
51
48.2004265
0
ARC
8
DEFAULT_255_1_234
10
10.9372163
20
0.1806983
40
0.2212521
50
48.5927837
51
74.1241538
0
ARC
8
DEFAULT_255_1_234
10
10.9038653
20
0.0706248
40
0.3362561
50
73.7888341
51
86.6652678
0
ARC
8
DEFAULT_255_1_234
10
10.8936218
20
-0.0501119
40
0.4573953
50
86.2640471
51
90.0526343
0
ARC
8
DEFAULT_255_1_234
10
10.8907931
20
-0.0105808
40
0.4178709
50
89.6697524
51
99.2309573
0
ARC
8
DEFAULT_255_1_234
10
10.8665382
20
0.1338964
40
0.2713749
50
99.069534
51
113.7658566
0
ARC
8
DEFAULT_255_1_234
10
10.8391573
20
0.1984677
40
0.2012469
50
114.0401004
51
127.9850673
0
ARC
8
DEFAULT_255_1_234
10
10.8151137
20
0.228073
40
0.1631167
50
127.7287463
51
176.7105154
0
ARC
8
DEFAULT_255_1_234
10
10.8829854
20
0.2179693
40
0.2315392
50
175.1779447
51
180.0581938
0
ARC
8
DEFAULT_255_1_234
10
10.7986701
20
0.2167428
40
0.1472271
50
179.6142195
51
228.1246017
0
ARC
8
DEFAULT_255_1_234
10
10.842837
20
0.2576308
40
0.2072299
50
226.5779593
51
230.8800004
0
ARC
8
DEFAULT_255_1_234
10
10.8899448
20
0.3201636
40
0.2854818
50
231.4635071
51
241.9260842
0
ARC
8
DEFAULT_255_1_234
10
11.0096626
20
0.54048
40
0.53622
50
241.7178533
51
248.3259551
0
ARC
8
DEFAULT_255_1_234
10
11.1481998
20
0.8837064
40
0.9063478
50
248.2007737
51
252.4528373
0
ARC
8
DEFAULT_255_1_234
10
11.2685723
20
1.2558441
40
1.2974635
50
252.3391078
51
254.3469452
0
ARC
8
DEFAULT_255_1_234
10
10.5143426
20
-1.4418852
40
1.5037162
50
71.0197183
51
74.4087047
0
ARC
8
DEFAULT_255_1_234
10
10.6838111
20
-0.9526889
40
0.9859993
50
66.1847285
51
71.086374
0
ARC
8
DEFAULT_255_1_234
10
10.8394423
20
-0.60228
40
0.6025855
50
59.3536294
51
66.2691831
0
ARC
8
DEFAULT_255_1_234
10
10.9283076
20
-0.4519391
40
0.4279449
50
49.1020879
51
59.3293958
0
ARC
8
DEFAULT_255_1_234
10
11.0101816
20
-0.3586166
40
0.3038015
50
32.7919921
51
49.2505539
0
ARC
8
DEFAULT_255_1_234
10
11.0422906
20
-0.3357809
40
0.264448
50
31.1181161
51
32.4005348
0
ARC
8
DEFAULT_255_1_234
10
11.0334443
20
-0.3393221
40
0.2738556
50
8.1116974
51
30.7958831
0
ARC
8
DEFAULT_255_1_234
10
10.9524111
20
-0.3531247
40
0.3560327
50
359.8389159
51
8.4706516
0
ARC
8
DEFAULT_255_1_234
10
11.0149903
20
-0.3579863
40
0.2934776
50
337.4731098
51
0.7537279
0
ARC
8
DEFAULT_255_1_234
10
11.0328598
20
-0.3599613
40
0.2762607
50
307.5917067
51
336.4315538
0
ARC
8
DEFAULT_255_1_234
10
10.9868426
20
-0.3086898
40
0.3449979
50
307.6551545
51
308.4529766
0
ARC
8
DEFAULT_255_1_234
10
10.9638145
20
-0.273175
40
0.3871988
50
284.3734338
51
307.1424381
0
ARC
8
DEFAULT_255_1_234
10
10.9142975
20
-0.0910068
40
0.5759636
50
272.4382747
51
284.646547
0
ARC
8
DEFAULT_255_1_234
10
10.9016184
20
0.0889893
40
0.7563528
50
269.9708387
51
272.8178037
0
ARC
8
DEFAULT_255_1_234
10
10.8973223
20
-0.1148284
40
0.5525489
50
248.2707594
51
270.4055579
0
ARC
8
DEFAULT_255_1_234
10
10.8918964
20
-0.1338808
40
0.5328452
50
246.1383403
51
248.0542782
0
ARC
8
DEFAULT_255_1_234
10
10.8500343
20
-0.2218157
40
0.4355005
50
233.1670131
51
246.4950969
0
ARC
8
DEFAULT_255_1_234
10
10.7946248
20
-0.2966188
40
0.3424126
50
215.3403242
51
233.0843104
0
ARC
8
DEFAULT_255_1_234
10
10.7673679
20
-0.3164451
40
0.3087104
50
179.2419209
51
215.2648451
0
ARC
8
DEFAULT_255_1_234
10
10.8441273
20
-0.3150334
40
0.2304457
50
179.335461
51
199.1045811
0
ARC
8
DEFAULT_255_1_234
10
10.810895
20
-0.3237234
40
0.1962176
50
199.8828939
51
232.7063202
0
ARC
8
DEFAULT_255_1_234
10
10.8581218
20
-0.2643212
40
0.2720938
50
232.3738199
51
255.5136649
0
ARC
8
DEFAULT_255_1_234
10
10.8922085
20
-0.1399165
40
0.4010747
50
255.2446292
51
267.5320849
0
ARC
8
DEFAULT_255_1_234
10
10.9009708
20
-0.0166298
40
0.5246356
50
267.1557994
51
270.0286766
0
ARC
8
DEFAULT_255_1_234
10
10.903748
20
-0.061005
40
0.4802668
50
269.7000017
51
278.1660162
0
ARC
8
DEFAULT_255_1_234
10
10.9293485
20
-0.2340485
40
0.3053425
50
278.0231263
51
290.625471
0
ARC
8
DEFAULT_255_1_234
10
10.9641172
20
-0.3267975
40
0.206291
50
290.6619762
51
307.0370976
0
ARC
8
DEFAULT_255_1_234
10
10.9941562
20
-0.3636496
40
0.1587906
50
306.3943566
51
355.3030547
0
ARC
8
DEFAULT_255_1_234
10
10.9429493
20
-0.3559887
40
0.2104809
50
354.3660432
51
0.0698737
0
ARC
8
DEFAULT_255_1_234
10
10.9571838
20
-0.3537383
40
0.1962563
50
359.417946
51
16.1971788
0
ARC
8
DEFAULT_255_1_234
10
11.0027149
20
-0.3412582
40
0.149053
50
16.4723299
51
52.6262157
0
ARC
8
DEFAULT_255_1_234
10
10.9206202
20
-0.4496567
40
0.2850296
50
52.7386432
51
62.4979148
0
ARC
8
DEFAULT_255_1_234
10
10.7821279
20
-0.7102717
40
0.5801521
50
62.2515216
51
68.1220564
0
ARC
8
DEFAULT_255_1_234
10
10.610119
20
-1.1330128
40
1.0365451
50
68.0062803
51
71.8053402
0
ARC
8
DEFAULT_255_1_234
10
10.4305562
20
-1.6715242
40
1.6042013
50
71.7183119
51
73.9258742
0
LINE
8
DEFAULT_255_1_234
10
11.9558006
20
0.5237433
11
11.9558006
21
-0.6513
0
LINE
8
DEFAULT_255_1_234
10
11.9558006
20
-0.6513
11
11.8064103
21
-0.6513
0
LINE
8
DEFAULT_255_1_234
10
11.8064103
20
-0.6513
11
11.8064103
21
0.3390133
0
LINE
8
DEFAULT_255_1_234
10
11.8064103
20
0.3390133
11
11.5068265
21
0.2289785
0
LINE
8
DEFAULT_255_1_234
10
11.5068265
20
0.2289785
11
11.5068265
21
0.3639117
0
LINE
8
DEFAULT_255_1_234
10
11.5068265
20
0.3639117
11
11.9325086
21
0.5237433
0
LINE
8
DEFAULT_255_1_234
10
11.9325086
20
0.5237433
11
11.9558006
21
0.5237433
0
LINE
8
DEFAULT_255_1_234
10
12.4971398
20
0.5181211
11
12.6818698
21
-0.2826432
0
LINE
8
DEFAULT_255_1_234
10
12.6818698
20
-0.2826432
11
12.7043586
21
-0.4368526
0
LINE
8
DEFAULT_255_1_234
10
12.7043586
20
-0.4368526
11
12.7372888
21
-0.2979035
0
LINE
8
DEFAULT_255_1_234
10
12.7372888
20
-0.2979035
11
12.9686028
21
0.5181211
0
LINE
8
DEFAULT_255_1_234
10
12.9686028
20
0.5181211
11
13.098717
21
0.5181211
0
LINE
8
DEFAULT_255_1_234
10
13.098717
20
0.5181211
11
13.3244088
21
-0.2979035
0
LINE
8
DEFAULT_255_1_234
10
13.3244088
20
-0.2979035
11
13.3565358
21
-0.4392621
0
LINE
8
DEFAULT_255_1_234
10
13.3565358
20
-0.4392621
11
13.3814342
21
-0.28184
0
LINE
8
DEFAULT_255_1_234
10
13.3814342
20
-0.28184
11
13.5629515
21
0.5181211
0
LINE
8
DEFAULT_255_1_234
10
13.5629515
20
0.5181211
11
13.717964
21
0.5181211
0
LINE
8
DEFAULT_255_1_234
10
13.717964
20
0.5181211
11
13.4344437
21
-0.6513
0
LINE
8
DEFAULT_255_1_234
10
13.4344437
20
-0.6513
11
13.2938882
21
-0.6513
0
LINE
8
DEFAULT_255_1_234
10
13.2938882
20
-0.6513
11
13.0529361
21
0.2008674
0
LINE
8
DEFAULT_255_1_234
10
13.0529361
20
0.2008674
11
13.0344631
21
0.2900197
0
LINE
8
DEFAULT_255_1_234
10
13.0344631
20
0.2900197
11
13.0159901
21
0.2008674
0
LINE
8
DEFAULT_255_1_234
10
13.0159901
20
0.2008674
11
12.766203
21
-0.6513
0
LINE
8
DEFAULT_255_1_234
10
12.766203
20
-0.6513
11
12.6256476
21
-0.6513
0
LINE
8
DEFAULT_255_1_234
10
12.6256476
20
-0.6513
11
12.3429304
21
0.5181211
0
LINE
8
DEFAULT_255_1_234
10
12.3429304
20
0.5181211
11
12.4971398
21
0.5181211
0
LINE
8
DEFAULT_255_1_234
10
14.1267795
20
-0.0938974
11
14.1267795
21
-0.2151766
0
LINE
8
DEFAULT_255_1_234
10
14.1267795
20
-0.2151766
11
13.7348307
21
-0.2151766
0
LINE
8
DEFAULT_255_1_234
10
13.7348307
20
-0.2151766
11
13.7348307
21
-0.0938974
0
LINE
8
DEFAULT_255_1_234
10
13.7348307
20
-0.0938974
11
14.1267795
21
-0.0938974
0
LINE
8
DEFAULT_255_1_234
10
14.7243408
20
-0.1934909
11
14.4488522
21
-0.1934909
0
LINE
8
DEFAULT_255_1_234
10
14.4488522
20
-0.1934909
11
14.4488522
21
-0.6513
0
LINE
8
DEFAULT_255_1_234
10
14.4488522
20
-0.6513
11
14.2946428
21
-0.6513
0
LINE
8
DEFAULT_255_1_234
10
14.2946428
20
-0.6513
11
14.2946428
21
0.5181211
0
LINE
8
DEFAULT_255_1_234
10
14.2946428
20
0.5181211
11
14.7259472
21
0.5181211
0
LINE
8
DEFAULT_255_1_234
10
14.4488522
20
0.3912196
11
14.4488522
21
-0.0673926
0
LINE
8
DEFAULT_255_1_234
10
14.4488522
20
-0.0673926
11
14.7259472
21
-0.0673926
0
LINE
8
DEFAULT_255_1_234
10
14.7347821
20
0.3912196
11
14.4488522
21
0.3912196
0
ARC
8
DEFAULT_255_1_234
10
14.7301599
20
-0.0877805
40
0.6059162
50
78.8378113
51
90.3983573
0
ARC
8
DEFAULT_255_1_234
10
14.7717612
20
0.1142879
40
0.3996205
50
58.9632738
51
79.0810598
0
ARC
8
DEFAULT_255_1_234
10
14.8019154
20
0.1702721
40
0.3361177
50
48.0197965
51
58.447194
0
ARC
8
DEFAULT_255_1_234
10
14.8108015
20
0.1788225
40
0.3238191
50
3.3375044
51
48.1766626
0
ARC
8
DEFAULT_255_1_234
10
14.6877855
20
0.1611171
40
0.4477806
50
359.9477528
51
4.6829065
0
ARC
8
DEFAULT_255_1_234
10
14.7001172
20
0.1568628
40
0.4354656
50
346.1877825
51
0.5060252
0
ARC
8
DEFAULT_255_1_234
10
14.8360039
20
0.1215731
40
0.295089
50
310.8831995
51
346.5426355
0
ARC
8
DEFAULT_255_1_234
10
14.8051459
20
0.1632695
40
0.3468331
50
286.6925341
51
310.2288297
0
ARC
8
DEFAULT_255_1_234
10
14.748229
20
0.3422882
40
0.5346654
50
274.6850312
51
287.0245141
0
ARC
8
DEFAULT_255_1_234
10
14.7257013
20
0.5631932
40
0.7566852
50
269.8969846
51
275.018904
0
ARC
8
DEFAULT_255_1_234
10
14.7284604
20
0.3552707
40
0.4226708
50
269.6593078
51
279.4153575
0
ARC
8
DEFAULT_255_1_234
10
14.754188
20
0.2062133
40
0.2714146
50
279.2049762
51
294.9900808
0
ARC
8
DEFAULT_255_1_234
10
14.7832205
20
0.1414508
40
0.2004525
50
295.2888114
51
311.2911209
0
ARC
8
DEFAULT_255_1_234
10
14.79031
20
0.130922
40
0.1878703
50
311.7854996
51
347.2861051
0
ARC
8
DEFAULT_255_1_234
10
14.6919258
20
0.1562092
40
0.2894234
50
346.6893224
51
0.1059443
0
ARC
8
DEFAULT_255_1_234
10
14.6164153
20
0.1590685
40
0.3649409
50
359.6350983
51
0.0053152
0
ARC
8
DEFAULT_255_1_234
10
14.7134482
20
0.1615937
40
0.2679199
50
359.4672059
51
15.5933957
0
ARC
8
DEFAULT_255_1_234
10
14.775937
20
0.1784779
40
0.2031932
50
15.7442113
51
46.6203375
0
ARC
8
DEFAULT_255_1_234
10
14.7611591
20
0.1614484
40
0.2257226
50
46.8628658
51
75.6676503
0
ARC
8
DEFAULT_255_1_234
10
14.7317412
20
0.0555718
40
0.3355939
50
75.276167
51
88.2915297
0
ARC
8
DEFAULT_255_1_234
10
14.7259118
20
-0.0322476
40
0.4235602
50
87.8575022
51
88.8000139
0
LINE
8
DEFAULT_255_1_234
10
16.1403363
20
0.5181211
11
16.1403363
21
0.3912196
0
LINE
8
DEFAULT_255_1_234
10
16.1403363
20
0.3912196
11
15.7644509
21
0.3912196
0
LINE
8
DEFAULT_255_1_234
10
15.7644509
20
0.3912196
11
15.7644509
21
-0.6513
0
LINE
8
DEFAULT_255_1_234
10
15.7644509
20
-0.6513
11
15.6110447
21
-0.6513
0
LINE
8
DEFAULT_255_1_234
10
15.6110447
20
-0.6513
11
15.6110447
21
0.3912196
0
LINE
8
DEFAULT_255_1_234
10
15.6110447
20
0.3912196
11
15.2359625
21
0.3912196
0
LINE
8
DEFAULT_255_1_234
10
15.2359625
20
0.3912196
11
15.2359625
21
0.5181211
0
LINE
8
DEFAULT_255_1_234
10
15.2359625
20
0.5181211
11
16.1403363
21
0.5181211
0
LINE
8
DEFAULT_255_1_234
10
17.076837
20
0.1799849
11
16.9218244
21
0.1799849
0
LINE
8
DEFAULT_255_1_234
10
16.2294886
20
-0.3123606
11
16.3845011
21
-0.3123606
0
ARC
8
DEFAULT_255_1_234
10
16.9877057
20
1.0746768
40
1.252368
50
248.9199003
51
254.1439814
0
ARC
8
DEFAULT_255_1_234
10
16.8196552
20
0.6420234
40
0.788226
50
241.633709
51
249.0064503
0
ARC
8
DEFAULT_255_1_234
10
16.6667946
20
0.3619317
40
0.4691427
50
230.498225
51
241.8087113
0
ARC
8
DEFAULT_255_1_234
10
16.588352
20
0.2619906
40
0.3421437
50
227.4064532
51
229.9881192
0
ARC
8
DEFAULT_255_1_234
10
16.5396041
20
0.2144088
40
0.2741476
50
200.6781896
51
228.1763934
0
ARC
8
DEFAULT_255_1_234
10
16.5468352
20
0.2129077
40
0.2804109
50
179.5061581
51
199.8694617
0
ARC
8
DEFAULT_255_1_234
10
16.5459103
20
0.220321
40
0.2795204
50
132.4834203
51
181.0242172
0
ARC
8
DEFAULT_255_1_234
10
16.6054686
20
0.1640704
40
0.3612768
50
129.2532479
51
133.4242687
0
ARC
8
DEFAULT_255_1_234
10
16.6201135
20
0.1420965
40
0.3875675
50
101.98776
51
128.8742646
0
ARC
8
DEFAULT_255_1_234
10
16.6599746
20
-0.0300259
40
0.5642249
50
89.5906553
51
102.3169264
0
ARC
8
DEFAULT_255_1_234
10
16.6670238
20
0.0018148
40
0.5323783
50
77.2360837
51
90.3248275
0
ARC
8
DEFAULT_255_1_234
10
16.6877317
20
0.09854
40
0.4334697
50
63.837784
51
77.0809408
0
ARC
8
DEFAULT_255_1_234
10
16.7155079
20
0.1502911
40
0.3747796
50
45.9864267
51
64.1607727
0
ARC
8
DEFAULT_255_1_234
10
16.741596
20
0.1800866
40
0.3352302
50
32.2747395
51
45.6547121
0
ARC
8
DEFAULT_255_1_234
10
16.7482401
20
0.181988
40
0.328603
50
359.6507365
51
32.6130309
0
ARC
8
DEFAULT_255_1_234
10
16.6539496
20
0.182466
40
0.2678863
50
359.469343
51
14.9832209
0
ARC
8
DEFAULT_255_1_234
10
16.7244559
20
0.2013539
40
0.1948938
50
14.9781179
51
48.2004265
0
ARC
8
DEFAULT_255_1_234
10
16.7080203
20
0.1806983
40
0.2212521
50
48.5927837
51
74.1241538
0
ARC
8
DEFAULT_255_1_234
10
16.6746692
20
0.0706248
40
0.3362561
50
73.7888341
51
86.6652678
0
ARC
8
DEFAULT_255_1_234
10
16.6644258
20
-0.0501119
40
0.4573953
50
86.2640471
51
90.0526343
0
ARC
8
DEFAULT_255_1_234
10
16.6615971
20
-0.0105808
40
0.4178709
50
89.6697524
51
99.2309573
0
ARC
8
DEFAULT_255_1_234
10
16.6373421
20
0.1338964
40
0.2713749
50
99.069534
51
113.7658566
0
ARC
8
DEFAULT_255_1_234
10
16.6099613
20
0.1984677
40
0.2012469
50
114.0401004
51
127.9850673
0
ARC
8
DEFAULT_255_1_234
10
16.5859177
20
0.228073
40
0.1631167
50
127.7287463
51
176.7105154
0
ARC
8
DEFAULT_255_1_234
10
16.6537894
20
0.2179693
40
0.2315392
50
175.1779447
51
180.0581938
0
ARC
8
DEFAULT_255_1_234
10
16.5694741
20
0.2167428
40
0.1472271
50
179.6142195
51
228.1246017
0
ARC
8
DEFAULT_255_1_234
10
16.6136409
20
0.2576308
40
0.2072299
50
226.5779593
51
230.8800004
0
ARC
8
DEFAULT_255_1_234
10
16.6607488
20
0.3201636
40
0.2854818
50
231.4635071
51
241.9260842
0
ARC
8
DEFAULT_255_1_234
10
16.7804666
20
0.54048
40
0.53622
50
241.7178533
51
248.3259551
0
ARC
8
DEFAULT_255_1_234
10
16.9190038
20
0.8837064
40
0.9063478
50
248.2007737
51
252.4528373
0
ARC
8
DEFAULT_255_1_234
10
17.0393763
20
1.2558441
40
1.2974635
50
252.3391078
51
254.3469452
0
ARC
8
DEFAULT_255_1_234
10
16.2851465
20
-1.4418852
40
1.5037162
50
71.0197183
51
74.4087047
0
ARC
8
DEFAULT_255_1_234
10
16.4546151
20
-0.9526889
40
0.9859993
50
66.1847285
51
71.086374
0
ARC
8
DEFAULT_255_1_234
10
16.6102463
20
-0.60228
40
0.6025855
50
59.3536294
51
66.2691831
0
ARC
8
DEFAULT_255_1_234
10
16.6991115
20
-0.4519391
40
0.4279449
50
49.1020879
51
59.3293958
0
ARC
8
DEFAULT_255_1_234
10
16.7809855
20
-0.3586166
40
0.3038015
50
32.7919921
51
49.2505539
0
ARC
8
DEFAULT_255_1_234
10
16.8130945
20
-0.3357809
40
0.264448
50
31.1181161
51
32.4005348
0
ARC
8
DEFAULT_255_1_234
10
16.8042483
20
-0.3393221
40
0.2738556
50
8.1116974
51
30.7958831
0
ARC
8
DEFAULT_255_1_234
10
16.7232151
20
-0.3531247
40
0.3560327
50
359.8389159
51
8.4706516
0
ARC
8
DEFAULT_255_1_234
10
16.7857943
20
-0.3579863
40
0.2934776
50
337.4731098
51
0.7537279
0
ARC
8
DEFAULT_255_1_234
10
16.8036637
20
-0.3599613
40
0.2762607
50
307.5917067
51
336.4315538
0
ARC
8
DEFAULT_255_1_234
10
16.7576465
20
-0.3086898
40
0.3449979
50
307.6551545
51
308.4529766
0
ARC
8
DEFAULT_255_1_234
10
16.7346184
20
-0.273175
40
0.3871988
50
284.3734338
51
307.1424381
0
ARC
8
DEFAULT_255_1_234
10
16.6851014
20
-0.0910068
40
0.5759636
50
272.4382747
51
284.646547
0
ARC
8
DEFAULT_255_1_234
10
16.6724223
20
0.0889893
40
0.7563528
50
269.9708387
51
272.8178037
0
ARC
8
DEFAULT_255_1_234
10
16.6681263
20
-0.1148284
40
0.5525489
50
248.2707594
51
270.4055579
0
ARC
8
DEFAULT_255_1_234
10
16.6627004
20
-0.1338808
40
0.5328452
50
246.1383403
51
248.0542782
0
ARC
8
DEFAULT_255_1_234
10
16.6208383
20
-0.2218157
40
0.4355005
50
233.1670131
51
246.4950969
0
ARC
8
DEFAULT_255_1_234
10
16.5654288
20
-0.2966188
40
0.3424126
50
215.3403242
51
233.0843104
0
ARC
8
DEFAULT_255_1_234
10
16.5381719
20
-0.3164451
40
0.3087104
50
179.2419209
51
215.2648451
0
ARC
8
DEFAULT_255_1_234
10
16.6149313
20
-0.3150334
40
0.2304457
50
179.335461
51
199.1045811
0
ARC
8
DEFAULT_255_1_234
10
16.5816989
20
-0.3237234
40
0.1962176
50
199.8828939
51
232.7063202
0
ARC
8
DEFAULT_255_1_234
10
16.6289258
20
-0.2643212
40
0.2720938
50
232.3738199
51
255.5136649
0
ARC
8
DEFAULT_255_1_234
10
16.6630124
20
-0.1399165
40
0.4010747
50
255.2446292
51
267.5320849
0
ARC
8
DEFAULT_255_1_234
10
16.6717748
20
-0.0166298
40
0.5246356
50
267.1557994
51
270.0286766
0
ARC
8
DEFAULT_255_1_234
10
16.674552
20
-0.061005
40
0.4802668
50
269.7000017
51
278.1660162
0
ARC
8
DEFAULT_255_1_234
10
16.7001525
20
-0.2340485
40
0.3053425
50
278.0231263
51
290.625471
0
ARC
8
DEFAULT_255_1_234
10
16.7349212
20
-0.3267975
40
0.206291
50
290.6619762
51
307.0370976
0
ARC
8
DEFAULT_255_1_234
10
16.7649601
20
-0.3636496
40
0.1587906
50
306.3943566
51
355.3030547
0
ARC
8
DEFAULT_255_1_234
10
16.7137533
20
-0.3559887
40
0.2104809
50
354.3660432
51
0.0698737
0
ARC
8
DEFAULT_255_1_234
10
16.7279878
20
-0.3537383
40
0.1962563
50
359.417946
51
16.1971788
0
ARC
8
DEFAULT_255_1_234
10
16.7735188
20
-0.3412582
40
0.149053
50
16.4723299
51
52.6262157
0
ARC
8
DEFAULT_255_1_234
10
16.6914242
20
-0.4496567
40
0.2850296
50
52.7386432
51
62.4979148
0
ARC
8
DEFAULT_255_1_234
10
16.5529319
20
-0.7102717
40
0.5801521
50
62.2515216
51
68.1220564
0
ARC
8
DEFAULT_255_1_234
10
16.380923
20
-1.1330128
40
1.0365451
50
68.0062803
51
71.8053402
0
ARC
8
DEFAULT_255_1_234
10
16.2013601
20
-1.6715242
40
1.6042013
50
71.7183119
51
73.9258742
0
LINE
8
DEFAULT_255_1_234
10
17.7266046
20
0.5237433
11
17.7266046
21
-0.6513
0
LINE
8
DEFAULT_255_1_234
10
17.7266046
20
-0.6513
11
17.5772143
21
-0.6513
0
LINE
8
DEFAULT_255_1_234
10
17.5772143
20
-0.6513
11
17.5772143
21
0.3390133
0
LINE
8
DEFAULT_255_1_234
10
17.5772143
20
0.3390133
11
17.2776304
21
0.2289785
0
LINE
8
DEFAULT_255_1_234
10
17.2776304
20
0.2289785
11
17.2776304
21
0.3639117
0
LINE
8
DEFAULT_255_1_234
10
17.2776304
20
0.3639117
11
17.7033125
21
0.5237433
0
LINE
8
DEFAULT_255_1_234
10
17.7033125
20
0.5237433
11
17.7266046
21
0.5237433
0
LINE
8
DEFAULT_255_1_234
10
18.6502545
20
0.5237433
11
18.6502545
21
-0.6513
0
LINE
8
DEFAULT_255_1_234
10
18.6502545
20
-0.6513
11
18.5008642
21
-0.6513
0
LINE
8
DEFAULT_255_1_234
10
18.5008642
20
-0.6513
11
18.5008642
21
0.3390133
0
LINE
8
DEFAULT_255_1_234
10
18.5008642
20
0.3390133
11
18.2012803
21
0.2289785
0
LINE
8
DEFAULT_255_1_234
10
18.2012803
20
0.2289785
11
18.2012803
21
0.3639117
0
LINE
8
DEFAULT_255_1_234
10
18.2012803
20
0.3639117
11
18.6269625
21
0.5237433
0
LINE
8
DEFAULT_255_1_234
10
18.6269625
20
0.5237433
11
18.6502545
21
0.5237433
0
LINE
8
DEFAULT_255_1_234
10
11.484323
20
86.3707663
11
11.6393355
21
86.3707663
0
LINE
8
DEFAULT_255_1_234
10
10.7389777
20
86.5297947
11
10.7389777
21
86.6422391
0
LINE
8
DEFAULT_255_1_234
10
11.6393355
20
86.7932357
11
11.484323
21
86.7932357
0
LINE
8
DEFAULT_255_1_234
10
10.8939902
20
86.6382232
11
10.8939902
21
86.5249757
0
ARC
8
DEFAULT_255_1_234
10
11.0912742
20
86.4304846
40
0.5513052
50
340.1774281
51
353.7814284
0
ARC
8
DEFAULT_255_1_234
10
11.2484095
20
86.3719582
40
0.3836379
50
311.4558989
51
340.4421614
0
ARC
8
DEFAULT_255_1_234
10
11.2450763
20
86.3830528
40
0.3941894
50
282.4333181
51
310.7513653
0
ARC
8
DEFAULT_255_1_234
10
11.2011502
20
86.5645679
40
0.5809175
50
269.9358511
51
282.809604
0
ARC
8
DEFAULT_255_1_234
10
11.1959568
20
86.7103212
40
0.7266847
50
270.0021091
51
270.3581957
0
ARC
8
DEFAULT_255_1_234
10
11.1906985
20
86.4502585
40
0.4666519
50
250.7884749
51
270.6489167
0
ARC
8
DEFAULT_255_1_234
10
11.173882
20
86.3865319
40
0.4009729
50
219.3627325
51
250.0611886
0
ARC
8
DEFAULT_255_1_234
10
11.2568031
20
86.4570042
40
0.5097822
50
193.5479632
51
219.5756669
0
ARC
8
DEFAULT_255_1_234
10
11.4939652
20
86.5185919
40
0.7547848
50
181.1218675
51
193.87563
0
ARC
8
DEFAULT_255_1_234
10
11.7009833
20
86.529658
40
0.9620055
50
179.9918545
51
181.5394234
0
ARC
8
DEFAULT_255_1_234
10
11.5158935
20
86.6459788
40
0.7769248
50
169.5837241
51
180.2757934
0
ARC
8
DEFAULT_255_1_234
10
11.3321873
20
86.6799229
40
0.590109
50
155.0365899
51
169.6003176
0
ARC
8
DEFAULT_255_1_234
10
11.2186337
20
86.7346677
40
0.4640625
50
136.783148
51
155.2472683
0
ARC
8
DEFAULT_255_1_234
10
11.1796814
20
86.7677562
40
0.4130255
50
121.7633186
51
136.428115
0
ARC
8
DEFAULT_255_1_234
10
11.1931776
20
86.7428227
40
0.4413323
50
95.6459699
51
121.5490577
0
ARC
8
DEFAULT_255_1_234
10
11.2089058
20
86.6319949
40
0.55319
50
89.924208
51
96.1377933
0
ARC
8
DEFAULT_255_1_234
10
11.2139491
20
86.6438542
40
0.5413475
50
76.6779277
51
90.4563316
0
ARC
8
DEFAULT_255_1_234
10
11.2533114
20
86.8029114
40
0.3775041
50
47.485847
51
76.9287264
0
ARC
8
DEFAULT_255_1_234
10
11.2386087
20
86.7929159
40
0.3948286
50
16.5424086
51
46.8933463
0
ARC
8
DEFAULT_255_1_234
10
11.0778244
20
86.7400861
40
0.564021
50
5.4072051
51
17.0365086
0
ARC
8
DEFAULT_255_1_234
10
10.9339261
20
86.7169679
40
0.5556559
50
7.8891745
51
15.9239216
0
ARC
8
DEFAULT_255_1_234
10
11.1326274
20
86.7746631
40
0.3487515
50
15.7653144
51
27.9410532
0
ARC
8
DEFAULT_255_1_234
10
11.2430492
20
86.833779
40
0.2235026
50
27.8166557
51
46.4008329
0
ARC
8
DEFAULT_255_1_234
10
11.2480135
20
86.8332082
40
0.2205286
50
47.4371857
51
75.0698205
0
ARC
8
DEFAULT_255_1_234
10
11.2171529
20
86.7257765
40
0.3322915
50
74.7008593
51
87.8124495
0
ARC
8
DEFAULT_255_1_234
10
11.2098217
20
86.6201844
40
0.4380987
50
87.3814673
51
90.0240855
0
ARC
8
DEFAULT_255_1_234
10
11.205976
20
86.7379291
40
0.3203749
50
89.3451631
51
108.5745436
0
ARC
8
DEFAULT_255_1_234
10
11.1922865
20
86.7892908
40
0.2673494
50
109.2998449
51
143.3037509
0
ARC
8
DEFAULT_255_1_234
10
11.2684938
20
86.7306881
40
0.3634757
50
143.0753173
51
163.1916937
0
ARC
8
DEFAULT_255_1_234
10
11.4636666
20
86.6690967
40
0.5681262
50
162.9373603
51
174.6208611
0
ARC
8
DEFAULT_255_1_234
10
11.7262708
20
86.640301
40
0.8322832
50
174.3419979
51
180.1430411
0
ARC
8
DEFAULT_255_1_234
10
11.6331864
20
86.5208698
40
0.7392076
50
179.6817502
51
189.150529
0
ARC
8
DEFAULT_255_1_234
10
11.3831112
20
86.479219
40
0.4856932
50
188.9910863
51
203.5773039
0
ARC
8
DEFAULT_255_1_234
10
11.2751445
20
86.4344211
40
0.3688271
50
203.9077269
51
215.1312379
0
ARC
8
DEFAULT_255_1_234
10
11.1828539
20
86.3628941
40
0.2522457
50
213.9071664
51
263.8849284
0
ARC
8
DEFAULT_255_1_234
10
11.1953868
20
86.4413518
40
0.3316174
50
263.1758525
51
270.1031083
0
ARC
8
DEFAULT_255_1_234
10
11.198596
20
86.5660365
40
0.4563091
50
269.6719807
51
279.0609165
0
ARC
8
DEFAULT_255_1_234
10
11.2252728
20
86.4047907
40
0.2928759
50
278.8750225
51
293.6346586
0
ARC
8
DEFAULT_255_1_234
10
11.2572936
20
86.32959
40
0.2111472
50
293.8553404
51
310.0518804
0
ARC
8
DEFAULT_255_1_234
10
11.257779
20
86.3233516
40
0.2060917
50
311.0646779
51
332.0108348
0
ARC
8
DEFAULT_255_1_234
10
11.1385517
20
86.3890978
40
0.3422352
50
331.6588543
51
343.2878891
0
ARC
8
DEFAULT_255_1_234
10
10.9323032
20
86.4524798
40
0.5580003
50
343.1446044
51
351.010618
0
ARC
8
DEFAULT_255_1_234
10
10.7781678
20
86.4805871
40
0.7146438
50
350.7157277
51
351.1602153
0
LINE
8
DEFAULT_255_1_234
10
12.625633
20
86.8309849
11
12.4706205
21
86.8309849
0
LINE
8
DEFAULT_255_1_234
10
11.7782846
20
86.3386394
11
11.9332972
21
86.3386394
0
ARC
8
DEFAULT_255_1_234
10
12.5365017
20
87.7256768
40
1.252368
50
248.9199003
51
254.1439814
0
ARC
8
DEFAULT_255_1_234
10
12.3684512
20
87.2930234
40
0.788226
50
241.633709
51
249.0064503
0
ARC
8
DEFAULT_255_1_234
10
12.2155907
20
87.0129317
40
0.4691427
50
230.498225
51
241.8087113
0
ARC
8
DEFAULT_255_1_234
10
12.1371481
20
86.9129906
40
0.3421437
50
227.4064532
51
229.9881192
0
ARC
8
DEFAULT_255_1_234
10
12.0884002
20
86.8654088
40
0.2741476
50
200.6781896
51
228.1763934
0
ARC
8
DEFAULT_255_1_234
10
12.0956312
20
86.8639077
40
0.2804109
50
179.5061581
51
199.8694617
0
ARC
8
DEFAULT_255_1_234
10
12.0947064
20
86.871321
40
0.2795204
50
132.4834203
51
181.0242172
0
ARC
8
DEFAULT_255_1_234
10
12.1542646
20
86.8150704
40
0.3612768
50
129.2532479
51
133.4242687
0
ARC
8
DEFAULT_255_1_234
10
12.1689096
20
86.7930965
40
0.3875675
50
101.98776
51
128.8742646
0
ARC
8
DEFAULT_255_1_234
10
12.2087706
20
86.6209741
40
0.5642249
50
89.5906553
51
102.3169264
0
ARC
8
DEFAULT_255_1_234
10
12.2158199
20
86.6528148
40
0.5323783
50
77.2360837
51
90.3248275
0
ARC
8
DEFAULT_255_1_234
10
12.2365278
20
86.74954
40
0.4334697
50
63.837784
51
77.0809408
0
ARC
8
DEFAULT_255_1_234
10
12.2643039
20
86.8012911
40
0.3747796
50
45.9864267
51
64.1607727
0
ARC
8
DEFAULT_255_1_234
10
12.2903921
20
86.8310866
40
0.3352302
50
32.2747395
51
45.6547121
0
ARC
8
DEFAULT_255_1_234
10
12.2970361
20
86.832988
40
0.328603
50
359.6507365
51
32.6130309
0
ARC
8
DEFAULT_255_1_234
10
12.2027457
20
86.833466
40
0.2678863
50
359.469343
51
14.9832209
0
ARC
8
DEFAULT_255_1_234
10
12.2732519
20
86.8523539
40
0.1948938
50
14.9781179
51
48.2004265
0
ARC
8
DEFAULT_255_1_234
10
12.2568163
20
86.8316983
40
0.2212521
50
48.5927837
51
74.1241538
0
ARC
8
DEFAULT_255_1_234
10
12.2234653
20
86.7216248
40
0.3362561
50
73.7888341
51
86.6652678
0
ARC
8
DEFAULT_255_1_234
10
12.2132218
20
86.6008881
40
0.4573953
50
86.2640471
51
90.0526343
0
ARC
8
DEFAULT_255_1_234
10
12.2103931
20
86.6404192
40
0.4178709
50
89.6697524
51
99.2309573
0
ARC
8
DEFAULT_255_1_234
10
12.1861382
20
86.7848964
40
0.2713749
50
99.069534
51
113.7658566
0
ARC
8
DEFAULT_255_1_234
10
12.1587573
20
86.8494677
40
0.2012469
50
114.0401004
51
127.9850673
0
ARC
8
DEFAULT_255_1_234
10
12.1347137
20
86.879073
40
0.1631167
50
127.7287463
51
176.7105154
0
ARC
8
DEFAULT_255_1_234
10
12.2025854
20
86.8689693
40
0.2315392
50
175.1779447
51
180.0581938
0
ARC
8
DEFAULT_255_1_234
10
12.1182701
20
86.8677428
40
0.1472271
50
179.6142195
51
228.1246017
0
ARC
8
DEFAULT_255_1_234
10
12.162437
20
86.9086308
40
0.2072299
50
226.5779593
51
230.8800004
0
ARC
8
DEFAULT_255_1_234
10
12.2095448
20
86.9711636
40
0.2854818
50
231.4635071
51
241.9260842
0
ARC
8
DEFAULT_255_1_234
10
12.3292626
20
87.19148
40
0.53622
50
241.7178533
51
248.3259551
0
ARC
8
DEFAULT_255_1_234
10
12.4677998
20
87.5347064
40
0.9063478
50
248.2007737
51
252.4528373
0
ARC
8
DEFAULT_255_1_234
10
12.5881723
20
87.9068441
40
1.2974635
50
252.3391078
51
254.3469452
0
ARC
8
DEFAULT_255_1_234
10
11.8339426
20
85.2091148
40
1.5037162
50
71.0197183
51
74.4087047
0
ARC
8
DEFAULT_255_1_234
10
12.0034111
20
85.6983111
40
0.9859993
50
66.1847285
51
71.086374
0
ARC
8
DEFAULT_255_1_234
10
12.1590423
20
86.04872
40
0.6025855
50
59.3536294
51
66.2691831
0
ARC
8
DEFAULT_255_1_234
10
12.2479076
20
86.1990609
40
0.4279449
50
49.1020879
51
59.3293958
0
ARC
8
DEFAULT_255_1_234
10
12.3297816
20
86.2923834
40
0.3038015
50
32.7919921
51
49.2505539
0
ARC
8
DEFAULT_255_1_234
10
12.3618906
20
86.3152191
40
0.264448
50
31.1181161
51
32.4005348
0
ARC
8
DEFAULT_255_1_234
10
12.3530443
20
86.3116779
40
0.2738556
50
8.1116974
51
30.7958831
0
ARC
8
DEFAULT_255_1_234
10
12.2720111
20
86.2978753
40
0.3560327
50
359.8389159
51
8.4706516
0
ARC
8
DEFAULT_255_1_234
10
12.3345903
20
86.2930137
40
0.2934776
50
337.4731098
51
0.7537279
0
ARC
8
DEFAULT_255_1_234
10
12.3524598
20
86.2910387
40
0.2762607
50
307.5917067
51
336.4315538
0
ARC
8
DEFAULT_255_1_234
10
12.3064426
20
86.3423102
40
0.3449979
50
307.6551545
51
308.4529766
0
ARC
8
DEFAULT_255_1_234
10
12.2834145
20
86.377825
40
0.3871988
50
284.3734338
51
307.1424381
0
ARC
8
DEFAULT_255_1_234
10
12.2338975
20
86.5599932
40
0.5759636
50
272.4382747
51
284.646547
0
ARC
8
DEFAULT_255_1_234
10
12.2212184
20
86.7399893
40
0.7563528
50
269.9708387
51
272.8178037
0
ARC
8
DEFAULT_255_1_234
10
12.2169223
20
86.5361716
40
0.5525489
50
248.2707594
51
270.4055579
0
ARC
8
DEFAULT_255_1_234
10
12.2114964
20
86.5171192
40
0.5328452
50
246.1383403
51
248.0542782
0
ARC
8
DEFAULT_255_1_234
10
12.1696343
20
86.4291843
40
0.4355005
50
233.1670131
51
246.4950969
0
ARC
8
DEFAULT_255_1_234
10
12.1142248
20
86.3543812
40
0.3424126
50
215.3403242
51
233.0843104
0
ARC
8
DEFAULT_255_1_234
10
12.0869679
20
86.3345549
40
0.3087104
50
179.2419209
51
215.2648451
0
ARC
8
DEFAULT_255_1_234
10
12.1637273
20
86.3359666
40
0.2304457
50
179.335461
51
199.1045811
0
ARC
8
DEFAULT_255_1_234
10
12.130495
20
86.3272766
40
0.1962176
50
199.8828939
51
232.7063202
0
ARC
8
DEFAULT_255_1_234
10
12.1777218
20
86.3866788
40
0.2720938
50
232.3738199
51
255.5136649
0
ARC
8
DEFAULT_255_1_234
10
12.2118085
20
86.5110835
40
0.4010747
50
255.2446292
51
267.5320849
0
ARC
8
DEFAULT_255_1_234
10
12.2205708
20
86.6343702
40
0.5246356
50
267.1557994
51
270.0286766
0
ARC
8
DEFAULT_255_1_234
10
12.223348
20
86.589995
40
0.4802668
50
269.7000017
51
278.1660162
0
ARC
8
DEFAULT_255_1_234
10
12.2489485
20
86.4169515
40
0.3053425
50
278.0231263
51
290.625471
0
ARC
8
DEFAULT_255_1_234
10
12.2837172
20
86.3242025
40
0.206291
50
290.6619762
51
307.0370976
0
ARC
8
DEFAULT_255_1_234
10
12.3137562
20
86.2873504
40
0.1587906
50
306.3943566
51
355.3030547
0
ARC
8
DEFAULT_255_1_234
10
12.2625493
20
86.2950113
40
0.2104809
50
354.3660432
51
0.0698737
0
ARC
8
DEFAULT_255_1_234
10
12.2767838
20
86.2972617
40
0.1962563
50
359.417946
51
16.1971788
0
ARC
8
DEFAULT_255_1_234
10
12.3223149
20
86.3097418
40
0.149053
50
16.4723299
51
52.6262157
0
ARC
8
DEFAULT_255_1_234
10
12.2402202
20
86.2013433
40
0.2850296
50
52.7386432
51
62.4979148
0
ARC
8
DEFAULT_255_1_234
10
12.1017279
20
85.9407283
40
0.5801521
50
62.2515216
51
68.1220564
0
ARC
8
DEFAULT_255_1_234
10
11.929719
20
85.5179872
40
1.0365451
50
68.0062803
51
71.8053402
0
ARC
8
DEFAULT_255_1_234
10
11.7501562
20
84.9794758
40
1.6042013
50
71.7183119
51
73.9258742
0
LINE
8
DEFAULT_255_1_234
10
13.1115532
20
86.5571026
11
13.1115532
21
86.4358234
0
LINE
8
DEFAULT_255_1_234
10
13.1115532
20
86.4358234
11
12.7196043
21
86.4358234
0
LINE
8
DEFAULT_255_1_234
10
12.7196043
20
86.4358234
11
12.7196043
21
86.5571026
0
LINE
8
DEFAULT_255_1_234
10
12.7196043
20
86.5571026
11
13.1115532
21
86.5571026
0
LINE
8
DEFAULT_255_1_234
10
14.0552824
20
86.8309849
11
13.9002699
21
86.8309849
0
LINE
8
DEFAULT_255_1_234
10
13.207934
20
86.3386394
11
13.3629466
21
86.3386394
0
ARC
8
DEFAULT_255_1_234
10
13.9661512
20
87.7256768
40
1.252368
50
248.9199003
51
254.1439814
0
ARC
8
DEFAULT_255_1_234
10
13.7981006
20
87.2930234
40
0.788226
50
241.633709
51
249.0064503
0
ARC
8
DEFAULT_255_1_234
10
13.6452401
20
87.0129317
40
0.4691427
50
230.498225
51
241.8087113
0
ARC
8
DEFAULT_255_1_234
10
13.5667975
20
86.9129906
40
0.3421437
50
227.4064532
51
229.9881192
0
ARC
8
DEFAULT_255_1_234
10
13.5180496
20
86.8654088
40
0.2741476
50
200.6781896
51
228.1763934
0
ARC
8
DEFAULT_255_1_234
10
13.5252806
20
86.8639077
40
0.2804109
50
179.5061581
51
199.8694617
0
ARC
8
DEFAULT_255_1_234
10
13.5243558
20
86.871321
40
0.2795204
50
132.4834203
51
181.0242172
0
ARC
8
DEFAULT_255_1_234
10
13.583914
20
86.8150704
40
0.3612768
50
129.2532479
51
133.4242687
0
ARC
8
DEFAULT_255_1_234
10
13.598559
20
86.7930965
40
0.3875675
50
101.98776
51
128.8742646
0
ARC
8
DEFAULT_255_1_234
10
13.6384201
20
86.6209741
40
0.5642249
50
89.5906553
51
102.3169264
0
ARC
8
DEFAULT_255_1_234
10
13.6454693
20
86.6528148
40
0.5323783
50
77.2360837
51
90.3248275
0
ARC
8
DEFAULT_255_1_234
10
13.6661772
20
86.74954
40
0.4334697
50
63.837784
51
77.0809408
0
ARC
8
DEFAULT_255_1_234
10
13.6939534
20
86.8012911
40
0.3747796
50
45.9864267
51
64.1607727
0
ARC
8
DEFAULT_255_1_234
10
13.7200415
20
86.8310866
40
0.3352302
50
32.2747395
51
45.6547121
0
ARC
8
DEFAULT_255_1_234
10
13.7266856
20
86.832988
40
0.328603
50
359.6507365
51
32.6130309
0
ARC
8
DEFAULT_255_1_234
10
13.6323951
20
86.833466
40
0.2678863
50
359.469343
51
14.9832209
0
ARC
8
DEFAULT_255_1_234
10
13.7029013
20
86.8523539
40
0.1948938
50
14.9781179
51
48.2004265
0
ARC
8
DEFAULT_255_1_234
10
13.6864657
20
86.8316983
40
0.2212521
50
48.5927837
51
74.1241538
0
ARC
8
DEFAULT_255_1_234
10
13.6531147
20
86.7216248
40
0.3362561
50
73.7888341
51
86.6652678
0
ARC
8
DEFAULT_255_1_234
10
13.6428713
20
86.6008881
40
0.4573953
50
86.2640471
51
90.0526343
0
ARC
8
DEFAULT_255_1_234
10
13.6400425
20
86.6404192
40
0.4178709
50
89.6697524
51
99.2309573
0
ARC
8
DEFAULT_255_1_234
10
13.6157876
20
86.7848964
40
0.2713749
50
99.069534
51
113.7658566
0
ARC
8
DEFAULT_255_1_234
10
13.5884067
20
86.8494677
40
0.2012469
50
114.0401004
51
127.9850673
0
ARC
8
DEFAULT_255_1_234
10
13.5643631
20
86.879073
40
0.1631167
50
127.7287463
51
176.7105154
0
ARC
8
DEFAULT_255_1_234
10
13.6322348
20
86.8689693
40
0.2315392
50
175.1779447
51
180.0581938
0
ARC
8
DEFAULT_255_1_234
10
13.5479195
20
86.8677428
40
0.1472271
50
179.6142195
51
228.1246017
0
ARC
8
DEFAULT_255_1_234
10
13.5920864
20
86.9086308
40
0.2072299
50
226.5779593
51
230.8800004
0
ARC
8
DEFAULT_255_1_234
10
13.6391943
20
86.9711636
40
0.2854818
50
231.4635071
51
241.9260842
0
ARC
8
DEFAULT_255_1_234
10
13.7589121
20
87.19148
40
0.53622
50
241.7178533
51
248.3259551
0
ARC
8
DEFAULT_255_1_234
10
13.8974492
20
87.5347064
40
0.9063478
50
248.2007737
51
252.4528373
0
ARC
8
DEFAULT_255_1_234
10
14.0178217
20
87.9068441
40
1.2974635
50
252.3391078
51
254.3469452
0
ARC
8
DEFAULT_255_1_234
10
13.263592
20
85.2091148
40
1.5037162
50
71.0197183
51
74.4087047
0
ARC
8
DEFAULT_255_1_234
10
13.4330605
20
85.6983111
40
0.9859993
50
66.1847285
51
71.086374
0
ARC
8
DEFAULT_255_1_234
10
13.5886918
20
86.04872
40
0.6025855
50
59.3536294
51
66.2691831
0
ARC
8
DEFAULT_255_1_234
10
13.677557
20
86.1990609
40
0.4279449
50
49.1020879
51
59.3293958
0
ARC
8
DEFAULT_255_1_234
10
13.759431
20
86.2923834
40
0.3038015
50
32.7919921
51
49.2505539
0
ARC
8
DEFAULT_255_1_234
10
13.79154
20
86.3152191
40
0.264448
50
31.1181161
51
32.4005348
0
ARC
8
DEFAULT_255_1_234
10
13.7826938
20
86.3116779
40
0.2738556
50
8.1116974
51
30.7958831
0
ARC
8
DEFAULT_255_1_234
10
13.7016606
20
86.2978753
40
0.3560327
50
359.8389159
51
8.4706516
0
ARC
8
DEFAULT_255_1_234
10
13.7642397
20
86.2930137
40
0.2934776
50
337.4731098
51
0.7537279
0
ARC
8
DEFAULT_255_1_234
10
13.7821092
20
86.2910387
40
0.2762607
50
307.5917067
51
336.4315538
0
ARC
8
DEFAULT_255_1_234
10
13.736092
20
86.3423102
40
0.3449979
50
307.6551545
51
308.4529766
0
ARC
8
DEFAULT_255_1_234
10
13.7130639
20
86.377825
40
0.3871988
50
284.3734338
51
307.1424381
0
ARC
8
DEFAULT_255_1_234
10
13.6635469
20
86.5599932
40
0.5759636
50
272.4382747
51
284.646547
0
ARC
8
DEFAULT_255_1_234
10
13.6508678
20
86.7399893
40
0.7563528
50
269.9708387
51
272.8178037
0
ARC
8
DEFAULT_255_1_234
10
13.6465717
20
86.5361716
40
0.5525489
50
248.2707594
51
270.4055579
0
ARC
8
DEFAULT_255_1_234
10
13.6411458
20
86.5171192
40
0.5328452
50
246.1383403
51
248.0542782
0
ARC
8
DEFAULT_255_1_234
10
13.5992837
20
86.4291843
40
0.4355005
50
233.1670131
51
246.4950969
0
ARC
8
DEFAULT_255_1_234
10
13.5438742
20
86.3543812
40
0.3424126
50
215.3403242
51
233.0843104
0
ARC
8
DEFAULT_255_1_234
10
13.5166174
20
86.3345549
40
0.3087104
50
179.2419209
51
215.2648451
0
ARC
8
DEFAULT_255_1_234
10
13.5933767
20
86.3359666
40
0.2304457
50
179.335461
51
199.1045811
0
ARC
8
DEFAULT_255_1_234
10
13.5601444
20
86.3272766
40
0.1962176
50
199.8828939
51
232.7063202
0
ARC
8
DEFAULT_255_1_234
10
13.6073712
20
86.3866788
40
0.2720938
50
232.3738199
51
255.5136649
0
ARC
8
DEFAULT_255_1_234
10
13.6414579
20
86.5110835
40
0.4010747
50
255.2446292
51
267.5320849
0
ARC
8
DEFAULT_255_1_234
10
13.6502202
20
86.6343702
40
0.5246356
50
267.1557994
51
270.0286766
0
ARC
8
DEFAULT_255_1_234
10
13.6529975
20
86.589995
40
0.4802668
50
269.7000017
51
278.1660162
0
ARC
8
DEFAULT_255_1_234
10
13.6785979
20
86.4169515
40
0.3053425
50
278.0231263
51
290.625471
0
ARC
8
DEFAULT_255_1_234
10
13.7133666
20
86.3242025
40
0.206291
50
290.6619762
51
307.0370976
0
ARC
8
DEFAULT_255_1_234
10
13.7434056
20
86.2873504
40
0.1587906
50
306.3943566
51
355.3030547
0
ARC
8
DEFAULT_255_1_234
10
13.6921987
20
86.2950113
40
0.2104809
50
354.3660432
51
0.0698737
0
ARC
8
DEFAULT_255_1_234
10
13.7064332
20
86.2972617
40
0.1962563
50
359.417946
51
16.1971788
0
ARC
8
DEFAULT_255_1_234
10
13.7519643
20
86.3097418
40
0.149053
50
16.4723299
51
52.6262157
0
ARC
8
DEFAULT_255_1_234
10
13.6698697
20
86.2013433
40
0.2850296
50
52.7386432
51
62.4979148
0
ARC
8
DEFAULT_255_1_234
10
13.5313773
20
85.9407283
40
0.5801521
50
62.2515216
51
68.1220564
0
ARC
8
DEFAULT_255_1_234
10
13.3593684
20
85.5179872
40
1.0365451
50
68.0062803
51
71.8053402
0
ARC
8
DEFAULT_255_1_234
10
13.1798056
20
84.9794758
40
1.6042013
50
71.7183119
51
73.9258742
0
LINE
8
DEFAULT_255_1_234
10
14.1942315
20
86.4101218
11
14.1942315
21
86.4374297
0
LINE
8
DEFAULT_255_1_234
10
14.9315451
20
86.4534932
11
14.9315451
21
86.3916488
0
LINE
8
DEFAULT_255_1_234
10
14.9315451
20
86.3916488
11
14.3428187
21
86.3916488
0
LINE
8
DEFAULT_255_1_234
10
14.829542
20
86.2221792
11
14.9203006
21
86.1514999
0
LINE
8
DEFAULT_255_1_234
10
14.3476377
20
86.5137313
11
14.7829579
21
86.5137313
0
LINE
8
DEFAULT_255_1_234
10
14.7829579
20
86.5137313
11
14.7829579
21
86.5249757
0
ARC
8
DEFAULT_255_1_234
10
14.588168
20
86.4212332
40
0.4376191
50
252.3266134
51
270.5810217
0
ARC
8
DEFAULT_255_1_234
10
14.5676769
20
86.3471644
40
0.3608374
50
223.3000567
51
251.8561855
0
ARC
8
DEFAULT_255_1_234
10
14.588813
20
86.3676937
40
0.3902993
50
190.9374509
51
223.3654032
0
ARC
8
DEFAULT_255_1_234
10
14.7613102
20
86.4066885
40
0.5670891
50
179.6531105
51
191.4989439
0
ARC
8
DEFAULT_255_1_234
10
14.7735114
20
86.4406417
40
0.5792888
50
167.4007466
51
180.3176909
0
ARC
8
DEFAULT_255_1_234
10
14.6683176
20
86.4628885
40
0.471777
50
154.1835823
51
167.250763
0
ARC
8
DEFAULT_255_1_234
10
14.6051643
20
86.4961417
40
0.4004528
50
134.3149965
51
154.5315275
0
ARC
8
DEFAULT_255_1_234
10
14.5834138
20
86.5152228
40
0.371612
50
122.8616532
51
133.9707695
0
ARC
8
DEFAULT_255_1_234
10
14.5730713
20
86.5374703
40
0.3473289
50
89.8249009
51
123.4199222
0
ARC
8
DEFAULT_255_1_234
10
14.5780754
20
86.4727967
40
0.4120197
50
74.7876118
51
90.5482747
0
ARC
8
DEFAULT_255_1_234
10
14.6074497
20
86.581303
40
0.2996077
50
39.8178249
51
74.7633718
0
ARC
8
DEFAULT_255_1_234
10
14.5561817
20
86.5413351
40
0.3645855
50
16.8990863
51
39.4829761
0
ARC
8
DEFAULT_255_1_234
10
14.3667113
20
86.4806526
40
0.5635218
50
4.9636328
51
17.2026414
0
ARC
8
DEFAULT_255_1_234
10
14.1249184
20
86.455134
40
0.8066286
50
359.8834553
51
5.2834307
0
ARC
8
DEFAULT_255_1_234
10
14.7286708
20
86.3982803
40
0.3859091
50
180.9846213
51
194.9401313
0
ARC
8
DEFAULT_255_1_234
10
14.6236986
20
86.3695849
40
0.2770883
50
194.80314
51
222.0412631
0
ARC
8
DEFAULT_255_1_234
10
14.5932868
20
86.3394116
40
0.2343055
50
221.5417084
51
268.8614402
0
ARC
8
DEFAULT_255_1_234
10
14.6005862
20
86.4070686
40
0.3021528
50
267.732405
51
270.0097136
0
ARC
8
DEFAULT_255_1_234
10
14.6023672
20
86.4272105
40
0.3222994
50
269.6924892
51
280.4117579
0
ARC
8
DEFAULT_255_1_234
10
14.6200079
20
86.3353193
40
0.2287344
50
280.2255091
51
298.6338936
0
ARC
8
DEFAULT_255_1_234
10
14.6316871
20
86.3109223
40
0.2017294
50
299.0430333
51
300.4643464
0
ARC
8
DEFAULT_255_1_234
10
14.5636877
20
86.4243038
40
0.3339357
50
300.6577328
51
322.0378878
0
ARC
8
DEFAULT_255_1_234
10
14.5286416
20
86.4547021
40
0.3802736
50
321.6750233
51
322.3046845
0
ARC
8
DEFAULT_255_1_234
10
14.6217377
20
86.338037
40
0.3520454
50
276.9728461
51
328.0035423
0
ARC
8
DEFAULT_255_1_234
10
14.594043
20
86.4860841
40
0.5024498
50
269.8361028
51
278.0581756
0
ARC
8
DEFAULT_255_1_234
10
14.5713167
20
86.5605757
40
0.202159
50
89.2018686
51
117.2851756
0
ARC
8
DEFAULT_255_1_234
10
14.5766336
20
86.5563752
40
0.2083484
50
118.0551165
51
137.4540413
0
ARC
8
DEFAULT_255_1_234
10
14.6141076
20
86.5223304
40
0.2589774
50
137.5109581
51
158.8516286
0
ARC
8
DEFAULT_255_1_234
10
14.7278912
20
86.4764074
40
0.38167
50
158.5845963
51
170.1721436
0
ARC
8
DEFAULT_255_1_234
10
14.8448301
20
86.4531823
40
0.5008657
50
169.8376422
51
173.0566086
0
ARC
8
DEFAULT_255_1_234
10
14.3751375
20
86.5042509
40
0.4083467
50
2.9091802
51
12.8847116
0
ARC
8
DEFAULT_255_1_234
10
14.5122052
20
86.5365101
40
0.2675383
50
12.6957781
51
28.6404489
0
ARC
8
DEFAULT_255_1_234
10
14.5663722
20
86.5645458
40
0.2065654
50
29.0169854
51
41.1487595
0
ARC
8
DEFAULT_255_1_234
10
14.5866508
20
86.5822003
40
0.1796786
50
41.1646065
51
85.0013516
0
ARC
8
DEFAULT_255_1_234
10
14.5745604
20
86.5087431
40
0.2539726
50
83.7280015
51
90.0964893
0
LINE
8
DEFAULT_255_1_234
10
15.5234842
20
86.8735531
11
15.5234842
21
86.7354072
0
LINE
8
DEFAULT_255_1_234
10
15.2520114
20
86.6165375
11
15.2520114
21
85.9997
0
LINE
8
DEFAULT_255_1_234
10
15.2520114
20
85.9997
11
15.1034243
21
85.9997
0
LINE
8
DEFAULT_255_1_234
10
15.1034243
20
85.9997
11
15.1034243
21
86.8687341
0
LINE
8
DEFAULT_255_1_234
10
15.1034243
20
86.8687341
11
15.2479956
21
86.8687341
0
LINE
8
DEFAULT_255_1_234
10
15.2479956
20
86.8687341
11
15.2504051
21
86.7683374
0
ARC
8
DEFAULT_255_1_234
10
15.4568247
20
86.3294342
40
0.4114092
50
80.6754243
51
86.8932892
0
ARC
8
DEFAULT_255_1_234
10
15.4507782
20
86.23267
40
0.5083596
50
86.8038578
51
90.0431435
0
ARC
8
DEFAULT_255_1_234
10
15.4470762
20
86.4783866
40
0.2626638
50
89.2759698
51
106.6213787
0
ARC
8
DEFAULT_255_1_234
10
15.4266326
20
86.552683
40
0.1856317
50
107.1346045
51
157.6458115
0
ARC
8
DEFAULT_255_1_234
10
15.4957928
20
86.5143311
40
0.2643398
50
155.6586782
51
157.2539184
0
ARC
8
DEFAULT_255_1_234
10
15.475313
20
86.6312157
40
0.2634121
50
127.8165941
51
148.6302098
0
ARC
8
DEFAULT_255_1_234
10
15.4499599
20
86.6572218
40
0.2273596
50
91.3329982
51
126.7875809
0
ARC
8
DEFAULT_255_1_234
10
15.4575539
20
86.5857195
40
0.299078
50
89.986594
51
92.4688449
0
ARC
8
DEFAULT_255_1_234
10
15.4583934
20
86.6132078
40
0.2715908
50
85.3589899
51
90.1623399
0
ARC
8
DEFAULT_255_1_234
10
15.466845
20
86.7136164
40
0.1708278
50
78.401942
51
85.4594656
0
ARC
8
DEFAULT_255_1_234
10
15.4813334
20
86.7827236
40
0.1002194
50
67.7858312
51
78.5728455
0
ARC
8
DEFAULT_255_1_234
10
15.4921187
20
86.8106887
40
0.0702548
50
63.4835954
51
67.3062642
0
LINE
8
DEFAULT_255_1_234
10
15.8214617
20
86.8687341
11
15.8214617
21
85.9997
0
LINE
8
DEFAULT_255_1_234
10
15.8214617
20
85.9997
11
15.6728745
21
85.9997
0
LINE
8
DEFAULT_255_1_234
10
15.6728745
20
85.9997
11
15.6728745
21
86.8687341
0
LINE
8
DEFAULT_255_1_234
10
15.6728745
20
86.8687341
11
15.8214617
21
86.8687341
0
ARC
8
DEFAULT_255_1_234
10
15.7586894
20
87.1001889
40
0.097867
50
161.415052
51
180.5526306
0
ARC
8
DEFAULT_255_1_234
10
15.7462672
20
87.1036077
40
0.0850062
50
138.1827368
51
160.9307106
0
ARC
8
DEFAULT_255_1_234
10
15.7352618
20
87.1131588
40
0.0704362
50
104.6368899
51
138.0039868
0
ARC
8
DEFAULT_255_1_234
10
15.7459772
20
87.0764963
40
0.1086221
50
92.0600725
51
105.2189128
0
ARC
8
DEFAULT_255_1_234
10
15.7483121
20
87.0422117
40
0.1429728
50
89.9756393
51
92.5012496
0
ARC
8
DEFAULT_255_1_234
10
15.749314
20
87.0647731
40
0.1204151
50
78.0235316
51
90.4478182
0
ARC
8
DEFAULT_255_1_234
10
15.7585232
20
87.1061295
40
0.0780493
50
55.051506
51
78.3369085
0
ARC
8
DEFAULT_255_1_234
10
15.7635506
20
87.1145711
40
0.0682538
50
42.0501187
51
54.4513741
0
ARC
8
DEFAULT_255_1_234
10
15.7500373
20
87.1021798
40
0.0865878
50
1.7497075
51
42.1496013
0
ARC
8
DEFAULT_255_1_234
10
15.7245706
20
87.0992738
40
0.1121515
50
359.9852656
51
2.8364544
0
ARC
8
DEFAULT_255_1_234
10
15.7411699
20
87.0983229
40
0.0955566
50
342.1070653
51
0.552888
0
ARC
8
DEFAULT_255_1_234
10
15.7554396
20
87.0943904
40
0.0807713
50
316.7107116
51
341.6516965
0
ARC
8
DEFAULT_255_1_234
10
15.7621433
20
87.0883823
40
0.0717724
50
285.4397031
51
316.5324284
0
ARC
8
DEFAULT_255_1_234
10
15.751135
20
87.1249554
40
0.1099597
50
272.3547054
51
285.8953117
0
ARC
8
DEFAULT_255_1_234
10
15.7484508
20
87.1615048
40
0.1465932
50
269.9695369
51
272.8160237
0
ARC
8
DEFAULT_255_1_234
10
15.7474689
20
87.1395863
40
0.1246779
50
258.8431134
51
270.4153935
0
ARC
8
DEFAULT_255_1_234
10
15.7384732
20
87.0960414
40
0.0802162
50
238.5431189
51
259.1288175
0
ARC
8
DEFAULT_255_1_234
10
15.7316617
20
87.0836856
40
0.0661247
50
222.5062634
51
237.9906969
0
ARC
8
DEFAULT_255_1_234
10
15.7444204
20
87.0952889
40
0.0833707
50
184.1069131
51
222.460413
0
ARC
8
DEFAULT_255_1_234
10
15.7713445
20
87.0991349
40
0.1105176
50
179.9429482
51
185.0960898
0
LINE
8
DEFAULT_255_1_234
10
16.021452
20
86.4101218
11
16.021452
21
86.4374297
0
LINE
8
DEFAULT_255_1_234
10
16.7587655
20
86.4534932
11
16.7587655
21
86.3916488
0
LINE
8
DEFAULT_255_1_234
10
16.7587655
20
86.3916488
11
16.1700391
21
86.3916488
0
LINE
8
DEFAULT_255_1_234
10
16.6567625
20
86.2221792
11
16.7475211
21
86.1514999
0
LINE
8
DEFAULT_255_1_234
10
16.1748582
20
86.5137313
11
16.6101784
21
86.5137313
0
LINE
8
DEFAULT_255_1_234
10
16.6101784
20
86.5137313
11
16.6101784
21
86.5249757
0
ARC
8
DEFAULT_255_1_234
10
16.4153885
20
86.4212332
40
0.4376191
50
252.3266134
51
270.5810217
0
ARC
8
DEFAULT_255_1_234
10
16.3948974
20
86.3471644
40
0.3608374
50
223.3000567
51
251.8561855
0
ARC
8
DEFAULT_255_1_234
10
16.4160334
20
86.3676937
40
0.3902993
50
190.9374509
51
223.3654032
0
ARC
8
DEFAULT_255_1_234
10
16.5885307
20
86.4066885
40
0.5670891
50
179.6531105
51
191.4989439
0
ARC
8
DEFAULT_255_1_234
10
16.6007319
20
86.4406417
40
0.5792888
50
167.4007466
51
180.3176909
0
ARC
8
DEFAULT_255_1_234
10
16.495538
20
86.4628885
40
0.471777
50
154.1835823
51
167.250763
0
ARC
8
DEFAULT_255_1_234
10
16.4323848
20
86.4961417
40
0.4004528
50
134.3149965
51
154.5315275
0
ARC
8
DEFAULT_255_1_234
10
16.4106343
20
86.5152228
40
0.371612
50
122.8616532
51
133.9707695
0
ARC
8
DEFAULT_255_1_234
10
16.4002917
20
86.5374703
40
0.3473289
50
89.8249009
51
123.4199222
0
ARC
8
DEFAULT_255_1_234
10
16.4052958
20
86.4727967
40
0.4120197
50
74.7876118
51
90.5482747
0
ARC
8
DEFAULT_255_1_234
10
16.4346701
20
86.581303
40
0.2996077
50
39.8178249
51
74.7633718
0
ARC
8
DEFAULT_255_1_234
10
16.3834022
20
86.5413351
40
0.3645855
50
16.8990863
51
39.4829761
0
ARC
8
DEFAULT_255_1_234
10
16.1939318
20
86.4806526
40
0.5635218
50
4.9636328
51
17.2026414
0
ARC
8
DEFAULT_255_1_234
10
15.9521388
20
86.455134
40
0.8066286
50
359.8834553
51
5.2834307
0
ARC
8
DEFAULT_255_1_234
10
16.5558913
20
86.3982803
40
0.3859091
50
180.9846213
51
194.9401313
0
ARC
8
DEFAULT_255_1_234
10
16.450919
20
86.3695849
40
0.2770883
50
194.80314
51
222.0412631
0
ARC
8
DEFAULT_255_1_234
10
16.4205072
20
86.3394116
40
0.2343055
50
221.5417084
51
268.8614402
0
ARC
8
DEFAULT_255_1_234
10
16.4278067
20
86.4070686
40
0.3021528
50
267.732405
51
270.0097136
0
ARC
8
DEFAULT_255_1_234
10
16.4295877
20
86.4272105
40
0.3222994
50
269.6924892
51
280.4117579
0
ARC
8
DEFAULT_255_1_234
10
16.4472284
20
86.3353193
40
0.2287344
50
280.2255091
51
298.6338936
0
ARC
8
DEFAULT_255_1_234
10
16.4589076
20
86.3109223
40
0.2017294
50
299.0430333
51
300.4643464
0
ARC
8
DEFAULT_255_1_234
10
16.3909081
20
86.4243038
40
0.3339357
50
300.6577328
51
322.0378878
0
ARC
8
DEFAULT_255_1_234
10
16.355862
20
86.4547021
40
0.3802736
50
321.6750233
51
322.3046845
0
ARC
8
DEFAULT_255_1_234
10
16.4489582
20
86.338037
40
0.3520454
50
276.9728461
51
328.0035423
0
ARC
8
DEFAULT_255_1_234
10
16.4212635
20
86.4860841
40
0.5024498
50
269.8361028
51
278.0581756
0
ARC
8
DEFAULT_255_1_234
10
16.3985372
20
86.5605757
40
0.202159
50
89.2018686
51
117.2851756
0
ARC
8
DEFAULT_255_1_234
10
16.4038541
20
86.5563752
40
0.2083484
50
118.0551165
51
137.4540413
0
ARC
8
DEFAULT_255_1_234
10
16.4413281
20
86.5223304
40
0.2589774
50
137.5109581
51
158.8516286
0
ARC
8
DEFAULT_255_1_234
10
16.5551116
20
86.4764074
40
0.38167
50
158.5845963
51
170.1721436
0
ARC
8
DEFAULT_255_1_234
10
16.6720506
20
86.4531823
40
0.5008657
50
169.8376422
51
173.0566086
0
ARC
8
DEFAULT_255_1_234
10
16.202358
20
86.5042509
40
0.4083467
50
2.9091802
51
12.8847116
0
ARC
8
DEFAULT_255_1_234
10
16.3394256
20
86.5365101
40
0.2675383
50
12.6957781
51
28.6404489
0
ARC
8
DEFAULT_255_1_234
10
16.3935927
20
86.5645458
40
0.2065654
50
29.0169854
51
41.1487595
0
ARC
8
DEFAULT_255_1_234
10
16.4138712
20
86.5822003
40
0.1796786
50
41.1646065
51
85.0013516
0
ARC
8
DEFAULT_255_1_234
10
16.4017809
20
86.5087431
40
0.2539726
50
83.7280015
51
90.0964893
0
LINE
8
DEFAULT_255_1_234
10
17.5771997
20
86.6133248
11
17.4278093
21
86.6133248
0
LINE
8
DEFAULT_255_1_234
10
16.8945019
20
86.2671569
11
17.0430891
21
86.2671569
0
ARC
8
DEFAULT_255_1_234
10
17.3089912
20
86.2316959
40
0.1276617
50
359.3334982
51
18.5871358
0
ARC
8
DEFAULT_255_1_234
10
17.3298549
20
86.2372133
40
0.1061371
50
19.3540742
51
54.6485071
0
ARC
8
DEFAULT_255_1_234
10
17.2794451
20
86.1676919
40
0.1920087
50
54.3827097
51
65.0622807
0
ARC
8
DEFAULT_255_1_234
10
17.2025847
20
86.00599
40
0.3710447
50
64.8282493
51
71.4200025
0
ARC
8
DEFAULT_255_1_234
10
17.1123723
20
85.7413107
40
0.6506741
50
71.3164301
51
75.8006402
0
ARC
8
DEFAULT_255_1_234
10
17.0282543
20
85.4172561
40
0.9854641
50
75.6809531
51
78.0061883
0
ARC
8
DEFAULT_255_1_234
10
17.4731076
20
87.515177
40
1.1591028
50
254.6901892
51
258.0466452
0
ARC
8
DEFAULT_255_1_234
10
17.3692984
20
87.1392781
40
0.7691345
50
249.9010773
51
254.755261
0
ARC
8
DEFAULT_255_1_234
10
17.2689326
20
86.8666982
40
0.478665
50
243.3097214
51
249.9709442
0
ARC
8
DEFAULT_255_1_234
10
17.2060348
20
86.7412778
40
0.3383568
50
234.4047477
51
243.2862168
0
ARC
8
DEFAULT_255_1_234
10
17.1437871
20
86.6553232
40
0.2322322
50
220.8667099
51
234.5493881
0
ARC
8
DEFAULT_255_1_234
10
17.1095812
20
86.6241817
40
0.1859923
50
214.3062465
51
220.5065136
0
ARC
8
DEFAULT_255_1_234
10
17.1069891
20
86.621088
40
0.1821108
50
186.912965
51
213.9618616
0
ARC
8
DEFAULT_255_1_234
10
17.1601986
20
86.6297009
40
0.2359799
50
179.8808832
51
187.4339886
0
ARC
8
DEFAULT_255_1_234
10
17.144712
20
86.6317088
40
0.2204978
50
132.005434
51
180.3942919
0
ARC
8
DEFAULT_255_1_234
10
17.2103733
20
86.5711083
40
0.3095791
50
129.2319861
51
133.5302299
0
ARC
8
DEFAULT_255_1_234
10
17.2157241
20
86.5616928
40
0.3202615
50
100.4410011
51
128.9081242
0
ARC
8
DEFAULT_255_1_234
10
17.2431125
20
86.4331455
40
0.4516583
50
89.6985377
51
100.9026564
0
ARC
8
DEFAULT_255_1_234
10
17.2488167
20
86.4171166
40
0.4676928
50
77.6965325
51
90.4076836
0
ARC
8
DEFAULT_255_1_234
10
17.2819151
20
86.5598413
40
0.3211988
50
50.7276602
51
78.0399361
0
ARC
8
DEFAULT_255_1_234
10
17.3263609
20
86.6116296
40
0.2529778
50
25.7545084
51
51.0957453
0
ARC
8
DEFAULT_255_1_234
10
17.3264834
20
86.6166206
40
0.250738
50
359.2468627
51
24.7394243
0
ARC
8
DEFAULT_255_1_234
10
17.2980286
20
86.6137664
40
0.1297815
50
359.8050318
51
45.1544908
0
ARC
8
DEFAULT_255_1_234
10
17.2573428
20
86.5789794
40
0.1831883
50
43.8047702
51
49.6271585
0
ARC
8
DEFAULT_255_1_234
10
17.2581329
20
86.5790678
40
0.18261
50
49.7980766
51
82.1218353
0
ARC
8
DEFAULT_255_1_234
10
17.2462301
20
86.5143998
40
0.2483163
50
81.4465357
51
90.1710293
0
ARC
8
DEFAULT_255_1_234
10
17.2437904
20
86.461788
40
0.300932
50
89.6766211
51
99.1264602
0
ARC
8
DEFAULT_255_1_234
10
17.2266366
20
86.5651537
40
0.1961547
50
98.968313
51
113.4570237
0
ARC
8
DEFAULT_255_1_234
10
17.2070451
20
86.6119965
40
0.1453859
50
113.722589
51
127.4763106
0
ARC
8
DEFAULT_255_1_234
10
17.1902097
20
86.6320124
40
0.1192639
50
126.9083309
51
150.3165862
0
ARC
8
DEFAULT_255_1_234
10
17.185443
20
86.6370981
40
0.112623
50
151.3635175
51
180.0701457
0
ARC
8
DEFAULT_255_1_234
10
17.2163214
20
86.634999
40
0.1435149
50
179.2169974
51
179.9954013
0
ARC
8
DEFAULT_255_1_234
10
17.1802272
20
86.6337056
40
0.1074286
50
179.3040112
51
198.4225446
0
ARC
8
DEFAULT_255_1_234
10
17.1610405
20
86.6287127
40
0.0876573
50
199.2895851
51
238.6034594
0
ARC
8
DEFAULT_255_1_234
10
17.2213252
20
86.723345
40
0.1998512
50
237.9846301
51
246.8744712
0
ARC
8
DEFAULT_255_1_234
10
17.3071197
20
86.9196205
40
0.4140547
50
246.6234531
51
251.8168941
0
ARC
8
DEFAULT_255_1_234
10
17.410174
20
87.2290905
40
0.7402308
50
251.713434
51
255.0778414
0
ARC
8
DEFAULT_255_1_234
10
17.5301003
20
87.6757563
40
1.2027155
50
255.0367487
51
257.4705983
0
ARC
8
DEFAULT_255_1_234
10
17.0193013
20
85.3743863
40
1.1546601
50
73.6837552
51
77.5016755
0
ARC
8
DEFAULT_255_1_234
10
17.1281788
20
85.7443581
40
0.7690009
50
68.7044154
51
73.7249639
0
ARC
8
DEFAULT_255_1_234
10
17.2184809
20
85.9770654
40
0.5193873
50
63.590599
51
68.6626804
0
ARC
8
DEFAULT_255_1_234
10
17.2955827
20
86.1308123
40
0.3473927
50
54.7106439
51
63.7013633
0
ARC
8
DEFAULT_255_1_234
10
17.3580282
20
86.21804
40
0.2401192
50
41.0622434
51
54.8487496
0
ARC
8
DEFAULT_255_1_234
10
17.3921668
20
86.2493592
40
0.1938094
50
34.4950568
51
40.7105546
0
ARC
8
DEFAULT_255_1_234
10
17.3968476
20
86.2542078
40
0.1872106
50
9.3763373
51
34.0833615
0
ARC
8
DEFAULT_255_1_234
10
17.3315346
20
86.2416728
40
0.2536988
50
359.7694872
51
9.7663171
0
ARC
8
DEFAULT_255_1_234
10
17.3512847
20
86.2373764
40
0.2339696
50
335.8654732
51
0.8022045
0
ARC
8
DEFAULT_255_1_234
10
17.3587891
20
86.2387197
40
0.2277108
50
307.7357725
51
334.7849066
0
ARC
8
DEFAULT_255_1_234
10
17.3187067
20
86.2837645
40
0.2878951
50
307.0241536
51
308.5578354
0
ARC
8
DEFAULT_255_1_234
10
17.2929398
20
86.3223801
40
0.3342515
50
282.9362969
51
306.5646424
0
ARC
8
DEFAULT_255_1_234
10
17.2567696
20
86.4691108
40
0.4853615
50
271.1026298
51
283.2200835
0
ARC
8
DEFAULT_255_1_234
10
17.250394
20
86.5932418
40
0.6096052
50
269.9919117
51
271.4772449
0
ARC
8
DEFAULT_255_1_234
10
17.2477695
20
86.4854436
40
0.5018135
50
259.0723564
51
270.289833
0
ARC
8
DEFAULT_255_1_234
10
17.2265427
20
86.3737271
40
0.388099
50
245.4963068
51
259.0227342
0
ARC
8
DEFAULT_255_1_234
10
17.1987383
20
86.3155615
40
0.3236422
50
228.9684658
51
245.7044727
0
ARC
8
DEFAULT_255_1_234
10
17.1721827
20
86.2828575
40
0.2815426
50
214.4011705
51
228.6759915
0
ARC
8
DEFAULT_255_1_234
10
17.1432568
20
86.267029
40
0.2487548
50
179.9705531
51
215.1572795
0
ARC
8
DEFAULT_255_1_234
10
17.2133167
20
86.2743806
40
0.1703809
50
182.4299387
51
203.0329699
0
ARC
8
DEFAULT_255_1_234
10
17.1948825
20
86.2687396
40
0.1512226
50
203.798802
51
232.548466
0
ARC
8
DEFAULT_255_1_234
10
17.2225346
20
86.3038826
40
0.1959374
50
232.3782728
51
256.3934612
0
ARC
8
DEFAULT_255_1_234
10
17.2455708
20
86.3928842
40
0.2878639
50
256.104506
51
268.4626716
0
ARC
8
DEFAULT_255_1_234
10
17.2502192
20
86.4725487
40
0.3676329
50
268.0715632
51
270.0138206
0
ARC
8
DEFAULT_255_1_234
10
17.2520717
20
86.4453083
40
0.3403971
50
269.7031147
51
278.8341955
0
ARC
8
DEFAULT_255_1_234
10
17.270281
20
86.3322876
40
0.2259217
50
278.6728789
51
292.8232582
0
ARC
8
DEFAULT_255_1_234
10
17.2903348
20
86.2821449
40
0.171929
50
293.1452328
51
303.6655899
0
ARC
8
DEFAULT_255_1_234
10
17.3168227
20
86.2445204
40
0.1259367
50
303.1248165
51
321.742847
0
ARC
8
DEFAULT_255_1_234
10
17.3354108
20
86.2282156
40
0.1012531
50
322.4748573
51
1.1291126
0
LINE
8
DEFAULT_255_1_234
10
4.9274119
20
84.1366792
11
4.9274119
21
84.0154
0
LINE
8
DEFAULT_255_1_234
10
4.9274119
20
84.0154
11
4.161184
21
84.0154
0
LINE
8
DEFAULT_255_1_234
10
4.161184
20
84.0154
11
4.161184
21
84.1222221
0
LINE
8
DEFAULT_255_1_234
10
4.161184
20
84.1222221
11
4.5659836
21
84.5719995
0
LINE
8
DEFAULT_255_1_234
10
4.2872823
20
84.8402595
11
4.1386952
21
84.8402595
0
LINE
8
DEFAULT_255_1_234
10
4.6535296
20
84.4764218
11
4.3402918
21
84.1366792
0
LINE
8
DEFAULT_255_1_234
10
4.3402918
20
84.1366792
11
4.9274119
21
84.1366792
0
ARC
8
DEFAULT_255_1_234
10
3.216967
20
85.7649527
40
1.8008286
50
318.5132453
51
320.7828378
0
ARC
8
DEFAULT_255_1_234
10
3.7456644
20
85.3346426
40
1.1191493
50
320.7372736
51
323.9737074
0
ARC
8
DEFAULT_255_1_234
10
4.1376501
20
85.0506361
40
0.6350923
50
323.8961724
51
328.6421089
0
ARC
8
DEFAULT_255_1_234
10
4.3423096
20
84.9244031
40
0.3946393
50
328.8299013
51
331.789948
0
ARC
8
DEFAULT_255_1_234
10
4.4420274
20
84.8729509
40
0.2824501
50
331.4255242
51
352.9364833
0
ARC
8
DEFAULT_255_1_234
10
4.4556775
20
84.8698976
40
0.2685315
50
353.2248685
51
0.0169286
0
ARC
8
DEFAULT_255_1_234
10
4.4766652
20
84.872195
40
0.2475536
50
359.4866256
51
15.9339782
0
ARC
8
DEFAULT_255_1_234
10
4.5273637
20
84.8858286
40
0.1950618
50
16.1714718
51
43.5284424
0
ARC
8
DEFAULT_255_1_234
10
4.5350946
20
84.8935573
40
0.184134
50
43.4415429
51
83.1661404
0
ARC
8
DEFAULT_255_1_234
10
4.5216864
20
84.8198771
40
0.258926
50
82.160215
51
90.1505798
0
ARC
8
DEFAULT_255_1_234
10
4.5185291
20
84.7661865
40
0.3126255
50
89.5460705
51
102.5418777
0
ARC
8
DEFAULT_255_1_234
10
4.4942377
20
84.8692665
40
0.2067346
50
102.1739365
51
129.2061916
0
ARC
8
DEFAULT_255_1_234
10
4.4863449
20
84.8817094
40
0.1921118
50
129.7279328
51
135.7542026
0
ARC
8
DEFAULT_255_1_234
10
4.4984977
20
84.8720045
40
0.2075944
50
136.175737
51
166.3674722
0
ARC
8
DEFAULT_255_1_234
10
4.5991896
20
84.8450182
40
0.3118201
50
165.9092917
51
178.8683903
0
ARC
8
DEFAULT_255_1_234
10
4.6856757
20
84.8403179
40
0.3983935
50
178.438168
51
180.0083905
0
ARC
8
DEFAULT_255_1_234
10
4.5455359
20
84.8442231
40
0.4068601
50
163.2878735
51
180.5581814
0
ARC
8
DEFAULT_255_1_234
10
4.4653621
20
84.866284
40
0.3237344
50
133.454115
51
162.9470031
0
ARC
8
DEFAULT_255_1_234
10
4.4832162
20
84.8473
40
0.349795
50
100.7869394
51
133.4384016
0
ARC
8
DEFAULT_255_1_234
10
4.5179934
20
84.6924319
40
0.5084616
50
89.6605301
51
101.3704185
0
ARC
8
DEFAULT_255_1_234
10
4.5246273
20
84.6985496
40
0.502348
50
78.2171172
51
90.4130393
0
ARC
8
DEFAULT_255_1_234
10
4.5601351
20
84.8609637
40
0.3361092
50
55.9268222
51
78.4888551
0
ARC
8
DEFAULT_255_1_234
10
4.5797791
20
84.8948324
40
0.2970617
50
47.9292255
51
55.4054003
0
ARC
8
DEFAULT_255_1_234
10
4.5899352
20
84.9051502
40
0.2825983
50
4.3347696
51
48.0560701
0
ARC
8
DEFAULT_255_1_234
10
4.4803745
20
84.8881601
40
0.393225
50
359.925209
51
5.5967654
0
ARC
8
DEFAULT_255_1_234
10
4.5232637
20
84.8937816
40
0.3503892
50
337.8914096
51
358.9967724
0
ARC
8
DEFAULT_255_1_234
10
4.2519049
20
84.9984706
40
0.6412172
50
326.9135351
51
338.3505194
0
ARC
8
DEFAULT_255_1_234
10
3.8533353
20
85.2539284
40
1.1146189
50
319.6472867
51
327.095818
0
ARC
8
DEFAULT_255_1_234
10
3.4700356
20
85.5701
40
1.6114559
50
317.2586784
51
319.9046139
0
LINE
8
DEFAULT_255_1_234
10
5.7121127
20
85.1848211
11
5.7121127
21
84.408152
0
LINE
8
DEFAULT_255_1_234
10
5.7121127
20
84.408152
11
5.8743538
21
84.408152
0
LINE
8
DEFAULT_255_1_234
10
5.8743538
20
84.408152
11
5.8743538
21
84.2868728
0
LINE
8
DEFAULT_255_1_234
10
5.8743538
20
84.2868728
11
5.7121127
21
84.2868728
0
LINE
8
DEFAULT_255_1_234
10
5.7121127
20
84.2868728
11
5.7121127
21
84.0154
0
LINE
8
DEFAULT_255_1_234
10
5.7121127
20
84.0154
11
5.5627224
21
84.0154
0
LINE
8
DEFAULT_255_1_234
10
5.5627224
20
84.0154
11
5.5627224
21
84.2868728
0
LINE
8
DEFAULT_255_1_234
10
5.5627224
20
84.2868728
11
5.0302181
21
84.2868728
0
LINE
8
DEFAULT_255_1_234
10
5.0302181
20
84.2868728
11
5.0302181
21
84.3744187
0
LINE
8
DEFAULT_255_1_234
10
5.0302181
20
84.3744187
11
5.5538875
21
85.1848211
0
LINE
8
DEFAULT_255_1_234
10
5.5538875
20
85.1848211
11
5.7121127
21
85.1848211
0
LINE
8
DEFAULT_255_1_234
10
5.5450525
20
84.9494912
11
5.1988846
21
84.408152
0
LINE
8
DEFAULT_255_1_234
10
5.1988846
20
84.408152
11
5.5627224
21
84.408152
0
LINE
8
DEFAULT_255_1_234
10
5.5627224
20
84.408152
11
5.5627224
21
84.9816181
0
LINE
8
DEFAULT_255_1_234
10
5.5627224
20
84.9816181
11
5.5450525
21
84.9494912
0
LINE
8
DEFAULT_255_1_234
10
6.101652
20
85.1848211
11
6.434166
21
84.2202093
0
LINE
8
DEFAULT_255_1_234
10
6.434166
20
84.2202093
11
6.7682863
21
85.1848211
0
LINE
8
DEFAULT_255_1_234
10
6.7682863
20
85.1848211
11
6.9369528
21
85.1848211
0
LINE
8
DEFAULT_255_1_234
10
6.9369528
20
85.1848211
11
6.5032389
21
84.0154
0
LINE
8
DEFAULT_255_1_234
10
6.5032389
20
84.0154
11
6.3666994
21
84.0154
0
LINE
8
DEFAULT_255_1_234
10
6.3666994
20
84.0154
11
5.9337887
21
85.1848211
0
LINE
8
DEFAULT_255_1_234
10
5.9337887
20
85.1848211
11
6.101652
21
85.1848211
0
LINE
8
DEFAULT_255_1_234
10
4.818223
20
5.0114663
11
4.9732355
21
5.0114663
0
LINE
8
DEFAULT_255_1_234
10
4.0728777
20
5.1704947
11
4.0728777
21
5.2829391
0
LINE
8
DEFAULT_255_1_234
10
4.9732355
20
5.4339357
11
4.818223
21
5.4339357
0
LINE
8
DEFAULT_255_1_234
10
4.2278902
20
5.2789232
11
4.2278902
21
5.1656757
0
ARC
8
DEFAULT_255_1_234
10
4.4251742
20
5.0711846
40
0.5513052
50
340.1774281
51
353.7814284
0
ARC
8
DEFAULT_255_1_234
10
4.5823095
20
5.0126582
40
0.3836379
50
311.4558989
51
340.4421614
0
ARC
8
DEFAULT_255_1_234
10
4.5789763
20
5.0237528
40
0.3941894
50
282.4333181
51
310.7513653
0
ARC
8
DEFAULT_255_1_234
10
4.5350502
20
5.2052679
40
0.5809175
50
269.9358511
51
282.809604
0
ARC
8
DEFAULT_255_1_234
10
4.5298568
20
5.3510212
40
0.7266847
50
270.0021091
51
270.3581957
0
ARC
8
DEFAULT_255_1_234
10
4.5245985
20
5.0909585
40
0.4666519
50
250.7884749
51
270.6489167
0
ARC
8
DEFAULT_255_1_234
10
4.507782
20
5.0272319
40
0.4009729
50
219.3627325
51
250.0611886
0
ARC
8
DEFAULT_255_1_234
10
4.5907031
20
5.0977042
40
0.5097822
50
193.5479632
51
219.5756669
0
ARC
8
DEFAULT_255_1_234
10
4.8278652
20
5.1592919
40
0.7547848
50
181.1218675
51
193.87563
0
ARC
8
DEFAULT_255_1_234
10
5.0348833
20
5.170358
40
0.9620055
50
179.9918545
51
181.5394234
0
ARC
8
DEFAULT_255_1_234
10
4.8497935
20
5.2866788
40
0.7769248
50
169.5837241
51
180.2757934
0
ARC
8
DEFAULT_255_1_234
10
4.6660873
20
5.3206229
40
0.590109
50
155.0365899
51
169.6003176
0
ARC
8
DEFAULT_255_1_234
10
4.5525337
20
5.3753677
40
0.4640625
50
136.783148
51
155.2472683
0
ARC
8
DEFAULT_255_1_234
10
4.5135814
20
5.4084562
40
0.4130255
50
121.7633186
51
136.428115
0
ARC
8
DEFAULT_255_1_234
10
4.5270776
20
5.3835227
40
0.4413323
50
95.6459699
51
121.5490577
0
ARC
8
DEFAULT_255_1_234
10
4.5428058
20
5.2726949
40
0.55319
50
89.924208
51
96.1377933
0
ARC
8
DEFAULT_255_1_234
10
4.5478491
20
5.2845542
40
0.5413475
50
76.6779277
51
90.4563316
0
ARC
8
DEFAULT_255_1_234
10
4.5872114
20
5.4436114
40
0.3775041
50
47.485847
51
76.9287264
0
ARC
8
DEFAULT_255_1_234
10
4.5725087
20
5.4336159
40
0.3948286
50
16.5424086
51
46.8933463
0
ARC
8
DEFAULT_255_1_234
10
4.4117244
20
5.3807861
40
0.564021
50
5.4072051
51
17.0365086
0
ARC
8
DEFAULT_255_1_234
10
4.2678261
20
5.3576679
40
0.5556559
50
7.8891745
51
15.9239216
0
ARC
8
DEFAULT_255_1_234
10
4.4665274
20
5.4153631
40
0.3487515
50
15.7653144
51
27.9410532
0
ARC
8
DEFAULT_255_1_234
10
4.5769492
20
5.474479
40
0.2235026
50
27.8166557
51
46.4008329
0
ARC
8
DEFAULT_255_1_234
10
4.5819135
20
5.4739082
40
0.2205286
50
47.4371857
51
75.0698205
0
ARC
8
DEFAULT_255_1_234
10
4.5510529
20
5.3664765
40
0.3322915
50
74.7008593
51
87.8124495
0
ARC
8
DEFAULT_255_1_234
10
4.5437217
20
5.2608844
40
0.4380987
50
87.3814673
51
90.0240855
0
ARC
8
DEFAULT_255_1_234
10
4.539876
20
5.3786291
40
0.3203749
50
89.3451631
51
108.5745436
0
ARC
8
DEFAULT_255_1_234
10
4.5261865
20
5.4299908
40
0.2673494
50
109.2998449
51
143.3037509
0
ARC
8
DEFAULT_255_1_234
10
4.6023938
20
5.3713881
40
0.3634757
50
143.0753173
51
163.1916937
0
ARC
8
DEFAULT_255_1_234
10
4.7975666
20
5.3097967
40
0.5681262
50
162.9373603
51
174.6208611
0
ARC
8
DEFAULT_255_1_234
10
5.0601708
20
5.281001
40
0.8322832
50
174.3419979
51
180.1430411
0
ARC
8
DEFAULT_255_1_234
10
4.9670864
20
5.1615698
40
0.7392076
50
179.6817502
51
189.150529
0
ARC
8
DEFAULT_255_1_234
10
4.7170112
20
5.119919
40
0.4856932
50
188.9910863
51
203.5773039
0
ARC
8
DEFAULT_255_1_234
10
4.6090445
20
5.0751211
40
0.3688271
50
203.9077269
51
215.1312379
0
ARC
8
DEFAULT_255_1_234
10
4.5167539
20
5.0035941
40
0.2522457
50
213.9071664
51
263.8849284
0
ARC
8
DEFAULT_255_1_234
10
4.5292868
20
5.0820518
40
0.3316174
50
263.1758525
51
270.1031083
0
ARC
8
DEFAULT_255_1_234
10
4.532496
20
5.2067365
40
0.4563091
50
269.6719807
51
279.0609165
0
ARC
8
DEFAULT_255_1_234
10
4.5591728
20
5.0454907
40
0.2928759
50
278.8750225
51
293.6346586
0
ARC
8
DEFAULT_255_1_234
10
4.5911936
20
4.97029
40
0.2111472
50
293.8553404
51
310.0518804
0
ARC
8
DEFAULT_255_1_234
10
4.591679
20
4.9640516
40
0.2060917
50
311.0646779
51
332.0108348
0
ARC
8
DEFAULT_255_1_234
10
4.4724517
20
5.0297978
40
0.3422352
50
331.6588543
51
343.2878891
0
ARC
8
DEFAULT_255_1_234
10
4.2662032
20
5.0931798
40
0.5580003
50
343.1446044
51
351.010618
0
ARC
8
DEFAULT_255_1_234
10
4.1120678
20
5.1212871
40
0.7146438
50
350.7157277
51
351.1602153
0
LINE
8
DEFAULT_255_1_234
10
5.6736031
20
4.9793394
11
5.6736031
21
5.8098211
0
LINE
8
DEFAULT_255_1_234
10
5.6736031
20
5.8098211
11
5.8286157
21
5.8098211
0
LINE
8
DEFAULT_255_1_234
10
5.8286157
20
5.8098211
11
5.8286157
21
4.9817489
0
LINE
8
DEFAULT_255_1_234
10
5.0904989
20
4.9632759
11
5.2447083
21
4.9632759
0
ARC
8
DEFAULT_255_1_234
10
5.3795342
20
4.9779089
40
0.4490979
50
346.3129415
51
0.4899112
0
ARC
8
DEFAULT_255_1_234
10
5.5163691
20
4.9428729
40
0.3078632
50
313.3793358
51
346.6225026
0
ARC
8
DEFAULT_255_1_234
10
5.4962878
20
4.9681522
40
0.3400404
50
281.1587967
51
312.9131091
0
ARC
8
DEFAULT_255_1_234
10
5.4622342
20
5.1176185
40
0.4932916
50
269.6424364
51
281.6795951
0
ARC
8
DEFAULT_255_1_234
10
5.4553706
20
5.1725382
40
0.5482147
50
258.9990078
51
270.3955952
0
ARC
8
DEFAULT_255_1_234
10
5.417901
20
4.9876746
40
0.359601
50
239.6256123
51
259.238693
0
ARC
8
DEFAULT_255_1_234
10
5.3890093
20
4.9331669
40
0.2979777
50
227.4959765
51
239.1188186
0
ARC
8
DEFAULT_255_1_234
10
5.3852659
20
4.9270689
40
0.2909561
50
191.339631
51
227.2280909
0
ARC
8
DEFAULT_255_1_234
10
5.52573
20
4.9603031
40
0.4352412
50
179.6086538
51
191.9934722
0
ARC
8
DEFAULT_255_1_234
10
5.5391322
20
4.9610427
40
0.2944324
50
179.5654258
51
192.070398
0
ARC
8
DEFAULT_255_1_234
10
5.4419812
20
4.9392079
40
0.194866
50
191.7656467
51
215.6461951
0
ARC
8
DEFAULT_255_1_234
10
5.4241313
20
4.9284546
40
0.1741017
50
216.1938368
51
224.3931108
0
ARC
8
DEFAULT_255_1_234
10
5.4248199
20
4.9311473
40
0.1764834
50
224.8613677
51
254.362656
0
ARC
8
DEFAULT_255_1_234
10
5.4518913
20
5.020601
40
0.2699302
50
253.9471729
51
267.3949949
0
ARC
8
DEFAULT_255_1_234
10
5.458942
20
5.1130067
40
0.362572
50
266.9456419
51
270.0337791
0
ARC
8
DEFAULT_255_1_234
10
5.46148
20
4.996823
40
0.2463991
50
269.4595111
51
286.1822844
0
ARC
8
DEFAULT_255_1_234
10
5.475609
20
4.9450047
40
0.1926982
50
286.4416479
51
315.8044008
0
ARC
8
DEFAULT_255_1_234
10
5.4701897
20
4.9492207
40
0.1995241
50
316.0212565
51
345.4794351
0
ARC
8
DEFAULT_255_1_234
10
5.3731404
20
4.9765575
40
0.3003349
50
345.0729543
51
358.325089
0
ARC
8
DEFAULT_255_1_234
10
5.2855375
20
4.9821568
40
0.3880759
50
357.8767804
51
359.5840246
0
LINE
8
DEFAULT_255_1_234
10
4.818223
20
12.9489663
11
4.9732355
21
12.9489663
0
LINE
8
DEFAULT_255_1_234
10
4.0728777
20
13.1079947
11
4.0728777
21
13.2204391
0
LINE
8
DEFAULT_255_1_234
10
4.9732355
20
13.3714357
11
4.818223
21
13.3714357
0
LINE
8
DEFAULT_255_1_234
10
4.2278902
20
13.2164232
11
4.2278902
21
13.1031757
0
ARC
8
DEFAULT_255_1_234
10
4.4251742
20
13.0086846
40
0.5513052
50
340.1774281
51
353.7814284
0
ARC
8
DEFAULT_255_1_234
10
4.5823095
20
12.9501582
40
0.3836379
50
311.4558989
51
340.4421614
0
ARC
8
DEFAULT_255_1_234
10
4.5789763
20
12.9612528
40
0.3941894
50
282.4333181
51
310.7513653
0
ARC
8
DEFAULT_255_1_234
10
4.5350502
20
13.1427679
40
0.5809175
50
269.9358511
51
282.809604
0
ARC
8
DEFAULT_255_1_234
10
4.5298568
20
13.2885212
40
0.7266847
50
270.0021091
51
270.3581957
0
ARC
8
DEFAULT_255_1_234
10
4.5245985
20
13.0284585
40
0.4666519
50
250.7884749
51
270.6489167
0
ARC
8
DEFAULT_255_1_234
10
4.507782
20
12.9647319
40
0.4009729
50
219.3627325
51
250.0611886
0
ARC
8
DEFAULT_255_1_234
10
4.5907031
20
13.0352042
40
0.5097822
50
193.5479632
51
219.5756669
0
ARC
8
DEFAULT_255_1_234
10
4.8278652
20
13.0967919
40
0.7547848
50
181.1218675
51
193.87563
0
ARC
8
DEFAULT_255_1_234
10
5.0348833
20
13.107858
40
0.9620055
50
179.9918545
51
181.5394234
0
ARC
8
DEFAULT_255_1_234
10
4.8497935
20
13.2241788
40
0.7769248
50
169.5837241
51
180.2757934
0
ARC
8
DEFAULT_255_1_234
10
4.6660873
20
13.2581229
40
0.590109
50
155.0365899
51
169.6003176
0
ARC
8
DEFAULT_255_1_234
10
4.5525337
20
13.3128677
40
0.4640625
50
136.783148
51
155.2472683
0
ARC
8
DEFAULT_255_1_234
10
4.5135814
20
13.3459562
40
0.4130255
50
121.7633186
51
136.428115
0
ARC
8
DEFAULT_255_1_234
10
4.5270776
20
13.3210227
40
0.4413323
50
95.6459699
51
121.5490577
0
ARC
8
DEFAULT_255_1_234
10
4.5428058
20
13.2101949
40
0.55319
50
89.924208
51
96.1377933
0
ARC
8
DEFAULT_255_1_234
10
4.5478491
20
13.2220542
40
0.5413475
50
76.6779277
51
90.4563316
0
ARC
8
DEFAULT_255_1_234
10
4.5872114
20
13.3811114
40
0.3775041
50
47.485847
51
76.9287264
0
ARC
8
DEFAULT_255_1_234
10
4.5725087
20
13.3711159
40
0.3948286
50
16.5424086
51
46.8933463
0
ARC
8
DEFAULT_255_1_234
10
4.4117244
20
13.3182861
40
0.564021
50
5.4072051
51
17.0365086
0
ARC
8
DEFAULT_255_1_234
10
4.2678261
20
13.2951679
40
0.5556559
50
7.8891745
51
15.9239216
0
ARC
8
DEFAULT_255_1_234
10
4.4665274
20
13.3528631
40
0.3487515
50
15.7653144
51
27.9410532
0
ARC
8
DEFAULT_255_1_234
10
4.5769492
20
13.411979
40
0.2235026
50
27.8166557
51
46.4008329
0
ARC
8
DEFAULT_255_1_234
10
4.5819135
20
13.4114082
40
0.2205286
50
47.4371857
51
75.0698205
0
ARC
8
DEFAULT_255_1_234
10
4.5510529
20
13.3039765
40
0.3322915
50
74.7008593
51
87.8124495
0
ARC
8
DEFAULT_255_1_234
10
4.5437217
20
13.1983844
40
0.4380987
50
87.3814673
51
90.0240855
0
ARC
8
DEFAULT_255_1_234
10
4.539876
20
13.3161291
40
0.3203749
50
89.3451631
51
108.5745436
0
ARC
8
DEFAULT_255_1_234
10
4.5261865
20
13.3674908
40
0.2673494
50
109.2998449
51
143.3037509
0
ARC
8
DEFAULT_255_1_234
10
4.6023938
20
13.3088881
40
0.3634757
50
143.0753173
51
163.1916937
0
ARC
8
DEFAULT_255_1_234
10
4.7975666
20
13.2472967
40
0.5681262
50
162.9373603
51
174.6208611
0
ARC
8
DEFAULT_255_1_234
10
5.0601708
20
13.218501
40
0.8322832
50
174.3419979
51
180.1430411
0
ARC
8
DEFAULT_255_1_234
10
4.9670864
20
13.0990698
40
0.7392076
50
179.6817502
51
189.150529
0
ARC
8
DEFAULT_255_1_234
10
4.7170112
20
13.057419
40
0.4856932
50
188.9910863
51
203.5773039
0
ARC
8
DEFAULT_255_1_234
10
4.6090445
20
13.0126211
40
0.3688271
50
203.9077269
51
215.1312379
0
ARC
8
DEFAULT_255_1_234
10
4.5167539
20
12.9410941
40
0.2522457
50
213.9071664
51
263.8849284
0
ARC
8
DEFAULT_255_1_234
10
4.5292868
20
13.0195518
40
0.3316174
50
263.1758525
51
270.1031083
0
ARC
8
DEFAULT_255_1_234
10
4.532496
20
13.1442365
40
0.4563091
50
269.6719807
51
279.0609165
0
ARC
8
DEFAULT_255_1_234
10
4.5591728
20
12.9829907
40
0.2928759
50
278.8750225
51
293.6346586
0
ARC
8
DEFAULT_255_1_234
10
4.5911936
20
12.90779
40
0.2111472
50
293.8553404
51
310.0518804
0
ARC
8
DEFAULT_255_1_234
10
4.591679
20
12.9015516
40
0.2060917
50
311.0646779
51
332.0108348
0
ARC
8
DEFAULT_255_1_234
10
4.4724517
20
12.9672978
40
0.3422352
50
331.6588543
51
343.2878891
0
ARC
8
DEFAULT_255_1_234
10
4.2662032
20
13.0306798
40
0.5580003
50
343.1446044
51
351.010618
0
ARC
8
DEFAULT_255_1_234
10
4.1120678
20
13.0587871
40
0.7146438
50
350.7157277
51
351.1602153
0
LINE
8
DEFAULT_255_1_234
10
5.6736031
20
12.9168394
11
5.6736031
21
13.7473211
0
LINE
8
DEFAULT_255_1_234
10
5.6736031
20
13.7473211
11
5.8286157
21
13.7473211
0
LINE
8
DEFAULT_255_1_234
10
5.8286157
20
13.7473211
11
5.8286157
21
12.9192489
0
LINE
8
DEFAULT_255_1_234
10
5.0904989
20
12.9007759
11
5.2447083
21
12.9007759
0
ARC
8
DEFAULT_255_1_234
10
5.3795342
20
12.9154089
40
0.4490979
50
346.3129415
51
0.4899112
0
ARC
8
DEFAULT_255_1_234
10
5.5163691
20
12.8803729
40
0.3078632
50
313.3793358
51
346.6225026
0
ARC
8
DEFAULT_255_1_234
10
5.4962878
20
12.9056522
40
0.3400404
50
281.1587967
51
312.9131091
0
ARC
8
DEFAULT_255_1_234
10
5.4622342
20
13.0551185
40
0.4932916
50
269.6424364
51
281.6795951
0
ARC
8
DEFAULT_255_1_234
10
5.4553706
20
13.1100382
40
0.5482147
50
258.9990078
51
270.3955952
0
ARC
8
DEFAULT_255_1_234
10
5.417901
20
12.9251746
40
0.359601
50
239.6256123
51
259.238693
0
ARC
8
DEFAULT_255_1_234
10
5.3890093
20
12.8706669
40
0.2979777
50
227.4959765
51
239.1188186
0
ARC
8
DEFAULT_255_1_234
10
5.3852659
20
12.8645689
40
0.2909561
50
191.339631
51
227.2280909
0
ARC
8
DEFAULT_255_1_234
10
5.52573
20
12.8978031
40
0.4352412
50
179.6086538
51
191.9934722
0
ARC
8
DEFAULT_255_1_234
10
5.5391322
20
12.8985427
40
0.2944324
50
179.5654258
51
192.070398
0
ARC
8
DEFAULT_255_1_234
10
5.4419812
20
12.8767079
40
0.194866
50
191.7656467
51
215.6461951
0
ARC
8
DEFAULT_255_1_234
10
5.4241313
20
12.8659546
40
0.1741017
50
216.1938368
51
224.3931108
0
ARC
8
DEFAULT_255_1_234
10
5.4248199
20
12.8686473
40
0.1764834
50
224.8613677
51
254.362656
0
ARC
8
DEFAULT_255_1_234
10
5.4518913
20
12.958101
40
0.2699302
50
253.9471729
51
267.3949949
0
ARC
8
DEFAULT_255_1_234
10
5.458942
20
13.0505067
40
0.362572
50
266.9456419
51
270.0337791
0
ARC
8
DEFAULT_255_1_234
10
5.46148
20
12.934323
40
0.2463991
50
269.4595111
51
286.1822844
0
ARC
8
DEFAULT_255_1_234
10
5.475609
20
12.8825047
40
0.1926982
50
286.4416479
51
315.8044008
0
ARC
8
DEFAULT_255_1_234
10
5.4701897
20
12.8867207
40
0.1995241
50
316.0212565
51
345.4794351
0
ARC
8
DEFAULT_255_1_234
10
5.3731404
20
12.9140575
40
0.3003349
50
345.0729543
51
358.325089
0
ARC
8
DEFAULT_255_1_234
10
5.2855375
20
12.9196568
40
0.3880759
50
357.8767804
51
359.5840246
0
LINE
8
DEFAULT_255_1_234
10
4.8141628
20
21.6848211
11
4.8141628
21
20.908152
0
LINE
8
DEFAULT_255_1_234
10
4.8141628
20
20.908152
11
4.9764039
21
20.908152
0
LINE
8
DEFAULT_255_1_234
10
4.9764039
20
20.908152
11
4.9764039
21
20.7868728
0
LINE
8
DEFAULT_255_1_234
10
4.9764039
20
20.7868728
11
4.8141628
21
20.7868728
0
LINE
8
DEFAULT_255_1_234
10
4.8141628
20
20.7868728
11
4.8141628
21
20.5154
0
LINE
8
DEFAULT_255_1_234
10
4.8141628
20
20.5154
11
4.6647725
21
20.5154
0
LINE
8
DEFAULT_255_1_234
10
4.6647725
20
20.5154
11
4.6647725
21
20.7868728
0
LINE
8
DEFAULT_255_1_234
10
4.6647725
20
20.7868728
11
4.1322682
21
20.7868728
0
LINE
8
DEFAULT_255_1_234
10
4.1322682
20
20.7868728
11
4.1322682
21
20.8744187
0
LINE
8
DEFAULT_255_1_234
10
4.1322682
20
20.8744187
11
4.6559375
21
21.6848211
0
LINE
8
DEFAULT_255_1_234
10
4.6559375
20
21.6848211
11
4.8141628
21
21.6848211
0
LINE
8
DEFAULT_255_1_234
10
4.6471026
20
21.4494912
11
4.3009347
21
20.908152
0
LINE
8
DEFAULT_255_1_234
10
4.3009347
20
20.908152
11
4.6647725
21
20.908152
0
LINE
8
DEFAULT_255_1_234
10
4.6647725
20
20.908152
11
4.6647725
21
21.4816181
0
LINE
8
DEFAULT_255_1_234
10
4.6647725
20
21.4816181
11
4.6471026
21
21.4494912
0
LINE
8
DEFAULT_255_1_234
10
5.4350162
20
21.0728026
11
5.4350162
21
20.9515234
0
LINE
8
DEFAULT_255_1_234
10
5.4350162
20
20.9515234
11
5.0430673
21
20.9515234
0
LINE
8
DEFAULT_255_1_234
10
5.0430673
20
20.9515234
11
5.0430673
21
21.0728026
0
LINE
8
DEFAULT_255_1_234
10
5.0430673
20
21.0728026
11
5.4350162
21
21.0728026
0
LINE
8
DEFAULT_255_1_234
10
4.7860628
20
29.6223211
11
4.7860628
21
28.845652
0
LINE
8
DEFAULT_255_1_234
10
4.7860628
20
28.845652
11
4.9483039
21
28.845652
0
LINE
8
DEFAULT_255_1_234
10
4.9483039
20
28.845652
11
4.9483039
21
28.7243728
0
LINE
8
DEFAULT_255_1_234
10
4.9483039
20
28.7243728
11
4.7860628
21
28.7243728
0
LINE
8
DEFAULT_255_1_234
10
4.7860628
20
28.7243728
11
4.7860628
21
28.4529
0
LINE
8
DEFAULT_255_1_234
10
4.7860628
20
28.4529
11
4.6366725
21
28.4529
0
LINE
8
DEFAULT_255_1_234
10
4.6366725
20
28.4529
11
4.6366725
21
28.7243728
0
LINE
8
DEFAULT_255_1_234
10
4.6366725
20
28.7243728
11
4.1041682
21
28.7243728
0
LINE
8
DEFAULT_255_1_234
10
4.1041682
20
28.7243728
11
4.1041682
21
28.8119187
0
LINE
8
DEFAULT_255_1_234
10
4.1041682
20
28.8119187
11
4.6278375
21
29.6223211
0
LINE
8
DEFAULT_255_1_234
10
4.6278375
20
29.6223211
11
4.7860628
21
29.6223211
0
LINE
8
DEFAULT_255_1_234
10
4.6190026
20
29.3869912
11
4.2728347
21
28.845652
0
LINE
8
DEFAULT_255_1_234
10
4.2728347
20
28.845652
11
4.6366725
21
28.845652
0
LINE
8
DEFAULT_255_1_234
10
4.6366725
20
28.845652
11
4.6366725
21
29.4191181
0
LINE
8
DEFAULT_255_1_234
10
4.6366725
20
29.4191181
11
4.6190026
21
29.3869912
0
LINE
8
DEFAULT_255_1_234
10
5.5233764
20
29.4215276
11
5.5233764
21
29.0801788
0
LINE
8
DEFAULT_255_1_234
10
5.5233764
20
29.0801788
11
5.8494649
21
29.0801788
0
LINE
8
DEFAULT_255_1_234
10
5.8494649
20
29.0801788
11
5.8494649
21
28.9396233
0
LINE
8
DEFAULT_255_1_234
10
5.8494649
20
28.9396233
11
5.5233764
21
28.9396233
0
LINE
8
DEFAULT_255_1_234
10
5.5233764
20
28.9396233
11
5.5233764
21
28.5701634
0
LINE
8
DEFAULT_255_1_234
10
5.5233764
20
28.5701634
11
5.373986
21
28.5701634
0
LINE
8
DEFAULT_255_1_234
10
5.373986
20
28.5701634
11
5.373986
21
28.9396233
0
LINE
8
DEFAULT_255_1_234
10
5.373986
20
28.9396233
11
5.0478975
21
28.9396233
0
LINE
8
DEFAULT_255_1_234
10
5.0478975
20
28.9396233
11
5.0478975
21
29.0801788
0
LINE
8
DEFAULT_255_1_234
10
5.0478975
20
29.0801788
11
5.373986
21
29.0801788
0
LINE
8
DEFAULT_255_1_234
10
5.373986
20
29.0801788
11
5.373986
21
29.4215276
0
LINE
8
DEFAULT_255_1_234
10
5.373986
20
29.4215276
11
5.5233764
21
29.4215276
0
LINE
8
DEFAULT_255_1_234
10
4.2970378
20
36.9261169
11
4.2970378
21
37.0473962
0
LINE
8
DEFAULT_255_1_234
10
4.2970378
20
37.0473962
11
4.408679
21
37.0473962
0
LINE
8
DEFAULT_255_1_234
10
4.2183268
20
37.2530087
11
4.0697396
21
37.2530087
0
LINE
8
DEFAULT_255_1_234
10
4.0592983
20
36.6988188
11
4.2086887
21
36.6988188
0
LINE
8
DEFAULT_255_1_234
10
4.408679
20
36.9261169
11
4.2970378
21
36.9261169
0
ARC
8
DEFAULT_255_1_234
10
4.4057656
20
37.3866713
40
0.3392876
50
270.4919872
51
281.8951556
0
ARC
8
DEFAULT_255_1_234
10
4.4298918
20
37.2764702
40
0.2264817
50
281.6691735
51
301.2943132
0
ARC
8
DEFAULT_255_1_234
10
4.4469128
20
37.2453304
40
0.1910381
50
301.7833094
51
311.7545298
0
ARC
8
DEFAULT_255_1_234
10
4.4560704
20
37.2351748
40
0.1773635
50
311.7323931
51
354.2802411
0
ARC
8
DEFAULT_255_1_234
10
4.3834329
20
37.2476722
40
0.2509385
50
353.0937916
51
0.1181479
0
ARC
8
DEFAULT_255_1_234
10
4.3373114
20
37.2524386
40
0.2970898
50
359.1805295
51
15.0453146
0
ARC
8
DEFAULT_255_1_234
10
4.4718951
20
37.2916992
40
0.1569564
50
13.9577229
51
77.6713066
0
ARC
8
DEFAULT_255_1_234
10
4.433248
20
37.1531949
40
0.3006298
50
76.1116566
51
90.7026153
0
ARC
8
DEFAULT_255_1_234
10
4.4273318
20
37.1805545
40
0.2732568
50
89.5324876
51
103.531937
0
ARC
8
DEFAULT_255_1_234
10
4.4072762
20
37.2604884
40
0.1908508
50
103.2931773
51
133.5619022
0
ARC
8
DEFAULT_255_1_234
10
4.4028251
20
37.2664375
40
0.1834746
50
133.8349307
51
173.5344437
0
ARC
8
DEFAULT_255_1_234
10
4.4751294
20
37.2536213
40
0.2568033
50
172.5096846
51
180.1366907
0
ARC
8
DEFAULT_255_1_234
10
4.3800188
20
37.2570622
40
0.3103056
50
155.3484492
51
180.7484736
0
ARC
8
DEFAULT_255_1_234
10
4.3751277
20
37.2541846
40
0.3070957
50
131.5744599
51
154.4798489
0
ARC
8
DEFAULT_255_1_234
10
4.4064424
20
37.222531
40
0.3515643
50
96.9875458
51
131.9690667
0
ARC
8
DEFAULT_255_1_234
10
4.4283904
20
37.0979636
40
0.4779224
50
89.8596053
51
97.7825159
0
ARC
8
DEFAULT_255_1_234
10
4.4331967
20
37.0717616
40
0.5041361
50
78.3655447
51
90.4131539
0
ARC
8
DEFAULT_255_1_234
10
4.4689885
20
37.2376887
40
0.3344039
50
56.6229102
51
78.638727
0
ARC
8
DEFAULT_255_1_234
10
4.4904829
20
37.2752805
40
0.2912001
50
47.0253525
51
56.0854072
0
ARC
8
DEFAULT_255_1_234
10
4.4924609
20
37.2792223
40
0.2869704
50
10.9208013
51
46.7778124
0
ARC
8
DEFAULT_255_1_234
10
4.3560675
20
37.2476857
40
0.426899
50
359.6364486
51
11.6087304
0
ARC
8
DEFAULT_255_1_234
10
4.5395519
20
37.2461752
40
0.243409
50
332.3549906
51
359.7179418
0
ARC
8
DEFAULT_255_1_234
10
4.4745121
20
37.2770142
40
0.3153459
50
325.2333722
51
332.8745602
0
ARC
8
DEFAULT_255_1_234
10
4.4897744
20
37.2663828
40
0.2967456
50
292.9802137
51
325.2392345
0
ARC
8
DEFAULT_255_1_234
10
4.4623118
20
37.3197863
40
0.3566604
50
292.5402179
51
293.6924929
0
ARC
8
DEFAULT_255_1_234
10
4.5015714
20
36.6743091
40
0.3307468
50
57.6435486
51
72.8625112
0
ARC
8
DEFAULT_255_1_234
10
4.5370214
20
36.7317549
40
0.2632492
50
36.7248896
51
57.4697979
0
ARC
8
DEFAULT_255_1_234
10
4.5358847
20
36.733022
40
0.2634081
50
8.0545065
51
36.356114
0
ARC
8
DEFAULT_255_1_234
10
4.4496032
20
36.7175174
40
0.3510261
50
359.8320645
51
8.5869982
0
ARC
8
DEFAULT_255_1_234
10
4.4120808
20
36.7127101
40
0.3885653
50
343.9829931
51
0.5571613
0
ARC
8
DEFAULT_255_1_234
10
4.5007005
20
36.6884438
40
0.2966924
50
311.6359546
51
343.7651759
0
ARC
8
DEFAULT_255_1_234
10
4.4628574
20
36.7311102
40
0.3537231
50
279.7829875
51
311.6255694
0
ARC
8
DEFAULT_255_1_234
10
4.4327351
20
36.874828
40
0.5004971
50
269.7286406
51
280.3856417
0
ARC
8
DEFAULT_255_1_234
10
4.4265423
20
36.8706996
40
0.4963778
50
256.6828919
51
270.4412052
0
ARC
8
DEFAULT_255_1_234
10
4.3926719
20
36.7322394
40
0.3538406
50
229.4223008
51
256.8556159
0
ARC
8
DEFAULT_255_1_234
10
4.3512112
20
36.6855736
40
0.2914296
50
181.818294
51
229.6455059
0
ARC
8
DEFAULT_255_1_234
10
4.4552068
20
36.6986496
40
0.3959084
50
179.9755256
51
183.2323064
0
ARC
8
DEFAULT_255_1_234
10
4.4379814
20
36.6966037
40
0.2293034
50
179.4465117
51
196.2869258
0
ARC
8
DEFAULT_255_1_234
10
4.3892222
20
36.6832651
40
0.1787621
50
196.5661473
51
227.705904
0
ARC
8
DEFAULT_255_1_234
10
4.4056317
20
36.7016155
40
0.2033784
50
227.7652068
51
257.8762805
0
ARC
8
DEFAULT_255_1_234
10
4.4281287
20
36.7959156
40
0.3003081
50
257.4584385
51
270.426602
0
ARC
8
DEFAULT_255_1_234
10
4.4326853
20
36.8248996
40
0.329292
50
269.5962073
51
280.8789248
0
ARC
8
DEFAULT_255_1_234
10
4.4556382
20
36.7102685
40
0.2123908
50
280.6346389
51
299.8595945
0
ARC
8
DEFAULT_255_1_234
10
4.4747289
20
36.6740212
40
0.171457
50
300.3576302
51
314.5517981
0
ARC
8
DEFAULT_255_1_234
10
4.4664349
20
36.6800919
40
0.1816095
50
315.0728369
51
345.0431014
0
ARC
8
DEFAULT_255_1_234
10
4.3741163
20
36.7069841
40
0.2777492
50
344.5986631
51
357.9269593
0
ARC
8
DEFAULT_255_1_234
10
4.2845489
20
36.7131276
40
0.3674917
50
357.4748886
51
0.0231117
0
ARC
8
DEFAULT_255_1_234
10
4.3868599
20
36.7155679
40
0.2651907
50
359.5047933
51
13.4239635
0
ARC
8
DEFAULT_255_1_234
10
4.4735242
20
36.7377478
40
0.1757509
50
12.9498199
51
48.7551375
0
ARC
8
DEFAULT_255_1_234
10
4.4552976
20
36.71284
40
0.2065134
50
49.5088623
51
72.1836453
0
ARC
8
DEFAULT_255_1_234
10
4.4195129
20
36.6066291
40
0.3185836
50
71.9010081
51
84.3554254
0
ARC
8
DEFAULT_255_1_234
10
4.4033761
20
36.4705326
40
0.4556151
50
84.0193428
51
89.333121
0
LINE
8
DEFAULT_255_1_234
10
5.3291162
20
36.9478026
11
5.3291162
21
36.8265234
0
LINE
8
DEFAULT_255_1_234
10
5.3291162
20
36.8265234
11
4.9371673
21
36.8265234
0
LINE
8
DEFAULT_255_1_234
10
4.9371673
20
36.8265234
11
4.9371673
21
36.9478026
0
LINE
8
DEFAULT_255_1_234
10
4.9371673
20
36.9478026
11
5.3291162
21
36.9478026
0
LINE
8
DEFAULT_255_1_234
10
4.2689378
20
44.8636169
11
4.2689378
21
44.9848962
0
LINE
8
DEFAULT_255_1_234
10
4.2689378
20
44.9848962
11
4.380579
21
44.9848962
0
LINE
8
DEFAULT_255_1_234
10
4.1902268
20
45.1905087
11
4.0416396
21
45.1905087
0
LINE
8
DEFAULT_255_1_234
10
4.0311983
20
44.6363188
11
4.1805887
21
44.6363188
0
LINE
8
DEFAULT_255_1_234
10
4.380579
20
44.8636169
11
4.2689378
21
44.8636169
0
ARC
8
DEFAULT_255_1_234
10
4.3776656
20
45.3241713
40
0.3392876
50
270.4919872
51
281.8951556
0
ARC
8
DEFAULT_255_1_234
10
4.4017918
20
45.2139702
40
0.2264817
50
281.6691735
51
301.2943132
0
ARC
8
DEFAULT_255_1_234
10
4.4188128
20
45.1828304
40
0.1910381
50
301.7833094
51
311.7545298
0
ARC
8
DEFAULT_255_1_234
10
4.4279704
20
45.1726748
40
0.1773635
50
311.7323931
51
354.2802411
0
ARC
8
DEFAULT_255_1_234
10
4.3553329
20
45.1851722
40
0.2509385
50
353.0937916
51
0.1181479
0
ARC
8
DEFAULT_255_1_234
10
4.3092114
20
45.1899386
40
0.2970898
50
359.1805295
51
15.0453146
0
ARC
8
DEFAULT_255_1_234
10
4.4437951
20
45.2291992
40
0.1569564
50
13.9577229
51
77.6713066
0
ARC
8
DEFAULT_255_1_234
10
4.405148
20
45.0906949
40
0.3006298
50
76.1116566
51
90.7026153
0
ARC
8
DEFAULT_255_1_234
10
4.3992318
20
45.1180545
40
0.2732568
50
89.5324876
51
103.531937
0
ARC
8
DEFAULT_255_1_234
10
4.3791762
20
45.1979884
40
0.1908508
50
103.2931773
51
133.5619022
0
ARC
8
DEFAULT_255_1_234
10
4.3747251
20
45.2039375
40
0.1834746
50
133.8349307
51
173.5344437
0
ARC
8
DEFAULT_255_1_234
10
4.4470294
20
45.1911213
40
0.2568033
50
172.5096846
51
180.1366907
0
ARC
8
DEFAULT_255_1_234
10
4.3519188
20
45.1945622
40
0.3103056
50
155.3484492
51
180.7484736
0
ARC
8
DEFAULT_255_1_234
10
4.3470277
20
45.1916846
40
0.3070957
50
131.5744599
51
154.4798489
0
ARC
8
DEFAULT_255_1_234
10
4.3783424
20
45.160031
40
0.3515643
50
96.9875458
51
131.9690667
0
ARC
8
DEFAULT_255_1_234
10
4.4002904
20
45.0354636
40
0.4779224
50
89.8596053
51
97.7825159
0
ARC
8
DEFAULT_255_1_234
10
4.4050967
20
45.0092616
40
0.5041361
50
78.3655447
51
90.4131539
0
ARC
8
DEFAULT_255_1_234
10
4.4408885
20
45.1751887
40
0.3344039
50
56.6229102
51
78.638727
0
ARC
8
DEFAULT_255_1_234
10
4.4623829
20
45.2127805
40
0.2912001
50
47.0253525
51
56.0854072
0
ARC
8
DEFAULT_255_1_234
10
4.4643609
20
45.2167223
40
0.2869704
50
10.9208013
51
46.7778124
0
ARC
8
DEFAULT_255_1_234
10
4.3279675
20
45.1851857
40
0.426899
50
359.6364486
51
11.6087304
0
ARC
8
DEFAULT_255_1_234
10
4.5114519
20
45.1836752
40
0.243409
50
332.3549906
51
359.7179418
0
ARC
8
DEFAULT_255_1_234
10
4.4464121
20
45.2145142
40
0.3153459
50
325.2333722
51
332.8745602
0
ARC
8
DEFAULT_255_1_234
10
4.4616744
20
45.2038828
40
0.2967456
50
292.9802137
51
325.2392345
0
ARC
8
DEFAULT_255_1_234
10
4.4342118
20
45.2572863
40
0.3566604
50
292.5402179
51
293.6924929
0
ARC
8
DEFAULT_255_1_234
10
4.4734714
20
44.6118091
40
0.3307468
50
57.6435486
51
72.8625112
0
ARC
8
DEFAULT_255_1_234
10
4.5089214
20
44.6692549
40
0.2632492
50
36.7248896
51
57.4697979
0
ARC
8
DEFAULT_255_1_234
10
4.5077847
20
44.670522
40
0.2634081
50
8.0545065
51
36.356114
0
ARC
8
DEFAULT_255_1_234
10
4.4215032
20
44.6550174
40
0.3510261
50
359.8320645
51
8.5869982
0
ARC
8
DEFAULT_255_1_234
10
4.3839808
20
44.6502101
40
0.3885653
50
343.9829931
51
0.5571613
0
ARC
8
DEFAULT_255_1_234
10
4.4726005
20
44.6259438
40
0.2966924
50
311.6359546
51
343.7651759
0
ARC
8
DEFAULT_255_1_234
10
4.4347574
20
44.6686102
40
0.3537231
50
279.7829875
51
311.6255694
0
ARC
8
DEFAULT_255_1_234
10
4.4046351
20
44.812328
40
0.5004971
50
269.7286406
51
280.3856417
0
ARC
8
DEFAULT_255_1_234
10
4.3984423
20
44.8081996
40
0.4963778
50
256.6828919
51
270.4412052
0
ARC
8
DEFAULT_255_1_234
10
4.3645719
20
44.6697394
40
0.3538406
50
229.4223008
51
256.8556159
0
ARC
8
DEFAULT_255_1_234
10
4.3231112
20
44.6230736
40
0.2914296
50
181.818294
51
229.6455059
0
ARC
8
DEFAULT_255_1_234
10
4.4271068
20
44.6361496
40
0.3959084
50
179.9755256
51
183.2323064
0
ARC
8
DEFAULT_255_1_234
10
4.4098814
20
44.6341037
40
0.2293034
50
179.4465117
51
196.2869258
0
ARC
8
DEFAULT_255_1_234
10
4.3611222
20
44.6207651
40
0.1787621
50
196.5661473
51
227.705904
0
ARC
8
DEFAULT_255_1_234
10
4.3775317
20
44.6391155
40
0.2033784
50
227.7652068
51
257.8762805
0
ARC
8
DEFAULT_255_1_234
10
4.4000287
20
44.7334156
40
0.3003081
50
257.4584385
51
270.426602
0
ARC
8
DEFAULT_255_1_234
10
4.4045853
20
44.7623996
40
0.329292
50
269.5962073
51
280.8789248
0
ARC
8
DEFAULT_255_1_234
10
4.4275382
20
44.6477685
40
0.2123908
50
280.6346389
51
299.8595945
0
ARC
8
DEFAULT_255_1_234
10
4.4466289
20
44.6115212
40
0.171457
50
300.3576302
51
314.5517981
0
ARC
8
DEFAULT_255_1_234
10
4.4383349
20
44.6175919
40
0.1816095
50
315.0728369
51
345.0431014
0
ARC
8
DEFAULT_255_1_234
10
4.3460163
20
44.6444841
40
0.2777492
50
344.5986631
51
357.9269593
0
ARC
8
DEFAULT_255_1_234
10
4.2564489
20
44.6506276
40
0.3674917
50
357.4748886
51
0.0231117
0
ARC
8
DEFAULT_255_1_234
10
4.3587599
20
44.6530679
40
0.2651907
50
359.5047933
51
13.4239635
0
ARC
8
DEFAULT_255_1_234
10
4.4454242
20
44.6752478
40
0.1757509
50
12.9498199
51
48.7551375
0
ARC
8
DEFAULT_255_1_234
10
4.4271976
20
44.65034
40
0.2065134
50
49.5088623
51
72.1836453
0
ARC
8
DEFAULT_255_1_234
10
4.3914129
20
44.5441291
40
0.3185836
50
71.9010081
51
84.3554254
0
ARC
8
DEFAULT_255_1_234
10
4.3752761
20
44.4080326
40
0.4556151
50
84.0193428
51
89.333121
0
LINE
8
DEFAULT_255_1_234
10
5.4174764
20
45.2965276
11
5.4174764
21
44.9551788
0
LINE
8
DEFAULT_255_1_234
10
5.4174764
20
44.9551788
11
5.7435649
21
44.9551788
0
LINE
8
DEFAULT_255_1_234
10
5.7435649
20
44.9551788
11
5.7435649
21
44.8146233
0
LINE
8
DEFAULT_255_1_234
10
5.7435649
20
44.8146233
11
5.4174764
21
44.8146233
0
LINE
8
DEFAULT_255_1_234
10
5.4174764
20
44.8146233
11
5.4174764
21
44.4451634
0
LINE
8
DEFAULT_255_1_234
10
5.4174764
20
44.4451634
11
5.268086
21
44.4451634
0
LINE
8
DEFAULT_255_1_234
10
5.268086
20
44.4451634
11
5.268086
21
44.8146233
0
LINE
8
DEFAULT_255_1_234
10
5.268086
20
44.8146233
11
4.9419975
21
44.8146233
0
LINE
8
DEFAULT_255_1_234
10
4.9419975
20
44.8146233
11
4.9419975
21
44.9551788
0
LINE
8
DEFAULT_255_1_234
10
4.9419975
20
44.9551788
11
5.268086
21
44.9551788
0
LINE
8
DEFAULT_255_1_234
10
5.268086
20
44.9551788
11
5.268086
21
45.2965276
0
LINE
8
DEFAULT_255_1_234
10
5.268086
20
45.2965276
11
5.4174764
21
45.2965276
0
LINE
8
DEFAULT_255_1_234
10
4.8472119
20
52.3866792
11
4.8472119
21
52.2654
0
LINE
8
DEFAULT_255_1_234
10
4.8472119
20
52.2654
11
4.080984
21
52.2654
0
LINE
8
DEFAULT_255_1_234
10
4.080984
20
52.2654
11
4.080984
21
52.3722221
0
LINE
8
DEFAULT_255_1_234
10
4.080984
20
52.3722221
11
4.4857836
21
52.8219995
0
LINE
8
DEFAULT_255_1_234
10
4.2070823
20
53.0902595
11
4.0584952
21
53.0902595
0
LINE
8
DEFAULT_255_1_234
10
4.5733296
20
52.7264218
11
4.2600918
21
52.3866792
0
LINE
8
DEFAULT_255_1_234
10
4.2600918
20
52.3866792
11
4.8472119
21
52.3866792
0
ARC
8
DEFAULT_255_1_234
10
3.136767
20
54.0149527
40
1.8008286
50
318.5132453
51
320.7828378
0
ARC
8
DEFAULT_255_1_234
10
3.6654644
20
53.5846426
40
1.1191493
50
320.7372736
51
323.9737074
0
ARC
8
DEFAULT_255_1_234
10
4.0574501
20
53.3006361
40
0.6350923
50
323.8961724
51
328.6421089
0
ARC
8
DEFAULT_255_1_234
10
4.2621096
20
53.1744031
40
0.3946393
50
328.8299013
51
331.789948
0
ARC
8
DEFAULT_255_1_234
10
4.3618274
20
53.1229509
40
0.2824501
50
331.4255242
51
352.9364833
0
ARC
8
DEFAULT_255_1_234
10
4.3754775
20
53.1198976
40
0.2685315
50
353.2248685
51
0.0169286
0
ARC
8
DEFAULT_255_1_234
10
4.3964652
20
53.122195
40
0.2475536
50
359.4866256
51
15.9339782
0
ARC
8
DEFAULT_255_1_234
10
4.4471637
20
53.1358286
40
0.1950618
50
16.1714718
51
43.5284424
0
ARC
8
DEFAULT_255_1_234
10
4.4548946
20
53.1435573
40
0.184134
50
43.4415429
51
83.1661404
0
ARC
8
DEFAULT_255_1_234
10
4.4414864
20
53.0698771
40
0.258926
50
82.160215
51
90.1505798
0
ARC
8
DEFAULT_255_1_234
10
4.4383291
20
53.0161865
40
0.3126255
50
89.5460705
51
102.5418777
0
ARC
8
DEFAULT_255_1_234
10
4.4140377
20
53.1192665
40
0.2067346
50
102.1739365
51
129.2061916
0
ARC
8
DEFAULT_255_1_234
10
4.4061449
20
53.1317094
40
0.1921118
50
129.7279328
51
135.7542026
0
ARC
8
DEFAULT_255_1_234
10
4.4182977
20
53.1220045
40
0.2075944
50
136.175737
51
166.3674722
0
ARC
8
DEFAULT_255_1_234
10
4.5189896
20
53.0950182
40
0.3118201
50
165.9092917
51
178.8683903
0
ARC
8
DEFAULT_255_1_234
10
4.6054757
20
53.0903179
40
0.3983935
50
178.438168
51
180.0083905
0
ARC
8
DEFAULT_255_1_234
10
4.4653359
20
53.0942231
40
0.4068601
50
163.2878735
51
180.5581814
0
ARC
8
DEFAULT_255_1_234
10
4.3851621
20
53.116284
40
0.3237344
50
133.454115
51
162.9470031
0
ARC
8
DEFAULT_255_1_234
10
4.4030162
20
53.0973
40
0.349795
50
100.7869394
51
133.4384016
0
ARC
8
DEFAULT_255_1_234
10
4.4377934
20
52.9424319
40
0.5084616
50
89.6605301
51
101.3704185
0
ARC
8
DEFAULT_255_1_234
10
4.4444273
20
52.9485496
40
0.502348
50
78.2171172
51
90.4130393
0
ARC
8
DEFAULT_255_1_234
10
4.4799351
20
53.1109637
40
0.3361092
50
55.9268222
51
78.4888551
0
ARC
8
DEFAULT_255_1_234
10
4.4995791
20
53.1448324
40
0.2970617
50
47.9292255
51
55.4054003
0
ARC
8
DEFAULT_255_1_234
10
4.5097352
20
53.1551502
40
0.2825983
50
4.3347696
51
48.0560701
0
ARC
8
DEFAULT_255_1_234
10
4.4001745
20
53.1381601
40
0.393225
50
359.925209
51
5.5967654
0
ARC
8
DEFAULT_255_1_234
10
4.4430637
20
53.1437816
40
0.3503892
50
337.8914096
51
358.9967724
0
ARC
8
DEFAULT_255_1_234
10
4.1717049
20
53.2484706
40
0.6412172
50
326.9135351
51
338.3505194
0
ARC
8
DEFAULT_255_1_234
10
3.7731353
20
53.5039284
40
1.1146189
50
319.6472867
51
327.095818
0
ARC
8
DEFAULT_255_1_234
10
3.3898356
20
53.8201
40
1.6114559
50
317.2586784
51
319.9046139
0
LINE
8
DEFAULT_255_1_234
10
5.3291162
20
52.8228026
11
5.3291162
21
52.7015234
0
LINE
8
DEFAULT_255_1_234
10
5.3291162
20
52.7015234
11
4.9371673
21
52.7015234
0
LINE
8
DEFAULT_255_1_234
10
4.9371673
20
52.7015234
11
4.9371673
21
52.8228026
0
LINE
8
DEFAULT_255_1_234
10
4.9371673
20
52.8228026
11
5.3291162
21
52.8228026
0
LINE
8
DEFAULT_255_1_234
10
4.8191119
20
60.3241792
11
4.8191119
21
60.2029
0
LINE
8
DEFAULT_255_1_234
10
4.8191119
20
60.2029
11
4.052884
21
60.2029
0
LINE
8
DEFAULT_255_1_234
10
4.052884
20
60.2029
11
4.052884
21
60.3097221
0
LINE
8
DEFAULT_255_1_234
10
4.052884
20
60.3097221
11
4.4576836
21
60.7594995
0
LINE
8
DEFAULT_255_1_234
10
4.1789823
20
61.0277595
11
4.0303952
21
61.0277595
0
LINE
8
DEFAULT_255_1_234
10
4.5452296
20
60.6639218
11
4.2319918
21
60.3241792
0
LINE
8
DEFAULT_255_1_234
10
4.2319918
20
60.3241792
11
4.8191119
21
60.3241792
0
ARC
8
DEFAULT_255_1_234
10
3.108667
20
61.9524527
40
1.8008286
50
318.5132453
51
320.7828378
0
ARC
8
DEFAULT_255_1_234
10
3.6373644
20
61.5221426
40
1.1191493
50
320.7372736
51
323.9737074
0
ARC
8
DEFAULT_255_1_234
10
4.0293501
20
61.2381361
40
0.6350923
50
323.8961724
51
328.6421089
0
ARC
8
DEFAULT_255_1_234
10
4.2340096
20
61.1119031
40
0.3946393
50
328.8299013
51
331.789948
0
ARC
8
DEFAULT_255_1_234
10
4.3337274
20
61.0604509
40
0.2824501
50
331.4255242
51
352.9364833
0
ARC
8
DEFAULT_255_1_234
10
4.3473775
20
61.0573976
40
0.2685315
50
353.2248685
51
0.0169286
0
ARC
8
DEFAULT_255_1_234
10
4.3683652
20
61.059695
40
0.2475536
50
359.4866256
51
15.9339782
0
ARC
8
DEFAULT_255_1_234
10
4.4190637
20
61.0733286
40
0.1950618
50
16.1714718
51
43.5284424
0
ARC
8
DEFAULT_255_1_234
10
4.4267946
20
61.0810573
40
0.184134
50
43.4415429
51
83.1661404
0
ARC
8
DEFAULT_255_1_234
10
4.4133864
20
61.0073771
40
0.258926
50
82.160215
51
90.1505798
0
ARC
8
DEFAULT_255_1_234
10
4.4102291
20
60.9536865
40
0.3126255
50
89.5460705
51
102.5418777
0
ARC
8
DEFAULT_255_1_234
10
4.3859377
20
61.0567665
40
0.2067346
50
102.1739365
51
129.2061916
0
ARC
8
DEFAULT_255_1_234
10
4.3780449
20
61.0692094
40
0.1921118
50
129.7279328
51
135.7542026
0
ARC
8
DEFAULT_255_1_234
10
4.3901977
20
61.0595045
40
0.2075944
50
136.175737
51
166.3674722
0
ARC
8
DEFAULT_255_1_234
10
4.4908896
20
61.0325182
40
0.3118201
50
165.9092917
51
178.8683903
0
ARC
8
DEFAULT_255_1_234
10
4.5773757
20
61.0278179
40
0.3983935
50
178.438168
51
180.0083905
0
ARC
8
DEFAULT_255_1_234
10
4.4372359
20
61.0317231
40
0.4068601
50
163.2878735
51
180.5581814
0
ARC
8
DEFAULT_255_1_234
10
4.3570621
20
61.053784
40
0.3237344
50
133.454115
51
162.9470031
0
ARC
8
DEFAULT_255_1_234
10
4.3749162
20
61.0348
40
0.349795
50
100.7869394
51
133.4384016
0
ARC
8
DEFAULT_255_1_234
10
4.4096934
20
60.8799319
40
0.5084616
50
89.6605301
51
101.3704185
0
ARC
8
DEFAULT_255_1_234
10
4.4163273
20
60.8860496
40
0.502348
50
78.2171172
51
90.4130393
0
ARC
8
DEFAULT_255_1_234
10
4.4518351
20
61.0484637
40
0.3361092
50
55.9268222
51
78.4888551
0
ARC
8
DEFAULT_255_1_234
10
4.4714791
20
61.0823324
40
0.2970617
50
47.9292255
51
55.4054003
0
ARC
8
DEFAULT_255_1_234
10
4.4816352
20
61.0926502
40
0.2825983
50
4.3347696
51
48.0560701
0
ARC
8
DEFAULT_255_1_234
10
4.3720745
20
61.0756601
40
0.393225
50
359.925209
51
5.5967654
0
ARC
8
DEFAULT_255_1_234
10
4.4149637
20
61.0812816
40
0.3503892
50
337.8914096
51
358.9967724
0
ARC
8
DEFAULT_255_1_234
10
4.1436049
20
61.1859706
40
0.6412172
50
326.9135351
51
338.3505194
0
ARC
8
DEFAULT_255_1_234
10
3.7450353
20
61.4414284
40
1.1146189
50
319.6472867
51
327.095818
0
ARC
8
DEFAULT_255_1_234
10
3.3617356
20
61.7576
40
1.6114559
50
317.2586784
51
319.9046139
0
LINE
8
DEFAULT_255_1_234
10
5.4174764
20
61.1715276
11
5.4174764
21
60.8301788
0
LINE
8
DEFAULT_255_1_234
10
5.4174764
20
60.8301788
11
5.7435649
21
60.8301788
0
LINE
8
DEFAULT_255_1_234
10
5.7435649
20
60.8301788
11
5.7435649
21
60.6896233
0
LINE
8
DEFAULT_255_1_234
10
5.7435649
20
60.6896233
11
5.4174764
21
60.6896233
0
LINE
8
DEFAULT_255_1_234
10
5.4174764
20
60.6896233
11
5.4174764
21
60.3201634
0
LINE
8
DEFAULT_255_1_234
10
5.4174764
20
60.3201634
11
5.268086
21
60.3201634
0
LINE
8
DEFAULT_255_1_234
10
5.268086
20
60.3201634
11
5.268086
21
60.6896233
0
LINE
8
DEFAULT_255_1_234
10
5.268086
20
60.6896233
11
4.9419975
21
60.6896233
0
LINE
8
DEFAULT_255_1_234
10
4.9419975
20
60.6896233
11
4.9419975
21
60.8301788
0
LINE
8
DEFAULT_255_1_234
10
4.9419975
20
60.8301788
11
5.268086
21
60.8301788
0
LINE
8
DEFAULT_255_1_234
10
5.268086
20
60.8301788
11
5.268086
21
61.1715276
0
LINE
8
DEFAULT_255_1_234
10
5.268086
20
61.1715276
11
5.4174764
21
61.1715276
0
LINE
8
DEFAULT_255_1_234
10
4.5693137
20
69.3154433
11
4.5693137
21
68.1404
0
LINE
8
DEFAULT_255_1_234
10
4.5693137
20
68.1404
11
4.4199234
21
68.1404
0
LINE
8
DEFAULT_255_1_234
10
4.4199234
20
68.1404
11
4.4199234
21
69.1307133
0
LINE
8
DEFAULT_255_1_234
10
4.4199234
20
69.1307133
11
4.1203396
21
69.0206785
0
LINE
8
DEFAULT_255_1_234
10
4.1203396
20
69.0206785
11
4.1203396
21
69.1556117
0
LINE
8
DEFAULT_255_1_234
10
4.1203396
20
69.1556117
11
4.5460217
21
69.3154433
0
LINE
8
DEFAULT_255_1_234
10
4.5460217
20
69.3154433
11
4.5693137
21
69.3154433
0
LINE
8
DEFAULT_255_1_234
10
5.3291162
20
68.6978026
11
5.3291162
21
68.5765234
0
LINE
8
DEFAULT_255_1_234
10
5.3291162
20
68.5765234
11
4.9371673
21
68.5765234
0
LINE
8
DEFAULT_255_1_234
10
4.9371673
20
68.5765234
11
4.9371673
21
68.6978026
0
LINE
8
DEFAULT_255_1_234
10
4.9371673
20
68.6978026
11
5.3291162
21
68.6978026
0
LINE
8
DEFAULT_255_1_234
10
4.5412137
20
77.2529433
11
4.5412137
21
76.0779
0
LINE
8
DEFAULT_255_1_234
10
4.5412137
20
76.0779
11
4.3918234
21
76.0779
0
LINE
8
DEFAULT_255_1_234
10
4.3918234
20
76.0779
11
4.3918234
21
77.0682133
0
LINE
8
DEFAULT_255_1_234
10
4.3918234
20
77.0682133
11
4.0922396
21
76.9581785
0
LINE
8
DEFAULT_255_1_234
10
4.0922396
20
76.9581785
11
4.0922396
21
77.0931117
0
LINE
8
DEFAULT_255_1_234
10
4.0922396
20
77.0931117
11
4.5179217
21
77.2529433
0
LINE
8
DEFAULT_255_1_234
10
4.5179217
20
77.2529433
11
4.5412137
21
77.2529433
0
LINE
8
DEFAULT_255_1_234
10
5.4174764
20
77.0465276
11
5.4174764
21
76.7051788
0
LINE
8
DEFAULT_255_1_234
10
5.4174764
20
76.7051788
11
5.7435649
21
76.7051788
0
LINE
8
DEFAULT_255_1_234
10
5.7435649
20
76.7051788
11
5.7435649
21
76.5646233
0
LINE
8
DEFAULT_255_1_234
10
5.7435649
20
76.5646233
11
5.4174764
21
76.5646233
0
LINE
8
DEFAULT_255_1_234
10
5.4174764
20
76.5646233
11
5.4174764
21
76.1951634
0
LINE
8
DEFAULT_255_1_234
10
5.4174764
20
76.1951634
11
5.268086
21
76.1951634
0
LINE
8
DEFAULT_255_1_234
10
5.268086
20
76.1951634
11
5.268086
21
76.5646233
0
LINE
8
DEFAULT_255_1_234
10
5.268086
20
76.5646233
11
4.9419975
21
76.5646233
0
LINE
8
DEFAULT_255_1_234
10
4.9419975
20
76.5646233
11
4.9419975
21
76.7051788
0
LINE
8
DEFAULT_255_1_234
10
4.9419975
20
76.7051788
11
5.268086
21
76.7051788
0
LINE
8
DEFAULT_255_1_234
10
5.268086
20
76.7051788
11
5.268086
21
77.0465276
0
LINE
8
DEFAULT_255_1_234
10
5.268086
20
77.0465276
11
5.4174764
21
77.0465276
0
LINE
8
DEFAULT_255_1_234
10
23.1654817
20
84.7069327
11
23.1654817
21
84.5141709
0
LINE
8
DEFAULT_255_1_234
10
22.427365
20
84.4940916
11
22.427365
21
84.6924755
0
LINE
8
DEFAULT_255_1_234
10
23.0168946
20
84.4740123
11
23.0168946
21
84.7173739
0
LINE
8
DEFAULT_255_1_234
10
22.5759521
20
84.7286184
11
22.5759521
21
84.4908789
0
ARC
8
DEFAULT_255_1_234
10
21.9407707
20
84.5092805
40
1.2247208
50
353.8441951
51
0.2287902
0
ARC
8
DEFAULT_255_1_234
10
22.4047211
20
84.4574806
40
0.7578929
50
344.4934747
51
353.9765454
0
ARC
8
DEFAULT_255_1_234
10
22.7039801
20
84.3723981
40
0.4467846
50
329.2803592
51
344.7472793
0
ARC
8
DEFAULT_255_1_234
10
22.8032626
20
84.3179018
40
0.3336173
50
324.9352394
51
328.6160465
0
ARC
8
DEFAULT_255_1_234
10
22.8409734
20
84.2915427
40
0.2876076
50
280.580143
51
324.9173126
0
ARC
8
DEFAULT_255_1_234
10
22.8008527
20
84.4586099
40
0.4592847
50
269.5977311
51
281.6734359
0
ARC
8
DEFAULT_255_1_234
10
22.7936433
20
84.4466173
40
0.4472986
50
256.6228859
51
270.51044
0
ARC
8
DEFAULT_255_1_234
10
22.753441
20
84.2917877
40
0.2873874
50
215.8618325
51
257.2788573
0
ARC
8
DEFAULT_255_1_234
10
22.8555442
20
84.3602977
40
0.4102928
50
197.9693508
51
215.2623606
0
ARC
8
DEFAULT_255_1_234
10
23.1040558
20
84.4441709
40
0.6725652
50
187.8816417
51
198.2346507
0
ARC
8
DEFAULT_255_1_234
10
23.4998766
20
84.5013079
40
1.0724845
50
180.8976217
51
188.0055519
0
ARC
8
DEFAULT_255_1_234
10
23.7798954
20
84.5116777
40
1.3526448
50
180.7449369
51
181.1510016
0
ARC
8
DEFAULT_255_1_234
10
23.6221683
20
84.6973042
40
1.1948131
50
173.7675579
51
180.231553
0
ARC
8
DEFAULT_255_1_234
10
23.170383
20
84.7483666
40
0.7401564
50
164.3058563
51
173.9002247
0
ARC
8
DEFAULT_255_1_234
10
22.8791899
20
84.8322656
40
0.4371288
50
148.7922025
51
164.568378
0
ARC
8
DEFAULT_255_1_234
10
22.7840351
20
84.8853929
40
0.3282386
50
144.5883898
51
148.1176286
0
ARC
8
DEFAULT_255_1_234
10
22.7497249
20
84.9093315
40
0.2864044
50
101.6440918
51
144.514236
0
ARC
8
DEFAULT_255_1_234
10
22.7922315
20
84.7404069
40
0.4604934
50
89.5284041
51
102.5819763
0
ARC
8
DEFAULT_255_1_234
10
22.8001403
20
84.7365018
40
0.464401
50
77.0437873
51
90.5081339
0
ARC
8
DEFAULT_255_1_234
10
22.8403405
20
84.9007615
40
0.2953195
50
48.2778575
51
77.4994676
0
ARC
8
DEFAULT_255_1_234
10
22.8476036
20
84.9136746
40
0.2808655
50
36.3142134
51
47.6305865
0
ARC
8
DEFAULT_255_1_234
10
22.7607343
20
84.8551515
40
0.3855453
50
18.2931786
51
35.6769206
0
ARC
8
DEFAULT_255_1_234
10
22.5064102
20
84.7678593
40
0.654423
50
8.024666
51
18.5605216
0
ARC
8
DEFAULT_255_1_234
10
22.0901022
20
84.7063792
40
1.0752407
50
1.1274072
51
8.1718305
0
ARC
8
DEFAULT_255_1_234
10
21.7665213
20
84.6936885
40
1.3990231
50
0.5424119
51
1.3863029
0
ARC
8
DEFAULT_255_1_234
10
21.948659
20
84.7209342
40
1.0682415
50
359.8090433
51
4.9407866
0
ARC
8
DEFAULT_255_1_234
10
22.3696604
20
84.7585113
40
0.6455691
50
4.8362157
51
12.2904523
0
ARC
8
DEFAULT_255_1_234
10
22.6451719
20
84.8198965
40
0.3633074
50
12.0805627
51
23.8173984
0
ARC
8
DEFAULT_255_1_234
10
22.7625425
20
84.8695919
40
0.2358723
50
24.2871213
51
31.3935614
0
ARC
8
DEFAULT_255_1_234
10
22.8150122
20
84.9039233
40
0.1732111
50
30.7407893
51
82.4657128
0
ARC
8
DEFAULT_255_1_234
10
22.7970256
20
84.8155691
40
0.263235
50
81.1060089
51
90.2184952
0
ARC
8
DEFAULT_255_1_234
10
22.7934555
20
84.8413924
40
0.2374236
50
89.3806855
51
105.6762551
0
ARC
8
DEFAULT_255_1_234
10
22.7751186
20
84.9080567
40
0.1682847
50
105.7981136
51
149.7388061
0
ARC
8
DEFAULT_255_1_234
10
22.8815264
20
84.844095
40
0.2924306
50
149.4208916
51
163.6286378
0
ARC
8
DEFAULT_255_1_234
10
23.0906152
20
84.780325
40
0.5110213
50
163.3763315
51
172.1410975
0
ARC
8
DEFAULT_255_1_234
10
23.4206871
20
84.7330518
40
0.8444586
50
172.0259487
51
178.0703232
0
ARC
8
DEFAULT_255_1_234
10
23.723696
20
84.7186906
40
1.1477868
50
177.8631668
51
179.5044149
0
ARC
8
DEFAULT_255_1_234
10
23.6164365
20
84.4872389
40
1.0404907
50
179.7995573
51
185.2460446
0
ARC
8
DEFAULT_255_1_234
10
23.2121404
20
84.4489513
40
0.6343885
50
185.1411642
51
193.0079639
0
ARC
8
DEFAULT_255_1_234
10
22.9477877
20
84.3864641
40
0.3627568
50
192.7897626
51
205.2507664
0
ARC
8
DEFAULT_255_1_234
10
22.8431424
20
84.3397415
40
0.2481908
50
205.8005384
51
211.2537509
0
ARC
8
DEFAULT_255_1_234
10
22.7907864
20
84.304658
40
0.1852521
50
210.3789793
51
238.4008143
0
ARC
8
DEFAULT_255_1_234
10
22.7888386
20
84.3093376
40
0.1882621
50
239.6520629
51
265.9793761
0
ARC
8
DEFAULT_255_1_234
10
22.7973586
20
84.3765427
40
0.2559272
50
265.1315437
51
270.060332
0
ARC
8
DEFAULT_255_1_234
10
22.8002365
20
84.3441534
40
0.2235528
50
269.3314664
51
287.2178029
0
ARC
8
DEFAULT_255_1_234
10
22.8140217
20
84.2938279
40
0.1714108
50
287.7958004
51
329.080874
0
ARC
8
DEFAULT_255_1_234
10
22.7182674
20
84.353593
40
0.2842745
50
328.6634704
51
343.3325132
0
ARC
8
DEFAULT_255_1_234
10
22.5009694
20
84.4212863
40
0.5118644
50
343.0499468
51
351.9393422
0
ARC
8
DEFAULT_255_1_234
10
22.1542994
20
84.4723949
40
0.8622784
50
351.8069023
51
357.7959224
0
ARC
8
DEFAULT_255_1_234
10
21.830755
20
84.4891721
40
1.1862365
50
357.5871873
51
359.2677531
0
LINE
8
DEFAULT_255_1_234
10
23.4490021
20
85.1848211
11
23.7815161
21
84.2202093
0
LINE
8
DEFAULT_255_1_234
10
23.7815161
20
84.2202093
11
24.1156364
21
85.1848211
0
LINE
8
DEFAULT_255_1_234
10
24.1156364
20
85.1848211
11
24.2843029
21
85.1848211
0
LINE
8
DEFAULT_255_1_234
10
24.2843029
20
85.1848211
11
23.850589
21
84.0154
0
LINE
8
DEFAULT_255_1_234
10
23.850589
20
84.0154
11
23.7140495
21
84.0154
0
LINE
8
DEFAULT_255_1_234
10
23.7140495
20
84.0154
11
23.2811388
21
85.1848211
0
LINE
8
DEFAULT_255_1_234
10
23.2811388
20
85.1848211
11
23.4490021
21
85.1848211
0
LINE
8
DEFAULT_255_1_234
10
20.5573293
20
52.2654
11
20.4456881
21
52.5706061
0
LINE
8
DEFAULT_255_1_234
10
20.4456881
20
52.5706061
11
19.9557521
21
52.5706061
0
LINE
8
DEFAULT_255_1_234
10
19.9557521
20
52.5706061
11
19.8457173
21
52.2654
0
LINE
8
DEFAULT_255_1_234
10
19.8457173
20
52.2654
11
19.6866889
21
52.2654
0
LINE
8
DEFAULT_255_1_234
10
19.6866889
20
52.2654
11
20.1332535
21
53.4348211
0
LINE
8
DEFAULT_255_1_234
10
20.1332535
20
53.4348211
11
20.2681867
21
53.4348211
0
LINE
8
DEFAULT_255_1_234
10
20.2681867
20
53.4348211
11
20.7155545
21
52.2654
0
LINE
8
DEFAULT_255_1_234
10
20.7155545
20
52.2654
11
20.5573293
21
52.2654
0
LINE
8
DEFAULT_255_1_234
10
20.2007201
20
53.2444689
11
20.0023362
21
52.6975075
0
LINE
8
DEFAULT_255_1_234
10
20.0023362
20
52.6975075
11
20.3999072
21
52.6975075
0
LINE
8
DEFAULT_255_1_234
10
20.3999072
20
52.6975075
11
20.2007201
21
53.2444689
0
LINE
8
DEFAULT_255_1_234
10
21.0279892
20
53.4348211
11
21.0279892
21
52.3914983
0
LINE
8
DEFAULT_255_1_234
10
21.0279892
20
52.3914983
11
21.5821791
21
52.3914983
0
LINE
8
DEFAULT_255_1_234
10
21.5821791
20
52.3914983
11
21.5821791
21
52.2654
0
LINE
8
DEFAULT_255_1_234
10
21.5821791
20
52.2654
11
20.8729766
21
52.2654
0
LINE
8
DEFAULT_255_1_234
10
20.8729766
20
52.2654
11
20.8729766
21
53.4348211
0
LINE
8
DEFAULT_255_1_234
10
20.8729766
20
53.4348211
11
21.0279892
21
53.4348211
0
LINE
8
DEFAULT_255_1_234
10
21.7580742
20
53.4348211
11
21.9572613
21
53.4348211
0
LINE
8
DEFAULT_255_1_234
10
21.9572613
20
53.4348211
11
22.339572
21
52.4806506
0
LINE
8
DEFAULT_255_1_234
10
22.339572
20
52.4806506
11
22.7218828
21
53.4348211
0
LINE
8
DEFAULT_255_1_234
10
22.7218828
20
53.4348211
11
22.921873
21
53.4348211
0
LINE
8
DEFAULT_255_1_234
10
22.921873
20
53.4348211
11
22.921873
21
52.2654
0
LINE
8
DEFAULT_255_1_234
10
22.921873
20
52.2654
11
22.7676637
21
52.2654
0
LINE
8
DEFAULT_255_1_234
10
22.7676637
20
52.2654
11
22.7676637
21
52.7207996
0
LINE
8
DEFAULT_255_1_234
10
22.7676637
20
52.7207996
11
22.7821208
21
53.2123419
0
LINE
8
DEFAULT_255_1_234
10
22.7821208
20
53.2123419
11
22.3982037
21
52.2654
0
LINE
8
DEFAULT_255_1_234
10
22.3982037
20
52.2654
11
22.2801372
21
52.2654
0
LINE
8
DEFAULT_255_1_234
10
22.2801372
20
52.2654
11
21.8970232
21
53.2099324
0
LINE
8
DEFAULT_255_1_234
10
21.8970232
20
53.2099324
11
21.9122835
21
52.7207996
0
LINE
8
DEFAULT_255_1_234
10
21.9122835
20
52.7207996
11
21.9122835
21
52.2654
0
LINE
8
DEFAULT_255_1_234
10
21.9122835
20
52.2654
11
21.7580742
21
52.2654
0
LINE
8
DEFAULT_255_1_234
10
21.7580742
20
52.2654
11
21.7580742
21
53.4348211
0
LINE
8
DEFAULT_255_1_234
10
23.7828754
20
53.4348211
11
23.7828754
21
52.658152
0
LINE
8
DEFAULT_255_1_234
10
23.7828754
20
52.658152
11
23.9451165
21
52.658152
0
LINE
8
DEFAULT_255_1_234
10
23.9451165
20
52.658152
11
23.9451165
21
52.5368728
0
LINE
8
DEFAULT_255_1_234
10
23.9451165
20
52.5368728
11
23.7828754
21
52.5368728
0
LINE
8
DEFAULT_255_1_234
10
23.7828754
20
52.5368728
11
23.7828754
21
52.2654
0
LINE
8
DEFAULT_255_1_234
10
23.7828754
20
52.2654
11
23.6334851
21
52.2654
0
LINE
8
DEFAULT_255_1_234
10
23.6334851
20
52.2654
11
23.6334851
21
52.5368728
0
LINE
8
DEFAULT_255_1_234
10
23.6334851
20
52.5368728
11
23.1009808
21
52.5368728
0
LINE
8
DEFAULT_255_1_234
10
23.1009808
20
52.5368728
11
23.1009808
21
52.6244187
0
LINE
8
DEFAULT_255_1_234
10
23.1009808
20
52.6244187
11
23.6246501
21
53.4348211
0
LINE
8
DEFAULT_255_1_234
10
23.6246501
20
53.4348211
11
23.7828754
21
53.4348211
0
LINE
8
DEFAULT_255_1_234
10
23.6158152
20
53.1994912
11
23.2696473
21
52.658152
0
LINE
8
DEFAULT_255_1_234
10
23.2696473
20
52.658152
11
23.6334851
21
52.658152
0
LINE
8
DEFAULT_255_1_234
10
23.6334851
20
52.658152
11
23.6334851
21
53.2316181
0
LINE
8
DEFAULT_255_1_234
10
23.6334851
20
53.2316181
11
23.6158152
21
53.1994912
0
LINE
8
DEFAULT_255_1_234
10
20.6631293
20
60.2029
11
20.5514881
21
60.5081061
0
LINE
8
DEFAULT_255_1_234
10
20.5514881
20
60.5081061
11
20.0615521
21
60.5081061
0
LINE
8
DEFAULT_255_1_234
10
20.0615521
20
60.5081061
11
19.9515173
21
60.2029
0
LINE
8
DEFAULT_255_1_234
10
19.9515173
20
60.2029
11
19.7924889
21
60.2029
0
LINE
8
DEFAULT_255_1_234
10
19.7924889
20
60.2029
11
20.2390535
21
61.3723211
0
LINE
8
DEFAULT_255_1_234
10
20.2390535
20
61.3723211
11
20.3739867
21
61.3723211
0
LINE
8
DEFAULT_255_1_234
10
20.3739867
20
61.3723211
11
20.8213545
21
60.2029
0
LINE
8
DEFAULT_255_1_234
10
20.8213545
20
60.2029
11
20.6631293
21
60.2029
0
LINE
8
DEFAULT_255_1_234
10
20.3065201
20
61.1819689
11
20.1081362
21
60.6350075
0
LINE
8
DEFAULT_255_1_234
10
20.1081362
20
60.6350075
11
20.5057072
21
60.6350075
0
LINE
8
DEFAULT_255_1_234
10
20.5057072
20
60.6350075
11
20.3065201
21
61.1819689
0
LINE
8
DEFAULT_255_1_234
10
21.1337892
20
61.3723211
11
21.1337892
21
60.3289983
0
LINE
8
DEFAULT_255_1_234
10
21.1337892
20
60.3289983
11
21.6879791
21
60.3289983
0
LINE
8
DEFAULT_255_1_234
10
21.6879791
20
60.3289983
11
21.6879791
21
60.2029
0
LINE
8
DEFAULT_255_1_234
10
21.6879791
20
60.2029
11
20.9787766
21
60.2029
0
LINE
8
DEFAULT_255_1_234
10
20.9787766
20
60.2029
11
20.9787766
21
61.3723211
0
LINE
8
DEFAULT_255_1_234
10
20.9787766
20
61.3723211
11
21.1337892
21
61.3723211
0
LINE
8
DEFAULT_255_1_234
10
21.8638742
20
61.3723211
11
22.0630613
21
61.3723211
0
LINE
8
DEFAULT_255_1_234
10
22.0630613
20
61.3723211
11
22.445372
21
60.4181506
0
LINE
8
DEFAULT_255_1_234
10
22.445372
20
60.4181506
11
22.8276828
21
61.3723211
0
LINE
8
DEFAULT_255_1_234
10
22.8276828
20
61.3723211
11
23.027673
21
61.3723211
0
LINE
8
DEFAULT_255_1_234
10
23.027673
20
61.3723211
11
23.027673
21
60.2029
0
LINE
8
DEFAULT_255_1_234
10
23.027673
20
60.2029
11
22.8734637
21
60.2029
0
LINE
8
DEFAULT_255_1_234
10
22.8734637
20
60.2029
11
22.8734637
21
60.6582996
0
LINE
8
DEFAULT_255_1_234
10
22.8734637
20
60.6582996
11
22.8879208
21
61.1498419
0
LINE
8
DEFAULT_255_1_234
10
22.8879208
20
61.1498419
11
22.5040037
21
60.2029
0
LINE
8
DEFAULT_255_1_234
10
22.5040037
20
60.2029
11
22.3859372
21
60.2029
0
LINE
8
DEFAULT_255_1_234
10
22.3859372
20
60.2029
11
22.0028232
21
61.1474324
0
LINE
8
DEFAULT_255_1_234
10
22.0028232
20
61.1474324
11
22.0180835
21
60.6582996
0
LINE
8
DEFAULT_255_1_234
10
22.0180835
20
60.6582996
11
22.0180835
21
60.2029
0
LINE
8
DEFAULT_255_1_234
10
22.0180835
20
60.2029
11
21.8638742
21
60.2029
0
LINE
8
DEFAULT_255_1_234
10
21.8638742
20
60.2029
11
21.8638742
21
61.3723211
0
LINE
8
DEFAULT_255_1_234
10
23.4774504
20
60.7386169
11
23.4774504
21
60.8598962
0
LINE
8
DEFAULT_255_1_234
10
23.4774504
20
60.8598962
11
23.5890916
21
60.8598962
0
LINE
8
DEFAULT_255_1_234
10
23.3987394
20
61.0655087
11
23.2501522
21
61.0655087
0
LINE
8
DEFAULT_255_1_234
10
23.2397109
20
60.5113188
11
23.3891013
21
60.5113188
0
LINE
8
DEFAULT_255_1_234
10
23.5890916
20
60.7386169
11
23.4774504
21
60.7386169
0
ARC
8
DEFAULT_255_1_234
10
23.5861782
20
61.1991713
40
0.3392876
50
270.4919872
51
281.8951556
0
ARC
8
DEFAULT_255_1_234
10
23.6103044
20
61.0889702
40
0.2264817
50
281.6691735
51
301.2943132
0
ARC
8
DEFAULT_255_1_234
10
23.6273254
20
61.0578304
40
0.1910381
50
301.7833094
51
311.7545298
0
ARC
8
DEFAULT_255_1_234
10
23.636483
20
61.0476748
40
0.1773635
50
311.7323931
51
354.2802411
0
ARC
8
DEFAULT_255_1_234
10
23.5638455
20
61.0601722
40
0.2509385
50
353.0937916
51
0.1181479
0
ARC
8
DEFAULT_255_1_234
10
23.517724
20
61.0649386
40
0.2970898
50
359.1805295
51
15.0453146
0
ARC
8
DEFAULT_255_1_234
10
23.6523077
20
61.1041992
40
0.1569564
50
13.9577229
51
77.6713066
0
ARC
8
DEFAULT_255_1_234
10
23.6136606
20
60.9656949
40
0.3006298
50
76.1116566
51
90.7026153
0
ARC
8
DEFAULT_255_1_234
10
23.6077444
20
60.9930545
40
0.2732568
50
89.5324876
51
103.531937
0
ARC
8
DEFAULT_255_1_234
10
23.5876888
20
61.0729884
40
0.1908508
50
103.2931773
51
133.5619022
0
ARC
8
DEFAULT_255_1_234
10
23.5832377
20
61.0789375
40
0.1834746
50
133.8349307
51
173.5344437
0
ARC
8
DEFAULT_255_1_234
10
23.655542
20
61.0661213
40
0.2568033
50
172.5096846
51
180.1366907
0
ARC
8
DEFAULT_255_1_234
10
23.5604314
20
61.0695622
40
0.3103056
50
155.3484492
51
180.7484736
0
ARC
8
DEFAULT_255_1_234
10
23.5555403
20
61.0666846
40
0.3070957
50
131.5744599
51
154.4798489
0
ARC
8
DEFAULT_255_1_234
10
23.586855
20
61.035031
40
0.3515643
50
96.9875458
51
131.9690667
0
ARC
8
DEFAULT_255_1_234
10
23.608803
20
60.9104636
40
0.4779224
50
89.8596053
51
97.7825159
0
ARC
8
DEFAULT_255_1_234
10
23.6136093
20
60.8842616
40
0.5041361
50
78.3655447
51
90.4131539
0
ARC
8
DEFAULT_255_1_234
10
23.6494011
20
61.0501887
40
0.3344039
50
56.6229102
51
78.638727
0
ARC
8
DEFAULT_255_1_234
10
23.6708955
20
61.0877805
40
0.2912001
50
47.0253525
51
56.0854072
0
ARC
8
DEFAULT_255_1_234
10
23.6728735
20
61.0917223
40
0.2869704
50
10.9208013
51
46.7778124
0
ARC
8
DEFAULT_255_1_234
10
23.5364801
20
61.0601857
40
0.426899
50
359.6364486
51
11.6087304
0
ARC
8
DEFAULT_255_1_234
10
23.7199645
20
61.0586752
40
0.243409
50
332.3549906
51
359.7179418
0
ARC
8
DEFAULT_255_1_234
10
23.6549247
20
61.0895142
40
0.3153459
50
325.2333722
51
332.8745602
0
ARC
8
DEFAULT_255_1_234
10
23.670187
20
61.0788828
40
0.2967456
50
292.9802137
51
325.2392345
0
ARC
8
DEFAULT_255_1_234
10
23.6427244
20
61.1322863
40
0.3566604
50
292.5402179
51
293.6924929
0
ARC
8
DEFAULT_255_1_234
10
23.681984
20
60.4868091
40
0.3307468
50
57.6435486
51
72.8625112
0
ARC
8
DEFAULT_255_1_234
10
23.717434
20
60.5442549
40
0.2632492
50
36.7248896
51
57.4697979
0
ARC
8
DEFAULT_255_1_234
10
23.7162973
20
60.545522
40
0.2634081
50
8.0545065
51
36.356114
0
ARC
8
DEFAULT_255_1_234
10
23.6300158
20
60.5300174
40
0.3510261
50
359.8320645
51
8.5869982
0
ARC
8
DEFAULT_255_1_234
10
23.5924934
20
60.5252101
40
0.3885653
50
343.9829931
51
0.5571613
0
ARC
8
DEFAULT_255_1_234
10
23.6811131
20
60.5009438
40
0.2966924
50
311.6359546
51
343.7651759
0
ARC
8
DEFAULT_255_1_234
10
23.64327
20
60.5436102
40
0.3537231
50
279.7829875
51
311.6255694
0
ARC
8
DEFAULT_255_1_234
10
23.6131476
20
60.687328
40
0.5004971
50
269.7286406
51
280.3856417
0
ARC
8
DEFAULT_255_1_234
10
23.6069549
20
60.6831996
40
0.4963778
50
256.6828919
51
270.4412052
0
ARC
8
DEFAULT_255_1_234
10
23.5730845
20
60.5447394
40
0.3538406
50
229.4223008
51
256.8556159
0
ARC
8
DEFAULT_255_1_234
10
23.5316238
20
60.4980736
40
0.2914296
50
181.818294
51
229.6455059
0
ARC
8
DEFAULT_255_1_234
10
23.6356194
20
60.5111496
40
0.3959084
50
179.9755256
51
183.2323064
0
ARC
8
DEFAULT_255_1_234
10
23.618394
20
60.5091037
40
0.2293034
50
179.4465117
51
196.2869258
0
ARC
8
DEFAULT_255_1_234
10
23.5696348
20
60.4957651
40
0.1787621
50
196.5661473
51
227.705904
0
ARC
8
DEFAULT_255_1_234
10
23.5860443
20
60.5141155
40
0.2033784
50
227.7652068
51
257.8762805
0
ARC
8
DEFAULT_255_1_234
10
23.6085413
20
60.6084156
40
0.3003081
50
257.4584385
51
270.426602
0
ARC
8
DEFAULT_255_1_234
10
23.6130979
20
60.6373996
40
0.329292
50
269.5962073
51
280.8789248
0
ARC
8
DEFAULT_255_1_234
10
23.6360508
20
60.5227685
40
0.2123908
50
280.6346389
51
299.8595945
0
ARC
8
DEFAULT_255_1_234
10
23.6551415
20
60.4865212
40
0.171457
50
300.3576302
51
314.5517981
0
ARC
8
DEFAULT_255_1_234
10
23.6468475
20
60.4925919
40
0.1816095
50
315.0728369
51
345.0431014
0
ARC
8
DEFAULT_255_1_234
10
23.5545289
20
60.5194841
40
0.2777492
50
344.5986631
51
357.9269593
0
ARC
8
DEFAULT_255_1_234
10
23.4649615
20
60.5256276
40
0.3674917
50
357.4748886
51
0.0231117
0
ARC
8
DEFAULT_255_1_234
10
23.5672725
20
60.5280679
40
0.2651907
50
359.5047933
51
13.4239635
0
ARC
8
DEFAULT_255_1_234
10
23.6539368
20
60.5502478
40
0.1757509
50
12.9498199
51
48.7551375
0
ARC
8
DEFAULT_255_1_234
10
23.6357102
20
60.52534
40
0.2065134
50
49.5088623
51
72.1836453
0
ARC
8
DEFAULT_255_1_234
10
23.5999255
20
60.4191291
40
0.3185836
50
71.9010081
51
84.3554254
0
ARC
8
DEFAULT_255_1_234
10
23.5837887
20
60.2830326
40
0.4556151
50
84.0193428
51
89.333121
0
LINE
8
DEFAULT_255_1_234
10
20.6631293
20
68.1404
11
20.5514881
21
68.4456061
0
LINE
8
DEFAULT_255_1_234
10
20.5514881
20
68.4456061
11
20.0615521
21
68.4456061
0
LINE
8
DEFAULT_255_1_234
10
20.0615521
20
68.4456061
11
19.9515173
21
68.1404
0
LINE
8
DEFAULT_255_1_234
10
19.9515173
20
68.1404
11
19.7924889
21
68.1404
0
LINE
8
DEFAULT_255_1_234
10
19.7924889
20
68.1404
11
20.2390535
21
69.3098211
0
LINE
8
DEFAULT_255_1_234
10
20.2390535
20
69.3098211
11
20.3739867
21
69.3098211
0
LINE
8
DEFAULT_255_1_234
10
20.3739867
20
69.3098211
11
20.8213545
21
68.1404
0
LINE
8
DEFAULT_255_1_234
10
20.8213545
20
68.1404
11
20.6631293
21
68.1404
0
LINE
8
DEFAULT_255_1_234
10
20.3065201
20
69.1194689
11
20.1081362
21
68.5725075
0
LINE
8
DEFAULT_255_1_234
10
20.1081362
20
68.5725075
11
20.5057072
21
68.5725075
0
LINE
8
DEFAULT_255_1_234
10
20.5057072
20
68.5725075
11
20.3065201
21
69.1194689
0
LINE
8
DEFAULT_255_1_234
10
21.1337892
20
69.3098211
11
21.1337892
21
68.2664983
0
LINE
8
DEFAULT_255_1_234
10
21.1337892
20
68.2664983
11
21.6879791
21
68.2664983
0
LINE
8
DEFAULT_255_1_234
10
21.6879791
20
68.2664983
11
21.6879791
21
68.1404
0
LINE
8
DEFAULT_255_1_234
10
21.6879791
20
68.1404
11
20.9787766
21
68.1404
0
LINE
8
DEFAULT_255_1_234
10
20.9787766
20
68.1404
11
20.9787766
21
69.3098211
0
LINE
8
DEFAULT_255_1_234
10
20.9787766
20
69.3098211
11
21.1337892
21
69.3098211
0
LINE
8
DEFAULT_255_1_234
10
21.8638742
20
69.3098211
11
22.0630613
21
69.3098211
0
LINE
8
DEFAULT_255_1_234
10
22.0630613
20
69.3098211
11
22.445372
21
68.3556506
0
LINE
8
DEFAULT_255_1_234
10
22.445372
20
68.3556506
11
22.8276828
21
69.3098211
0
LINE
8
DEFAULT_255_1_234
10
22.8276828
20
69.3098211
11
23.027673
21
69.3098211
0
LINE
8
DEFAULT_255_1_234
10
23.027673
20
69.3098211
11
23.027673
21
68.1404
0
LINE
8
DEFAULT_255_1_234
10
23.027673
20
68.1404
11
22.8734637
21
68.1404
0
LINE
8
DEFAULT_255_1_234
10
22.8734637
20
68.1404
11
22.8734637
21
68.5957996
0
LINE
8
DEFAULT_255_1_234
10
22.8734637
20
68.5957996
11
22.8879208
21
69.0873419
0
LINE
8
DEFAULT_255_1_234
10
22.8879208
20
69.0873419
11
22.5040037
21
68.1404
0
LINE
8
DEFAULT_255_1_234
10
22.5040037
20
68.1404
11
22.3859372
21
68.1404
0
LINE
8
DEFAULT_255_1_234
10
22.3859372
20
68.1404
11
22.0028232
21
69.0849324
0
LINE
8
DEFAULT_255_1_234
10
22.0028232
20
69.0849324
11
22.0180835
21
68.5957996
0
LINE
8
DEFAULT_255_1_234
10
22.0180835
20
68.5957996
11
22.0180835
21
68.1404
0
LINE
8
DEFAULT_255_1_234
10
22.0180835
20
68.1404
11
21.8638742
21
68.1404
0
LINE
8
DEFAULT_255_1_234
10
21.8638742
20
68.1404
11
21.8638742
21
69.3098211
0
LINE
8
DEFAULT_255_1_234
10
24.0276245
20
68.2616792
11
24.0276245
21
68.1404
0
LINE
8
DEFAULT_255_1_234
10
24.0276245
20
68.1404
11
23.2613966
21
68.1404
0
LINE
8
DEFAULT_255_1_234
10
23.2613966
20
68.1404
11
23.2613966
21
68.2472221
0
LINE
8
DEFAULT_255_1_234
10
23.2613966
20
68.2472221
11
23.6661962
21
68.6969995
0
LINE
8
DEFAULT_255_1_234
10
23.3874949
20
68.9652595
11
23.2389078
21
68.9652595
0
LINE
8
DEFAULT_255_1_234
10
23.7537422
20
68.6014218
11
23.4405044
21
68.2616792
0
LINE
8
DEFAULT_255_1_234
10
23.4405044
20
68.2616792
11
24.0276245
21
68.2616792
0
ARC
8
DEFAULT_255_1_234
10
22.3171796
20
69.8899527
40
1.8008286
50
318.5132453
51
320.7828378
0
ARC
8
DEFAULT_255_1_234
10
22.845877
20
69.4596426
40
1.1191493
50
320.7372736
51
323.9737074
0
ARC
8
DEFAULT_255_1_234
10
23.2378626
20
69.1756361
40
0.6350923
50
323.8961724
51
328.6421089
0
ARC
8
DEFAULT_255_1_234
10
23.4425222
20
69.0494031
40
0.3946393
50
328.8299013
51
331.789948
0
ARC
8
DEFAULT_255_1_234
10
23.54224
20
68.9979509
40
0.2824501
50
331.4255242
51
352.9364833
0
ARC
8
DEFAULT_255_1_234
10
23.5558901
20
68.9948976
40
0.2685315
50
353.2248685
51
0.0169286
0
ARC
8
DEFAULT_255_1_234
10
23.5768778
20
68.997195
40
0.2475536
50
359.4866256
51
15.9339782
0
ARC
8
DEFAULT_255_1_234
10
23.6275763
20
69.0108286
40
0.1950618
50
16.1714718
51
43.5284424
0
ARC
8
DEFAULT_255_1_234
10
23.6353072
20
69.0185573
40
0.184134
50
43.4415429
51
83.1661404
0
ARC
8
DEFAULT_255_1_234
10
23.621899
20
68.9448771
40
0.258926
50
82.160215
51
90.1505798
0
ARC
8
DEFAULT_255_1_234
10
23.6187417
20
68.8911865
40
0.3126255
50
89.5460705
51
102.5418777
0
ARC
8
DEFAULT_255_1_234
10
23.5944503
20
68.9942665
40
0.2067346
50
102.1739365
51
129.2061916
0
ARC
8
DEFAULT_255_1_234
10
23.5865575
20
69.0067094
40
0.1921118
50
129.7279328
51
135.7542026
0
ARC
8
DEFAULT_255_1_234
10
23.5987103
20
68.9970045
40
0.2075944
50
136.175737
51
166.3674722
0
ARC
8
DEFAULT_255_1_234
10
23.6994022
20
68.9700182
40
0.3118201
50
165.9092917
51
178.8683903
0
ARC
8
DEFAULT_255_1_234
10
23.7858883
20
68.9653179
40
0.3983935
50
178.438168
51
180.0083905
0
ARC
8
DEFAULT_255_1_234
10
23.6457485
20
68.9692231
40
0.4068601
50
163.2878735
51
180.5581814
0
ARC
8
DEFAULT_255_1_234
10
23.5655747
20
68.991284
40
0.3237344
50
133.454115
51
162.9470031
0
ARC
8
DEFAULT_255_1_234
10
23.5834288
20
68.9723
40
0.349795
50
100.7869394
51
133.4384016
0
ARC
8
DEFAULT_255_1_234
10
23.618206
20
68.8174319
40
0.5084616
50
89.6605301
51
101.3704185
0
ARC
8
DEFAULT_255_1_234
10
23.6248398
20
68.8235496
40
0.502348
50
78.2171172
51
90.4130393
0
ARC
8
DEFAULT_255_1_234
10
23.6603477
20
68.9859637
40
0.3361092
50
55.9268222
51
78.4888551
0
ARC
8
DEFAULT_255_1_234
10
23.6799917
20
69.0198324
40
0.2970617
50
47.9292255
51
55.4054003
0
ARC
8
DEFAULT_255_1_234
10
23.6901478
20
69.0301502
40
0.2825983
50
4.3347696
51
48.0560701
0
ARC
8
DEFAULT_255_1_234
10
23.5805871
20
69.0131601
40
0.393225
50
359.925209
51
5.5967654
0
ARC
8
DEFAULT_255_1_234
10
23.6234763
20
69.0187816
40
0.3503892
50
337.8914096
51
358.9967724
0
ARC
8
DEFAULT_255_1_234
10
23.3521175
20
69.1234706
40
0.6412172
50
326.9135351
51
338.3505194
0
ARC
8
DEFAULT_255_1_234
10
22.9535479
20
69.3789284
40
1.1146189
50
319.6472867
51
327.095818
0
ARC
8
DEFAULT_255_1_234
10
22.5702482
20
69.6951
40
1.6114559
50
317.2586784
51
319.9046139
0
LINE
8
DEFAULT_255_1_234
10
20.6723293
20
76.0779
11
20.5606881
21
76.3831061
0
LINE
8
DEFAULT_255_1_234
10
20.5606881
20
76.3831061
11
20.0707521
21
76.3831061
0
LINE
8
DEFAULT_255_1_234
10
20.0707521
20
76.3831061
11
19.9607173
21
76.0779
0
LINE
8
DEFAULT_255_1_234
10
19.9607173
20
76.0779
11
19.8016889
21
76.0779
0
LINE
8
DEFAULT_255_1_234
10
19.8016889
20
76.0779
11
20.2482535
21
77.2473211
0
LINE
8
DEFAULT_255_1_234
10
20.2482535
20
77.2473211
11
20.3831867
21
77.2473211
0
LINE
8
DEFAULT_255_1_234
10
20.3831867
20
77.2473211
11
20.8305545
21
76.0779
0
LINE
8
DEFAULT_255_1_234
10
20.8305545
20
76.0779
11
20.6723293
21
76.0779
0
LINE
8
DEFAULT_255_1_234
10
20.3157201
20
77.0569689
11
20.1173362
21
76.5100075
0
LINE
8
DEFAULT_255_1_234
10
20.1173362
20
76.5100075
11
20.5149072
21
76.5100075
0
LINE
8
DEFAULT_255_1_234
10
20.5149072
20
76.5100075
11
20.3157201
21
77.0569689
0
LINE
8
DEFAULT_255_1_234
10
21.1429892
20
77.2473211
11
21.1429892
21
76.2039983
0
LINE
8
DEFAULT_255_1_234
10
21.1429892
20
76.2039983
11
21.6971791
21
76.2039983
0
LINE
8
DEFAULT_255_1_234
10
21.6971791
20
76.2039983
11
21.6971791
21
76.0779
0
LINE
8
DEFAULT_255_1_234
10
21.6971791
20
76.0779
11
20.9879766
21
76.0779
0
LINE
8
DEFAULT_255_1_234
10
20.9879766
20
76.0779
11
20.9879766
21
77.2473211
0
LINE
8
DEFAULT_255_1_234
10
20.9879766
20
77.2473211
11
21.1429892
21
77.2473211
0
LINE
8
DEFAULT_255_1_234
10
21.8730742
20
77.2473211
11
22.0722613
21
77.2473211
0
LINE
8
DEFAULT_255_1_234
10
22.0722613
20
77.2473211
11
22.454572
21
76.2931506
0
LINE
8
DEFAULT_255_1_234
10
22.454572
20
76.2931506
11
22.8368828
21
77.2473211
0
LINE
8
DEFAULT_255_1_234
10
22.8368828
20
77.2473211
11
23.036873
21
77.2473211
0
LINE
8
DEFAULT_255_1_234
10
23.036873
20
77.2473211
11
23.036873
21
76.0779
0
LINE
8
DEFAULT_255_1_234
10
23.036873
20
76.0779
11
22.8826637
21
76.0779
0
LINE
8
DEFAULT_255_1_234
10
22.8826637
20
76.0779
11
22.8826637
21
76.5332996
0
LINE
8
DEFAULT_255_1_234
10
22.8826637
20
76.5332996
11
22.8971208
21
77.0248419
0
LINE
8
DEFAULT_255_1_234
10
22.8971208
20
77.0248419
11
22.5132037
21
76.0779
0
LINE
8
DEFAULT_255_1_234
10
22.5132037
20
76.0779
11
22.3951372
21
76.0779
0
LINE
8
DEFAULT_255_1_234
10
22.3951372
20
76.0779
11
22.0120232
21
77.0224324
0
LINE
8
DEFAULT_255_1_234
10
22.0120232
20
77.0224324
11
22.0272835
21
76.5332996
0
LINE
8
DEFAULT_255_1_234
10
22.0272835
20
76.5332996
11
22.0272835
21
76.0779
0
LINE
8
DEFAULT_255_1_234
10
22.0272835
20
76.0779
11
21.8730742
21
76.0779
0
LINE
8
DEFAULT_255_1_234
10
21.8730742
20
76.0779
11
21.8730742
21
77.2473211
0
LINE
8
DEFAULT_255_1_234
10
23.7589263
20
77.2529433
11
23.7589263
21
76.0779
0
LINE
8
DEFAULT_255_1_234
10
23.7589263
20
76.0779
11
23.609536
21
76.0779
0
LINE
8
DEFAULT_255_1_234
10
23.609536
20
76.0779
11
23.609536
21
77.0682133
0
LINE
8
DEFAULT_255_1_234
10
23.609536
20
77.0682133
11
23.3099521
21
76.9581785
0
LINE
8
DEFAULT_255_1_234
10
23.3099521
20
76.9581785
11
23.3099521
21
77.0931117
0
LINE
8
DEFAULT_255_1_234
10
23.3099521
20
77.0931117
11
23.7356343
21
77.2529433
0
LINE
8
DEFAULT_255_1_234
10
23.7356343
20
77.2529433
11
23.7589263
21
77.2529433
0
ENDSEC
0
EOF