0
SECTION
2
HEADER
9
$MEASUREMENT
70
1
0
ENDSEC
0
SECTION
2
TABLES
0
TABLE
2
LTYPE
0
LTYPE
72
65
70
64
2
CONTINUOUS
3
______
73
0
40
0
0
ENDTAB
0
TABLE
2
LAYER
0
LAYER
2
DEFAULT_255_2_778
70
0
62
255
6
CONTINUOUS
0
LAYER
2
DEFAULT_255_1_234
70
0
62
255
6
CONTINUOUS
0
ENDTAB
0
ENDSEC
0
SECTION
2
ENTITIES
0
ARC
8
DEFAULT_255_2_778
10
3.5700693
20
75.805203
40
0.7914215
50
129.1312896
51
180.1450914
0
ARC
8
DEFAULT_255_2_778
10
3.5703345
20
75.8056901
40
0.7912112
50
89.854026
51
129.1684493
0
ARC
8
DEFAULT_255_2_778
10
25.7993937
20
75.8053767
40
0.7915249
50
39.4792447
51
90.147911
0
ARC
8
DEFAULT_255_2_778
10
25.7999935
20
75.8052233
40
0.7911595
50
359.8533901
51
39.5154338
0
ARC
8
DEFAULT_255_2_778
10
25.7996693
20
-1.9863492
40
0.7914836
50
309.4761667
51
0.1482649
0
ARC
8
DEFAULT_255_2_778
10
25.799398
20
-1.9867803
40
0.7913235
50
269.8517415
51
309.511178
0
ARC
8
DEFAULT_255_2_778
10
3.570342
20
-1.9867221
40
0.7913815
50
219.1282118
51
270.1454017
0
ARC
8
DEFAULT_255_2_778
10
3.5700247
20
-1.9863397
40
0.7913769
50
179.8524075
51
219.1641908
0
LINE
8
DEFAULT_255_2_778
10
3.5723503
20
76.5968989
11
25.7973503
21
76.5968989
0
LINE
8
DEFAULT_255_2_778
10
26.5911503
20
75.8031989
11
26.5911503
21
-1.9843011
0
LINE
8
DEFAULT_255_2_778
10
25.7973503
20
-2.7781011
11
3.5723503
21
-2.7781011
0
LINE
8
DEFAULT_255_2_778
10
2.7786503
20
-1.9843011
11
2.7786503
21
75.8031989
0
LINE
8
DEFAULT_255_1_234
10
10.132223
20
-0.2802337
11
10.2872355
21
-0.2802337
0
LINE
8
DEFAULT_255_1_234
10
9.3868777
20
-0.1212053
11
9.3868777
21
-0.0087609
0
LINE
8
DEFAULT_255_1_234
10
10.2872355
20
0.1422357
11
10.132223
21
0.1422357
0
LINE
8
DEFAULT_255_1_234
10
9.5418902
20
-0.0127768
11
9.5418902
21
-0.1260243
0
ARC
8
DEFAULT_255_1_234
10
9.7391742
20
-0.2205154
40
0.5513052
50
340.1774281
51
353.7814284
0
ARC
8
DEFAULT_255_1_234
10
9.8963095
20
-0.2790418
40
0.3836379
50
311.4558989
51
340.4421614
0
ARC
8
DEFAULT_255_1_234
10
9.8929763
20
-0.2679472
40
0.3941894
50
282.4333181
51
310.7513653
0
ARC
8
DEFAULT_255_1_234
10
9.8490502
20
-0.0864321
40
0.5809175
50
269.9358511
51
282.809604
0
ARC
8
DEFAULT_255_1_234
10
9.8438568
20
0.0593212
40
0.7266847
50
270.0021091
51
270.3581957
0
ARC
8
DEFAULT_255_1_234
10
9.8385985
20
-0.2007415
40
0.4666519
50
250.7884749
51
270.6489167
0
ARC
8
DEFAULT_255_1_234
10
9.821782
20
-0.2644681
40
0.4009729
50
219.3627325
51
250.0611886
0
ARC
8
DEFAULT_255_1_234
10
9.9047031
20
-0.1939958
40
0.5097822
50
193.5479632
51
219.5756669
0
ARC
8
DEFAULT_255_1_234
10
10.1418652
20
-0.1324081
40
0.7547848
50
181.1218675
51
193.87563
0
ARC
8
DEFAULT_255_1_234
10
10.3488833
20
-0.121342
40
0.9620055
50
179.9918545
51
181.5394234
0
ARC
8
DEFAULT_255_1_234
10
10.1637935
20
-0.0050212
40
0.7769248
50
169.5837241
51
180.2757934
0
ARC
8
DEFAULT_255_1_234
10
9.9800873
20
0.0289229
40
0.590109
50
155.0365899
51
169.6003176
0
ARC
8
DEFAULT_255_1_234
10
9.8665337
20
0.0836677
40
0.4640625
50
136.783148
51
155.2472683
0
ARC
8
DEFAULT_255_1_234
10
9.8275814
20
0.1167562
40
0.4130255
50
121.7633186
51
136.428115
0
ARC
8
DEFAULT_255_1_234
10
9.8410776
20
0.0918227
40
0.4413323
50
95.6459699
51
121.5490577
0
ARC
8
DEFAULT_255_1_234
10
9.8568058
20
-0.0190051
40
0.55319
50
89.924208
51
96.1377933
0
ARC
8
DEFAULT_255_1_234
10
9.8618491
20
-0.0071458
40
0.5413475
50
76.6779277
51
90.4563316
0
ARC
8
DEFAULT_255_1_234
10
9.9012114
20
0.1519114
40
0.3775041
50
47.485847
51
76.9287264
0
ARC
8
DEFAULT_255_1_234
10
9.8865087
20
0.1419159
40
0.3948286
50
16.5424086
51
46.8933463
0
ARC
8
DEFAULT_255_1_234
10
9.7257244
20
0.0890861
40
0.564021
50
5.4072051
51
17.0365086
0
ARC
8
DEFAULT_255_1_234
10
9.5818261
20
0.0659679
40
0.5556559
50
7.8891745
51
15.9239216
0
ARC
8
DEFAULT_255_1_234
10
9.7805274
20
0.1236631
40
0.3487515
50
15.7653144
51
27.9410532
0
ARC
8
DEFAULT_255_1_234
10
9.8909492
20
0.182779
40
0.2235026
50
27.8166557
51
46.4008329
0
ARC
8
DEFAULT_255_1_234
10
9.8959135
20
0.1822082
40
0.2205286
50
47.4371857
51
75.0698205
0
ARC
8
DEFAULT_255_1_234
10
9.8650529
20
0.0747765
40
0.3322915
50
74.7008593
51
87.8124495
0
ARC
8
DEFAULT_255_1_234
10
9.8577217
20
-0.0308156
40
0.4380987
50
87.3814673
51
90.0240855
0
ARC
8
DEFAULT_255_1_234
10
9.853876
20
0.0869291
40
0.3203749
50
89.3451631
51
108.5745436
0
ARC
8
DEFAULT_255_1_234
10
9.8401865
20
0.1382908
40
0.2673494
50
109.2998449
51
143.3037509
0
ARC
8
DEFAULT_255_1_234
10
9.9163938
20
0.0796881
40
0.3634757
50
143.0753173
51
163.1916937
0
ARC
8
DEFAULT_255_1_234
10
10.1115666
20
0.0180967
40
0.5681262
50
162.9373603
51
174.6208611
0
ARC
8
DEFAULT_255_1_234
10
10.3741708
20
-0.010699
40
0.8322832
50
174.3419979
51
180.1430411
0
ARC
8
DEFAULT_255_1_234
10
10.2810864
20
-0.1301302
40
0.7392076
50
179.6817502
51
189.150529
0
ARC
8
DEFAULT_255_1_234
10
10.0310112
20
-0.171781
40
0.4856932
50
188.9910863
51
203.5773039
0
ARC
8
DEFAULT_255_1_234
10
9.9230445
20
-0.2165789
40
0.3688271
50
203.9077269
51
215.1312379
0
ARC
8
DEFAULT_255_1_234
10
9.8307539
20
-0.2881059
40
0.2522457
50
213.9071664
51
263.8849284
0
ARC
8
DEFAULT_255_1_234
10
9.8432868
20
-0.2096482
40
0.3316174
50
263.1758525
51
270.1031083
0
ARC
8
DEFAULT_255_1_234
10
9.846496
20
-0.0849635
40
0.4563091
50
269.6719807
51
279.0609165
0
ARC
8
DEFAULT_255_1_234
10
9.8731728
20
-0.2462093
40
0.2928759
50
278.8750225
51
293.6346586
0
ARC
8
DEFAULT_255_1_234
10
9.9051936
20
-0.32141
40
0.2111472
50
293.8553404
51
310.0518804
0
ARC
8
DEFAULT_255_1_234
10
9.905679
20
-0.3276484
40
0.2060917
50
311.0646779
51
332.0108348
0
ARC
8
DEFAULT_255_1_234
10
9.7864517
20
-0.2619022
40
0.3422352
50
331.6588543
51
343.2878891
0
ARC
8
DEFAULT_255_1_234
10
9.5802032
20
-0.1985202
40
0.5580003
50
343.1446044
51
351.010618
0
ARC
8
DEFAULT_255_1_234
10
9.4260678
20
-0.1704129
40
0.7146438
50
350.7157277
51
351.1602153
0
LINE
8
DEFAULT_255_1_234
10
11.273533
20
0.1799849
11
11.1185205
21
0.1799849
0
LINE
8
DEFAULT_255_1_234
10
10.4261846
20
-0.3123606
11
10.5811972
21
-0.3123606
0
ARC
8
DEFAULT_255_1_234
10
11.1844017
20
1.0746768
40
1.252368
50
248.9199003
51
254.1439814
0
ARC
8
DEFAULT_255_1_234
10
11.0163512
20
0.6420234
40
0.788226
50
241.633709
51
249.0064503
0
ARC
8
DEFAULT_255_1_234
10
10.8634907
20
0.3619317
40
0.4691427
50
230.498225
51
241.8087113
0
ARC
8
DEFAULT_255_1_234
10
10.7850481
20
0.2619906
40
0.3421437
50
227.4064532
51
229.9881192
0
ARC
8
DEFAULT_255_1_234
10
10.7363002
20
0.2144088
40
0.2741476
50
200.6781896
51
228.1763934
0
ARC
8
DEFAULT_255_1_234
10
10.7435312
20
0.2129077
40
0.2804109
50
179.5061581
51
199.8694617
0
ARC
8
DEFAULT_255_1_234
10
10.7426064
20
0.220321
40
0.2795204
50
132.4834203
51
181.0242172
0
ARC
8
DEFAULT_255_1_234
10
10.8021646
20
0.1640704
40
0.3612768
50
129.2532479
51
133.4242687
0
ARC
8
DEFAULT_255_1_234
10
10.8168096
20
0.1420965
40
0.3875675
50
101.98776
51
128.8742646
0
ARC
8
DEFAULT_255_1_234
10
10.8566706
20
-0.0300259
40
0.5642249
50
89.5906553
51
102.3169264
0
ARC
8
DEFAULT_255_1_234
10
10.8637199
20
0.0018148
40
0.5323783
50
77.2360837
51
90.3248275
0
ARC
8
DEFAULT_255_1_234
10
10.8844278
20
0.09854
40
0.4334697
50
63.837784
51
77.0809408
0
ARC
8
DEFAULT_255_1_234
10
10.9122039
20
0.1502911
40
0.3747796
50
45.9864267
51
64.1607727
0
ARC
8
DEFAULT_255_1_234
10
10.9382921
20
0.1800866
40
0.3352302
50
32.2747395
51
45.6547121
0
ARC
8
DEFAULT_255_1_234
10
10.9449361
20
0.181988
40
0.328603
50
359.6507365
51
32.6130309
0
ARC
8
DEFAULT_255_1_234
10
10.8506457
20
0.182466
40
0.2678863
50
359.469343
51
14.9832209
0
ARC
8
DEFAULT_255_1_234
10
10.9211519
20
0.2013539
40
0.1948938
50
14.9781179
51
48.2004265
0
ARC
8
DEFAULT_255_1_234
10
10.9047163
20
0.1806983
40
0.2212521
50
48.5927837
51
74.1241538
0
ARC
8
DEFAULT_255_1_234
10
10.8713653
20
0.0706248
40
0.3362561
50
73.7888341
51
86.6652678
0
ARC
8
DEFAULT_255_1_234
10
10.8611218
20
-0.0501119
40
0.4573953
50
86.2640471
51
90.0526343
0
ARC
8
DEFAULT_255_1_234
10
10.8582931
20
-0.0105808
40
0.4178709
50
89.6697524
51
99.2309573
0
ARC
8
DEFAULT_255_1_234
10
10.8340382
20
0.1338964
40
0.2713749
50
99.069534
51
113.7658566
0
ARC
8
DEFAULT_255_1_234
10
10.8066573
20
0.1984677
40
0.2012469
50
114.0401004
51
127.9850673
0
ARC
8
DEFAULT_255_1_234
10
10.7826137
20
0.228073
40
0.1631167
50
127.7287463
51
176.7105154
0
ARC
8
DEFAULT_255_1_234
10
10.8504854
20
0.2179693
40
0.2315392
50
175.1779447
51
180.0581938
0
ARC
8
DEFAULT_255_1_234
10
10.7661701
20
0.2167428
40
0.1472271
50
179.6142195
51
228.1246017
0
ARC
8
DEFAULT_255_1_234
10
10.810337
20
0.2576308
40
0.2072299
50
226.5779593
51
230.8800004
0
ARC
8
DEFAULT_255_1_234
10
10.8574448
20
0.3201636
40
0.2854818
50
231.4635071
51
241.9260842
0
ARC
8
DEFAULT_255_1_234
10
10.9771626
20
0.54048
40
0.53622
50
241.7178533
51
248.3259551
0
ARC
8
DEFAULT_255_1_234
10
11.1156998
20
0.8837064
40
0.9063478
50
248.2007737
51
252.4528373
0
ARC
8
DEFAULT_255_1_234
10
11.2360723
20
1.2558441
40
1.2974635
50
252.3391078
51
254.3469452
0
ARC
8
DEFAULT_255_1_234
10
10.4818426
20
-1.4418852
40
1.5037162
50
71.0197183
51
74.4087047
0
ARC
8
DEFAULT_255_1_234
10
10.6513111
20
-0.9526889
40
0.9859993
50
66.1847285
51
71.086374
0
ARC
8
DEFAULT_255_1_234
10
10.8069423
20
-0.60228
40
0.6025855
50
59.3536294
51
66.2691831
0
ARC
8
DEFAULT_255_1_234
10
10.8958076
20
-0.4519391
40
0.4279449
50
49.1020879
51
59.3293958
0
ARC
8
DEFAULT_255_1_234
10
10.9776816
20
-0.3586166
40
0.3038015
50
32.7919921
51
49.2505539
0
ARC
8
DEFAULT_255_1_234
10
11.0097906
20
-0.3357809
40
0.264448
50
31.1181161
51
32.4005348
0
ARC
8
DEFAULT_255_1_234
10
11.0009443
20
-0.3393221
40
0.2738556
50
8.1116974
51
30.7958831
0
ARC
8
DEFAULT_255_1_234
10
10.9199111
20
-0.3531247
40
0.3560327
50
359.8389159
51
8.4706516
0
ARC
8
DEFAULT_255_1_234
10
10.9824903
20
-0.3579863
40
0.2934776
50
337.4731098
51
0.7537279
0
ARC
8
DEFAULT_255_1_234
10
11.0003598
20
-0.3599613
40
0.2762607
50
307.5917067
51
336.4315538
0
ARC
8
DEFAULT_255_1_234
10
10.9543426
20
-0.3086898
40
0.3449979
50
307.6551545
51
308.4529766
0
ARC
8
DEFAULT_255_1_234
10
10.9313145
20
-0.273175
40
0.3871988
50
284.3734338
51
307.1424381
0
ARC
8
DEFAULT_255_1_234
10
10.8817975
20
-0.0910068
40
0.5759636
50
272.4382747
51
284.646547
0
ARC
8
DEFAULT_255_1_234
10
10.8691184
20
0.0889893
40
0.7563528
50
269.9708387
51
272.8178037
0
ARC
8
DEFAULT_255_1_234
10
10.8648223
20
-0.1148284
40
0.5525489
50
248.2707594
51
270.4055579
0
ARC
8
DEFAULT_255_1_234
10
10.8593964
20
-0.1338808
40
0.5328452
50
246.1383403
51
248.0542782
0
ARC
8
DEFAULT_255_1_234
10
10.8175343
20
-0.2218157
40
0.4355005
50
233.1670131
51
246.4950969
0
ARC
8
DEFAULT_255_1_234
10
10.7621248
20
-0.2966188
40
0.3424126
50
215.3403242
51
233.0843104
0
ARC
8
DEFAULT_255_1_234
10
10.7348679
20
-0.3164451
40
0.3087104
50
179.2419209
51
215.2648451
0
ARC
8
DEFAULT_255_1_234
10
10.8116273
20
-0.3150334
40
0.2304457
50
179.335461
51
199.1045811
0
ARC
8
DEFAULT_255_1_234
10
10.778395
20
-0.3237234
40
0.1962176
50
199.8828939
51
232.7063202
0
ARC
8
DEFAULT_255_1_234
10
10.8256218
20
-0.2643212
40
0.2720938
50
232.3738199
51
255.5136649
0
ARC
8
DEFAULT_255_1_234
10
10.8597085
20
-0.1399165
40
0.4010747
50
255.2446292
51
267.5320849
0
ARC
8
DEFAULT_255_1_234
10
10.8684708
20
-0.0166298
40
0.5246356
50
267.1557994
51
270.0286766
0
ARC
8
DEFAULT_255_1_234
10
10.871248
20
-0.061005
40
0.4802668
50
269.7000017
51
278.1660162
0
ARC
8
DEFAULT_255_1_234
10
10.8968485
20
-0.2340485
40
0.3053425
50
278.0231263
51
290.625471
0
ARC
8
DEFAULT_255_1_234
10
10.9316172
20
-0.3267975
40
0.206291
50
290.6619762
51
307.0370976
0
ARC
8
DEFAULT_255_1_234
10
10.9616562
20
-0.3636496
40
0.1587906
50
306.3943566
51
355.3030547
0
ARC
8
DEFAULT_255_1_234
10
10.9104493
20
-0.3559887
40
0.2104809
50
354.3660432
51
0.0698737
0
ARC
8
DEFAULT_255_1_234
10
10.9246838
20
-0.3537383
40
0.1962563
50
359.417946
51
16.1971788
0
ARC
8
DEFAULT_255_1_234
10
10.9702149
20
-0.3412582
40
0.149053
50
16.4723299
51
52.6262157
0
ARC
8
DEFAULT_255_1_234
10
10.8881202
20
-0.4496567
40
0.2850296
50
52.7386432
51
62.4979148
0
ARC
8
DEFAULT_255_1_234
10
10.7496279
20
-0.7102717
40
0.5801521
50
62.2515216
51
68.1220564
0
ARC
8
DEFAULT_255_1_234
10
10.577619
20
-1.1330128
40
1.0365451
50
68.0062803
51
71.8053402
0
ARC
8
DEFAULT_255_1_234
10
10.3980562
20
-1.6715242
40
1.6042013
50
71.7183119
51
73.9258742
0
LINE
8
DEFAULT_255_1_234
10
11.9233006
20
0.5237433
11
11.9233006
21
-0.6513
0
LINE
8
DEFAULT_255_1_234
10
11.9233006
20
-0.6513
11
11.7739103
21
-0.6513
0
LINE
8
DEFAULT_255_1_234
10
11.7739103
20
-0.6513
11
11.7739103
21
0.3390133
0
LINE
8
DEFAULT_255_1_234
10
11.7739103
20
0.3390133
11
11.4743265
21
0.2289785
0
LINE
8
DEFAULT_255_1_234
10
11.4743265
20
0.2289785
11
11.4743265
21
0.3639117
0
LINE
8
DEFAULT_255_1_234
10
11.4743265
20
0.3639117
11
11.9000086
21
0.5237433
0
LINE
8
DEFAULT_255_1_234
10
11.9000086
20
0.5237433
11
11.9233006
21
0.5237433
0
LINE
8
DEFAULT_255_1_234
10
12.4646398
20
0.5181211
11
12.6493698
21
-0.2826432
0
LINE
8
DEFAULT_255_1_234
10
12.6493698
20
-0.2826432
11
12.6718586
21
-0.4368526
0
LINE
8
DEFAULT_255_1_234
10
12.6718586
20
-0.4368526
11
12.7047888
21
-0.2979035
0
LINE
8
DEFAULT_255_1_234
10
12.7047888
20
-0.2979035
11
12.9361028
21
0.5181211
0
LINE
8
DEFAULT_255_1_234
10
12.9361028
20
0.5181211
11
13.066217
21
0.5181211
0
LINE
8
DEFAULT_255_1_234
10
13.066217
20
0.5181211
11
13.2919088
21
-0.2979035
0
LINE
8
DEFAULT_255_1_234
10
13.2919088
20
-0.2979035
11
13.3240358
21
-0.4392621
0
LINE
8
DEFAULT_255_1_234
10
13.3240358
20
-0.4392621
11
13.3489342
21
-0.28184
0
LINE
8
DEFAULT_255_1_234
10
13.3489342
20
-0.28184
11
13.5304515
21
0.5181211
0
LINE
8
DEFAULT_255_1_234
10
13.5304515
20
0.5181211
11
13.685464
21
0.5181211
0
LINE
8
DEFAULT_255_1_234
10
13.685464
20
0.5181211
11
13.4019437
21
-0.6513
0
LINE
8
DEFAULT_255_1_234
10
13.4019437
20
-0.6513
11
13.2613882
21
-0.6513
0
LINE
8
DEFAULT_255_1_234
10
13.2613882
20
-0.6513
11
13.0204361
21
0.2008674
0
LINE
8
DEFAULT_255_1_234
10
13.0204361
20
0.2008674
11
13.0019631
21
0.2900197
0
LINE
8
DEFAULT_255_1_234
10
13.0019631
20
0.2900197
11
12.9834901
21
0.2008674
0
LINE
8
DEFAULT_255_1_234
10
12.9834901
20
0.2008674
11
12.733703
21
-0.6513
0
LINE
8
DEFAULT_255_1_234
10
12.733703
20
-0.6513
11
12.5931476
21
-0.6513
0
LINE
8
DEFAULT_255_1_234
10
12.5931476
20
-0.6513
11
12.3104304
21
0.5181211
0
LINE
8
DEFAULT_255_1_234
10
12.3104304
20
0.5181211
11
12.4646398
21
0.5181211
0
LINE
8
DEFAULT_255_1_234
10
14.0942795
20
-0.0938974
11
14.0942795
21
-0.2151766
0
LINE
8
DEFAULT_255_1_234
10
14.0942795
20
-0.2151766
11
13.7023307
21
-0.2151766
0
LINE
8
DEFAULT_255_1_234
10
13.7023307
20
-0.2151766
11
13.7023307
21
-0.0938974
0
LINE
8
DEFAULT_255_1_234
10
13.7023307
20
-0.0938974
11
14.0942795
21
-0.0938974
0
LINE
8
DEFAULT_255_1_234
10
14.6918408
20
-0.1934909
11
14.4163522
21
-0.1934909
0
LINE
8
DEFAULT_255_1_234
10
14.4163522
20
-0.1934909
11
14.4163522
21
-0.6513
0
LINE
8
DEFAULT_255_1_234
10
14.4163522
20
-0.6513
11
14.2621428
21
-0.6513
0
LINE
8
DEFAULT_255_1_234
10
14.2621428
20
-0.6513
11
14.2621428
21
0.5181211
0
LINE
8
DEFAULT_255_1_234
10
14.2621428
20
0.5181211
11
14.6934472
21
0.5181211
0
LINE
8
DEFAULT_255_1_234
10
14.4163522
20
0.3912196
11
14.4163522
21
-0.0673926
0
LINE
8
DEFAULT_255_1_234
10
14.4163522
20
-0.0673926
11
14.6934472
21
-0.0673926
0
LINE
8
DEFAULT_255_1_234
10
14.7022821
20
0.3912196
11
14.4163522
21
0.3912196
0
ARC
8
DEFAULT_255_1_234
10
14.6976599
20
-0.0877805
40
0.6059162
50
78.8378113
51
90.3983573
0
ARC
8
DEFAULT_255_1_234
10
14.7392612
20
0.1142879
40
0.3996205
50
58.9632738
51
79.0810598
0
ARC
8
DEFAULT_255_1_234
10
14.7694154
20
0.1702721
40
0.3361177
50
48.0197965
51
58.447194
0
ARC
8
DEFAULT_255_1_234
10
14.7783015
20
0.1788225
40
0.3238191
50
3.3375044
51
48.1766626
0
ARC
8
DEFAULT_255_1_234
10
14.6552855
20
0.1611171
40
0.4477806
50
359.9477528
51
4.6829065
0
ARC
8
DEFAULT_255_1_234
10
14.6676172
20
0.1568628
40
0.4354656
50
346.1877825
51
0.5060252
0
ARC
8
DEFAULT_255_1_234
10
14.8035039
20
0.1215731
40
0.295089
50
310.8831995
51
346.5426355
0
ARC
8
DEFAULT_255_1_234
10
14.7726459
20
0.1632695
40
0.3468331
50
286.6925341
51
310.2288297
0
ARC
8
DEFAULT_255_1_234
10
14.715729
20
0.3422882
40
0.5346654
50
274.6850312
51
287.0245141
0
ARC
8
DEFAULT_255_1_234
10
14.6932013
20
0.5631932
40
0.7566852
50
269.8969846
51
275.018904
0
ARC
8
DEFAULT_255_1_234
10
14.6959604
20
0.3552707
40
0.4226708
50
269.6593078
51
279.4153575
0
ARC
8
DEFAULT_255_1_234
10
14.721688
20
0.2062133
40
0.2714146
50
279.2049762
51
294.9900808
0
ARC
8
DEFAULT_255_1_234
10
14.7507205
20
0.1414508
40
0.2004525
50
295.2888114
51
311.2911209
0
ARC
8
DEFAULT_255_1_234
10
14.75781
20
0.130922
40
0.1878703
50
311.7854996
51
347.2861051
0
ARC
8
DEFAULT_255_1_234
10
14.6594258
20
0.1562092
40
0.2894234
50
346.6893224
51
0.1059443
0
ARC
8
DEFAULT_255_1_234
10
14.5839153
20
0.1590685
40
0.3649409
50
359.6350983
51
0.0053152
0
ARC
8
DEFAULT_255_1_234
10
14.6809482
20
0.1615937
40
0.2679199
50
359.4672059
51
15.5933957
0
ARC
8
DEFAULT_255_1_234
10
14.743437
20
0.1784779
40
0.2031932
50
15.7442113
51
46.6203375
0
ARC
8
DEFAULT_255_1_234
10
14.7286591
20
0.1614484
40
0.2257226
50
46.8628658
51
75.6676503
0
ARC
8
DEFAULT_255_1_234
10
14.6992412
20
0.0555718
40
0.3355939
50
75.276167
51
88.2915297
0
ARC
8
DEFAULT_255_1_234
10
14.6934118
20
-0.0322476
40
0.4235602
50
87.8575022
51
88.8000139
0
LINE
8
DEFAULT_255_1_234
10
15.7295414
20
-0.1934909
11
15.4540528
21
-0.1934909
0
LINE
8
DEFAULT_255_1_234
10
15.4540528
20
-0.1934909
11
15.4540528
21
-0.6513
0
LINE
8
DEFAULT_255_1_234
10
15.4540528
20
-0.6513
11
15.2998434
21
-0.6513
0
LINE
8
DEFAULT_255_1_234
10
15.2998434
20
-0.6513
11
15.2998434
21
0.5181211
0
LINE
8
DEFAULT_255_1_234
10
15.2998434
20
0.5181211
11
15.7311478
21
0.5181211
0
LINE
8
DEFAULT_255_1_234
10
15.4540528
20
0.3912196
11
15.4540528
21
-0.0673926
0
LINE
8
DEFAULT_255_1_234
10
15.4540528
20
-0.0673926
11
15.7311478
21
-0.0673926
0
LINE
8
DEFAULT_255_1_234
10
15.7399827
20
0.3912196
11
15.4540528
21
0.3912196
0
ARC
8
DEFAULT_255_1_234
10
15.7353604
20
-0.0877805
40
0.6059162
50
78.8378113
51
90.3983573
0
ARC
8
DEFAULT_255_1_234
10
15.7769618
20
0.1142879
40
0.3996205
50
58.9632738
51
79.0810598
0
ARC
8
DEFAULT_255_1_234
10
15.807116
20
0.1702721
40
0.3361177
50
48.0197965
51
58.447194
0
ARC
8
DEFAULT_255_1_234
10
15.8160021
20
0.1788225
40
0.3238191
50
3.3375044
51
48.1766626
0
ARC
8
DEFAULT_255_1_234
10
15.6929861
20
0.1611171
40
0.4477806
50
359.9477528
51
4.6829065
0
ARC
8
DEFAULT_255_1_234
10
15.7053178
20
0.1568628
40
0.4354656
50
346.1877825
51
0.5060252
0
ARC
8
DEFAULT_255_1_234
10
15.8412045
20
0.1215731
40
0.295089
50
310.8831995
51
346.5426355
0
ARC
8
DEFAULT_255_1_234
10
15.8103465
20
0.1632695
40
0.3468331
50
286.6925341
51
310.2288297
0
ARC
8
DEFAULT_255_1_234
10
15.7534296
20
0.3422882
40
0.5346654
50
274.6850312
51
287.0245141
0
ARC
8
DEFAULT_255_1_234
10
15.7309019
20
0.5631932
40
0.7566852
50
269.8969846
51
275.018904
0
ARC
8
DEFAULT_255_1_234
10
15.733661
20
0.3552707
40
0.4226708
50
269.6593078
51
279.4153575
0
ARC
8
DEFAULT_255_1_234
10
15.7593886
20
0.2062133
40
0.2714146
50
279.2049762
51
294.9900808
0
ARC
8
DEFAULT_255_1_234
10
15.7884211
20
0.1414508
40
0.2004525
50
295.2888114
51
311.2911209
0
ARC
8
DEFAULT_255_1_234
10
15.7955106
20
0.130922
40
0.1878703
50
311.7854996
51
347.2861051
0
ARC
8
DEFAULT_255_1_234
10
15.6971264
20
0.1562092
40
0.2894234
50
346.6893224
51
0.1059443
0
ARC
8
DEFAULT_255_1_234
10
15.6216159
20
0.1590685
40
0.3649409
50
359.6350983
51
0.0053152
0
ARC
8
DEFAULT_255_1_234
10
15.7186488
20
0.1615937
40
0.2679199
50
359.4672059
51
15.5933957
0
ARC
8
DEFAULT_255_1_234
10
15.7811376
20
0.1784779
40
0.2031932
50
15.7442113
51
46.6203375
0
ARC
8
DEFAULT_255_1_234
10
15.7663597
20
0.1614484
40
0.2257226
50
46.8628658
51
75.6676503
0
ARC
8
DEFAULT_255_1_234
10
15.7369418
20
0.0555718
40
0.3355939
50
75.276167
51
88.2915297
0
ARC
8
DEFAULT_255_1_234
10
15.7311124
20
-0.0322476
40
0.4235602
50
87.8575022
51
88.8000139
0
LINE
8
DEFAULT_255_1_234
10
17.1134099
20
0.1799849
11
16.9583974
21
0.1799849
0
LINE
8
DEFAULT_255_1_234
10
16.2660615
20
-0.3123606
11
16.4210741
21
-0.3123606
0
ARC
8
DEFAULT_255_1_234
10
17.0242787
20
1.0746768
40
1.252368
50
248.9199003
51
254.1439814
0
ARC
8
DEFAULT_255_1_234
10
16.8562281
20
0.6420234
40
0.788226
50
241.633709
51
249.0064503
0
ARC
8
DEFAULT_255_1_234
10
16.7033676
20
0.3619317
40
0.4691427
50
230.498225
51
241.8087113
0
ARC
8
DEFAULT_255_1_234
10
16.624925
20
0.2619906
40
0.3421437
50
227.4064532
51
229.9881192
0
ARC
8
DEFAULT_255_1_234
10
16.5761771
20
0.2144088
40
0.2741476
50
200.6781896
51
228.1763934
0
ARC
8
DEFAULT_255_1_234
10
16.5834081
20
0.2129077
40
0.2804109
50
179.5061581
51
199.8694617
0
ARC
8
DEFAULT_255_1_234
10
16.5824833
20
0.220321
40
0.2795204
50
132.4834203
51
181.0242172
0
ARC
8
DEFAULT_255_1_234
10
16.6420415
20
0.1640704
40
0.3612768
50
129.2532479
51
133.4242687
0
ARC
8
DEFAULT_255_1_234
10
16.6566865
20
0.1420965
40
0.3875675
50
101.98776
51
128.8742646
0
ARC
8
DEFAULT_255_1_234
10
16.6965475
20
-0.0300259
40
0.5642249
50
89.5906553
51
102.3169264
0
ARC
8
DEFAULT_255_1_234
10
16.7035968
20
0.0018148
40
0.5323783
50
77.2360837
51
90.3248275
0
ARC
8
DEFAULT_255_1_234
10
16.7243047
20
0.09854
40
0.4334697
50
63.837784
51
77.0809408
0
ARC
8
DEFAULT_255_1_234
10
16.7520808
20
0.1502911
40
0.3747796
50
45.9864267
51
64.1607727
0
ARC
8
DEFAULT_255_1_234
10
16.778169
20
0.1800866
40
0.3352302
50
32.2747395
51
45.6547121
0
ARC
8
DEFAULT_255_1_234
10
16.784813
20
0.181988
40
0.328603
50
359.6507365
51
32.6130309
0
ARC
8
DEFAULT_255_1_234
10
16.6905226
20
0.182466
40
0.2678863
50
359.469343
51
14.9832209
0
ARC
8
DEFAULT_255_1_234
10
16.7610288
20
0.2013539
40
0.1948938
50
14.9781179
51
48.2004265
0
ARC
8
DEFAULT_255_1_234
10
16.7445932
20
0.1806983
40
0.2212521
50
48.5927837
51
74.1241538
0
ARC
8
DEFAULT_255_1_234
10
16.7112422
20
0.0706248
40
0.3362561
50
73.7888341
51
86.6652678
0
ARC
8
DEFAULT_255_1_234
10
16.7009987
20
-0.0501119
40
0.4573953
50
86.2640471
51
90.0526343
0
ARC
8
DEFAULT_255_1_234
10
16.69817
20
-0.0105808
40
0.4178709
50
89.6697524
51
99.2309573
0
ARC
8
DEFAULT_255_1_234
10
16.6739151
20
0.1338964
40
0.2713749
50
99.069534
51
113.7658566
0
ARC
8
DEFAULT_255_1_234
10
16.6465342
20
0.1984677
40
0.2012469
50
114.0401004
51
127.9850673
0
ARC
8
DEFAULT_255_1_234
10
16.6224906
20
0.228073
40
0.1631167
50
127.7287463
51
176.7105154
0
ARC
8
DEFAULT_255_1_234
10
16.6903623
20
0.2179693
40
0.2315392
50
175.1779447
51
180.0581938
0
ARC
8
DEFAULT_255_1_234
10
16.606047
20
0.2167428
40
0.1472271
50
179.6142195
51
228.1246017
0
ARC
8
DEFAULT_255_1_234
10
16.6502139
20
0.2576308
40
0.2072299
50
226.5779593
51
230.8800004
0
ARC
8
DEFAULT_255_1_234
10
16.6973217
20
0.3201636
40
0.2854818
50
231.4635071
51
241.9260842
0
ARC
8
DEFAULT_255_1_234
10
16.8170396
20
0.54048
40
0.53622
50
241.7178533
51
248.3259551
0
ARC
8
DEFAULT_255_1_234
10
16.9555767
20
0.8837064
40
0.9063478
50
248.2007737
51
252.4528373
0
ARC
8
DEFAULT_255_1_234
10
17.0759492
20
1.2558441
40
1.2974635
50
252.3391078
51
254.3469452
0
ARC
8
DEFAULT_255_1_234
10
16.3217195
20
-1.4418852
40
1.5037162
50
71.0197183
51
74.4087047
0
ARC
8
DEFAULT_255_1_234
10
16.491188
20
-0.9526889
40
0.9859993
50
66.1847285
51
71.086374
0
ARC
8
DEFAULT_255_1_234
10
16.6468192
20
-0.60228
40
0.6025855
50
59.3536294
51
66.2691831
0
ARC
8
DEFAULT_255_1_234
10
16.7356845
20
-0.4519391
40
0.4279449
50
49.1020879
51
59.3293958
0
ARC
8
DEFAULT_255_1_234
10
16.8175585
20
-0.3586166
40
0.3038015
50
32.7919921
51
49.2505539
0
ARC
8
DEFAULT_255_1_234
10
16.8496675
20
-0.3357809
40
0.264448
50
31.1181161
51
32.4005348
0
ARC
8
DEFAULT_255_1_234
10
16.8408212
20
-0.3393221
40
0.2738556
50
8.1116974
51
30.7958831
0
ARC
8
DEFAULT_255_1_234
10
16.759788
20
-0.3531247
40
0.3560327
50
359.8389159
51
8.4706516
0
ARC
8
DEFAULT_255_1_234
10
16.8223672
20
-0.3579863
40
0.2934776
50
337.4731098
51
0.7537279
0
ARC
8
DEFAULT_255_1_234
10
16.8402367
20
-0.3599613
40
0.2762607
50
307.5917067
51
336.4315538
0
ARC
8
DEFAULT_255_1_234
10
16.7942195
20
-0.3086898
40
0.3449979
50
307.6551545
51
308.4529766
0
ARC
8
DEFAULT_255_1_234
10
16.7711914
20
-0.273175
40
0.3871988
50
284.3734338
51
307.1424381
0
ARC
8
DEFAULT_255_1_234
10
16.7216744
20
-0.0910068
40
0.5759636
50
272.4382747
51
284.646547
0
ARC
8
DEFAULT_255_1_234
10
16.7089953
20
0.0889893
40
0.7563528
50
269.9708387
51
272.8178037
0
ARC
8
DEFAULT_255_1_234
10
16.7046992
20
-0.1148284
40
0.5525489
50
248.2707594
51
270.4055579
0
ARC
8
DEFAULT_255_1_234
10
16.6992733
20
-0.1338808
40
0.5328452
50
246.1383403
51
248.0542782
0
ARC
8
DEFAULT_255_1_234
10
16.6574112
20
-0.2218157
40
0.4355005
50
233.1670131
51
246.4950969
0
ARC
8
DEFAULT_255_1_234
10
16.6020017
20
-0.2966188
40
0.3424126
50
215.3403242
51
233.0843104
0
ARC
8
DEFAULT_255_1_234
10
16.5747449
20
-0.3164451
40
0.3087104
50
179.2419209
51
215.2648451
0
ARC
8
DEFAULT_255_1_234
10
16.6515042
20
-0.3150334
40
0.2304457
50
179.335461
51
199.1045811
0
ARC
8
DEFAULT_255_1_234
10
16.6182719
20
-0.3237234
40
0.1962176
50
199.8828939
51
232.7063202
0
ARC
8
DEFAULT_255_1_234
10
16.6654987
20
-0.2643212
40
0.2720938
50
232.3738199
51
255.5136649
0
ARC
8
DEFAULT_255_1_234
10
16.6995854
20
-0.1399165
40
0.4010747
50
255.2446292
51
267.5320849
0
ARC
8
DEFAULT_255_1_234
10
16.7083477
20
-0.0166298
40
0.5246356
50
267.1557994
51
270.0286766
0
ARC
8
DEFAULT_255_1_234
10
16.7111249
20
-0.061005
40
0.4802668
50
269.7000017
51
278.1660162
0
ARC
8
DEFAULT_255_1_234
10
16.7367254
20
-0.2340485
40
0.3053425
50
278.0231263
51
290.625471
0
ARC
8
DEFAULT_255_1_234
10
16.7714941
20
-0.3267975
40
0.206291
50
290.6619762
51
307.0370976
0
ARC
8
DEFAULT_255_1_234
10
16.8015331
20
-0.3636496
40
0.1587906
50
306.3943566
51
355.3030547
0
ARC
8
DEFAULT_255_1_234
10
16.7503262
20
-0.3559887
40
0.2104809
50
354.3660432
51
0.0698737
0
ARC
8
DEFAULT_255_1_234
10
16.7645607
20
-0.3537383
40
0.1962563
50
359.417946
51
16.1971788
0
ARC
8
DEFAULT_255_1_234
10
16.8100918
20
-0.3412582
40
0.149053
50
16.4723299
51
52.6262157
0
ARC
8
DEFAULT_255_1_234
10
16.7279972
20
-0.4496567
40
0.2850296
50
52.7386432
51
62.4979148
0
ARC
8
DEFAULT_255_1_234
10
16.5895048
20
-0.7102717
40
0.5801521
50
62.2515216
51
68.1220564
0
ARC
8
DEFAULT_255_1_234
10
16.4174959
20
-1.1330128
40
1.0365451
50
68.0062803
51
71.8053402
0
ARC
8
DEFAULT_255_1_234
10
16.2379331
20
-1.6715242
40
1.6042013
50
71.7183119
51
73.9258742
0
LINE
8
DEFAULT_255_1_234
10
18.0081456
20
0.0402327
11
18.0081456
21
-0.1525291
0
LINE
8
DEFAULT_255_1_234
10
17.2700288
20
-0.1726084
11
17.2700288
21
0.0257755
0
LINE
8
DEFAULT_255_1_234
10
17.8595584
20
-0.1926877
11
17.8595584
21
0.0506739
0
LINE
8
DEFAULT_255_1_234
10
17.418616
20
0.0619184
11
17.418616
21
-0.1758211
0
ARC
8
DEFAULT_255_1_234
10
16.7834345
20
-0.1574195
40
1.2247208
50
353.8441951
51
0.2287902
0
ARC
8
DEFAULT_255_1_234
10
17.2473849
20
-0.2092194
40
0.7578929
50
344.4934747
51
353.9765454
0
ARC
8
DEFAULT_255_1_234
10
17.5466439
20
-0.2943019
40
0.4467846
50
329.2803592
51
344.7472793
0
ARC
8
DEFAULT_255_1_234
10
17.6459264
20
-0.3487982
40
0.3336173
50
324.9352394
51
328.6160465
0
ARC
8
DEFAULT_255_1_234
10
17.6836373
20
-0.3751573
40
0.2876076
50
280.580143
51
324.9173126
0
ARC
8
DEFAULT_255_1_234
10
17.6435165
20
-0.2080901
40
0.4592847
50
269.5977311
51
281.6734359
0
ARC
8
DEFAULT_255_1_234
10
17.6363071
20
-0.2200827
40
0.4472986
50
256.6228859
51
270.51044
0
ARC
8
DEFAULT_255_1_234
10
17.5961049
20
-0.3749123
40
0.2873874
50
215.8618325
51
257.2788573
0
ARC
8
DEFAULT_255_1_234
10
17.698208
20
-0.3064023
40
0.4102928
50
197.9693508
51
215.2623606
0
ARC
8
DEFAULT_255_1_234
10
17.9467196
20
-0.2225291
40
0.6725652
50
187.8816417
51
198.2346507
0
ARC
8
DEFAULT_255_1_234
10
18.3425404
20
-0.1653921
40
1.0724845
50
180.8976217
51
188.0055519
0
ARC
8
DEFAULT_255_1_234
10
18.6225592
20
-0.1550223
40
1.3526448
50
180.7449369
51
181.1510016
0
ARC
8
DEFAULT_255_1_234
10
18.4648321
20
0.0306042
40
1.1948131
50
173.7675579
51
180.231553
0
ARC
8
DEFAULT_255_1_234
10
18.0130468
20
0.0816666
40
0.7401564
50
164.3058563
51
173.9002247
0
ARC
8
DEFAULT_255_1_234
10
17.7218537
20
0.1655656
40
0.4371288
50
148.7922025
51
164.568378
0
ARC
8
DEFAULT_255_1_234
10
17.6266989
20
0.2186929
40
0.3282386
50
144.5883898
51
148.1176286
0
ARC
8
DEFAULT_255_1_234
10
17.5923887
20
0.2426315
40
0.2864044
50
101.6440918
51
144.514236
0
ARC
8
DEFAULT_255_1_234
10
17.6348954
20
0.0737069
40
0.4604934
50
89.5284041
51
102.5819763
0
ARC
8
DEFAULT_255_1_234
10
17.6428041
20
0.0698018
40
0.464401
50
77.0437873
51
90.5081339
0
ARC
8
DEFAULT_255_1_234
10
17.6830043
20
0.2340615
40
0.2953195
50
48.2778575
51
77.4994676
0
ARC
8
DEFAULT_255_1_234
10
17.6902674
20
0.2469746
40
0.2808655
50
36.3142134
51
47.6305865
0
ARC
8
DEFAULT_255_1_234
10
17.6033981
20
0.1884515
40
0.3855453
50
18.2931786
51
35.6769206
0
ARC
8
DEFAULT_255_1_234
10
17.349074
20
0.1011593
40
0.654423
50
8.024666
51
18.5605216
0
ARC
8
DEFAULT_255_1_234
10
16.932766
20
0.0396792
40
1.0752407
50
1.1274072
51
8.1718305
0
ARC
8
DEFAULT_255_1_234
10
16.6091851
20
0.0269885
40
1.3990231
50
0.5424119
51
1.3863029
0
ARC
8
DEFAULT_255_1_234
10
16.7913229
20
0.0542342
40
1.0682415
50
359.8090433
51
4.9407866
0
ARC
8
DEFAULT_255_1_234
10
17.2123243
20
0.0918113
40
0.6455691
50
4.8362157
51
12.2904523
0
ARC
8
DEFAULT_255_1_234
10
17.4878357
20
0.1531965
40
0.3633074
50
12.0805627
51
23.8173984
0
ARC
8
DEFAULT_255_1_234
10
17.6052063
20
0.2028919
40
0.2358723
50
24.2871213
51
31.3935614
0
ARC
8
DEFAULT_255_1_234
10
17.657676
20
0.2372233
40
0.1732111
50
30.7407893
51
82.4657128
0
ARC
8
DEFAULT_255_1_234
10
17.6396894
20
0.1488691
40
0.263235
50
81.1060089
51
90.2184952
0
ARC
8
DEFAULT_255_1_234
10
17.6361193
20
0.1746924
40
0.2374236
50
89.3806855
51
105.6762551
0
ARC
8
DEFAULT_255_1_234
10
17.6177824
20
0.2413567
40
0.1682847
50
105.7981136
51
149.7388061
0
ARC
8
DEFAULT_255_1_234
10
17.7241902
20
0.177395
40
0.2924306
50
149.4208916
51
163.6286378
0
ARC
8
DEFAULT_255_1_234
10
17.933279
20
0.113625
40
0.5110213
50
163.3763315
51
172.1410975
0
ARC
8
DEFAULT_255_1_234
10
18.2633509
20
0.0663518
40
0.8444586
50
172.0259487
51
178.0703232
0
ARC
8
DEFAULT_255_1_234
10
18.5663599
20
0.0519906
40
1.1477868
50
177.8631668
51
179.5044149
0
ARC
8
DEFAULT_255_1_234
10
18.4591003
20
-0.1794611
40
1.0404907
50
179.7995573
51
185.2460446
0
ARC
8
DEFAULT_255_1_234
10
18.0548042
20
-0.2177487
40
0.6343885
50
185.1411642
51
193.0079639
0
ARC
8
DEFAULT_255_1_234
10
17.7904515
20
-0.2802359
40
0.3627568
50
192.7897626
51
205.2507664
0
ARC
8
DEFAULT_255_1_234
10
17.6858062
20
-0.3269585
40
0.2481908
50
205.8005384
51
211.2537509
0
ARC
8
DEFAULT_255_1_234
10
17.6334502
20
-0.362042
40
0.1852521
50
210.3789793
51
238.4008143
0
ARC
8
DEFAULT_255_1_234
10
17.6315024
20
-0.3573624
40
0.1882621
50
239.6520629
51
265.9793761
0
ARC
8
DEFAULT_255_1_234
10
17.6400225
20
-0.2901573
40
0.2559272
50
265.1315437
51
270.060332
0
ARC
8
DEFAULT_255_1_234
10
17.6429003
20
-0.3225466
40
0.2235528
50
269.3314664
51
287.2178029
0
ARC
8
DEFAULT_255_1_234
10
17.6566855
20
-0.3728721
40
0.1714108
50
287.7958004
51
329.080874
0
ARC
8
DEFAULT_255_1_234
10
17.5609312
20
-0.313107
40
0.2842745
50
328.6634704
51
343.3325132
0
ARC
8
DEFAULT_255_1_234
10
17.3436332
20
-0.2454137
40
0.5118644
50
343.0499468
51
351.9393422
0
ARC
8
DEFAULT_255_1_234
10
16.9969632
20
-0.1943051
40
0.8622784
50
351.8069023
51
357.7959224
0
ARC
8
DEFAULT_255_1_234
10
16.6734188
20
-0.1775279
40
1.1862365
50
357.5871873
51
359.2677531
0
LINE
8
DEFAULT_255_1_234
10
18.6868274
20
0.5237433
11
18.6868274
21
-0.6513
0
LINE
8
DEFAULT_255_1_234
10
18.6868274
20
-0.6513
11
18.5374371
21
-0.6513
0
LINE
8
DEFAULT_255_1_234
10
18.5374371
20
-0.6513
11
18.5374371
21
0.3390133
0
LINE
8
DEFAULT_255_1_234
10
18.5374371
20
0.3390133
11
18.2378533
21
0.2289785
0
LINE
8
DEFAULT_255_1_234
10
18.2378533
20
0.2289785
11
18.2378533
21
0.3639117
0
LINE
8
DEFAULT_255_1_234
10
18.2378533
20
0.3639117
11
18.6635354
21
0.5237433
0
LINE
8
DEFAULT_255_1_234
10
18.6635354
20
0.5237433
11
18.6868274
21
0.5237433
0
ARC
8
DEFAULT_255_2_778
10
15.2718323
20
74.361689
40
0.3782009
50
0.4397807
51
91.3045231
0
ARC
8
DEFAULT_255_2_778
10
15.2696879
20
74.3594064
40
0.3803695
50
269.0259909
51
0.7811192
0
ARC
8
DEFAULT_255_2_778
10
15.4288293
20
74.3469643
40
0.7639615
50
290.7362057
51
357.8000295
0
ARC
8
DEFAULT_255_2_778
10
15.3436031
20
74.3645235
40
0.8499188
50
356.8376875
51
0.0046095
0
ARC
8
DEFAULT_255_2_778
10
15.3422443
20
74.3645748
40
0.8512778
50
0.0011515
51
85.3589632
0
ARC
8
DEFAULT_255_2_778
10
15.3422371
20
74.3455092
40
0.8702827
50
85.4600549
51
90.0075769
0
ARC
8
DEFAULT_255_2_778
10
20.173385
20
74.3552426
40
0.3845507
50
1.3931151
51
90.158378
0
ARC
8
DEFAULT_255_2_778
10
20.2329096
20
74.3488635
40
0.8684198
50
359.7643557
51
42.1181505
0
ARC
8
DEFAULT_255_2_778
10
20.2353156
20
74.3492931
40
0.866348
50
42.2037872
51
87.9292218
0
ARC
8
DEFAULT_255_2_778
10
20.2305626
20
74.3080097
40
0.9077821
50
87.7235759
51
90.0025578
0
ARC
8
DEFAULT_255_2_778
10
12.9264947
20
74.3621344
40
0.3777354
50
0.3727528
51
91.1638813
0
ARC
8
DEFAULT_255_2_778
10
12.9805692
20
74.3488595
40
0.8684602
50
359.7646302
51
42.1161032
0
ARC
8
DEFAULT_255_2_778
10
12.9830774
20
74.3494127
40
0.8662296
50
42.2002176
51
87.9268901
0
ARC
8
DEFAULT_255_2_778
10
12.9783626
20
74.3083749
40
0.9074169
50
87.7231194
51
90.002558
0
ARC
8
DEFAULT_255_2_778
10
17.559042
20
73.9570858
40
1.2841942
50
233.3100129
51
270.0348017
0
ARC
8
DEFAULT_255_2_778
10
17.5711133
20
73.9774622
40
1.3077482
50
187.7860459
51
233.4193197
0
ARC
8
DEFAULT_255_2_778
10
17.5893588
20
73.9790185
40
1.3260368
50
179.9838663
51
187.7458681
0
ARC
8
DEFAULT_255_2_778
10
17.5478523
20
73.9796375
40
1.2845303
50
143.7084173
51
180.0109545
0
ARC
8
DEFAULT_255_2_778
10
17.5629238
20
73.9745899
40
1.2996747
50
94.9692901
51
143.9223324
0
ARC
8
DEFAULT_255_2_778
10
17.5597032
20
73.9752347
40
1.2987573
50
89.9947559
51
94.8302073
0
ARC
8
DEFAULT_255_2_778
10
17.5619339
20
73.9694304
40
1.3045632
50
58.1407344
51
90.0927508
0
ARC
8
DEFAULT_255_2_778
10
17.5700831
20
73.9750662
40
1.2954809
50
3.5056409
51
58.315291
0
ARC
8
DEFAULT_255_2_778
10
17.5711163
20
73.9791563
40
1.2942058
50
359.9971467
51
3.3277024
0
ARC
8
DEFAULT_255_2_778
10
17.3826088
20
73.9770483
40
1.4827147
50
0.006083
51
0.0789681
0
ARC
8
DEFAULT_255_2_778
10
17.5604187
20
73.9772022
40
1.3049047
50
315.0308293
51
0.0001529
0
ARC
8
DEFAULT_255_2_778
10
17.5609377
20
73.9769521
40
1.3043608
50
270.000667
51
315.0224921
0
LINE
8
DEFAULT_255_2_778
10
17.5609529
20
72.6725914
11
17.5598221
21
72.6725919
0
ARC
8
DEFAULT_255_2_778
10
17.5640812
20
73.9754112
40
0.7580313
50
269.6780691
51
315.5292436
0
ARC
8
DEFAULT_255_2_778
10
17.5610107
20
73.9746878
40
0.7597205
50
315.7303962
51
0.2857903
0
ARC
8
DEFAULT_255_2_778
10
17.8487376
20
73.9789382
40
0.4719845
50
359.944048
51
0.0186519
0
ARC
8
DEFAULT_255_2_778
10
17.5687772
20
73.9779605
40
0.7519457
50
0.086204
51
85.4319233
0
ARC
8
DEFAULT_255_2_778
10
17.5599609
20
73.9355338
40
0.7949581
50
85.0420495
51
90.0100075
0
ARC
8
DEFAULT_255_2_778
10
17.5579396
20
73.9922519
40
0.7382424
50
89.8538973
51
89.9999976
0
ARC
8
DEFAULT_255_2_778
10
17.558077
20
73.9793044
40
0.7511899
50
90.01048
51
134.9443097
0
ARC
8
DEFAULT_255_2_778
10
17.5582947
20
73.9791222
40
0.7514726
50
134.9462486
51
180.0023145
0
ARC
8
DEFAULT_255_2_778
10
17.5708624
20
73.9751875
40
0.7640503
50
179.7072119
51
222.5790813
0
ARC
8
DEFAULT_255_2_778
10
17.5579296
20
73.9641475
40
0.7470579
50
222.6267201
51
270.1451401
0
ARC
8
DEFAULT_255_2_778
10
9.564442
20
73.9570858
40
1.2841942
50
233.3100129
51
270.0348017
0
ARC
8
DEFAULT_255_2_778
10
9.5765133
20
73.9774622
40
1.3077482
50
187.7860459
51
233.4193197
0
ARC
8
DEFAULT_255_2_778
10
9.5947588
20
73.9790185
40
1.3260368
50
179.9838663
51
187.7458681
0
ARC
8
DEFAULT_255_2_778
10
9.5535129
20
73.9794961
40
1.2847909
50
143.1940819
51
180.0046489
0
ARC
8
DEFAULT_255_2_778
10
9.5683078
20
73.9748006
40
1.2994598
50
94.9233187
51
143.4191345
0
ARC
8
DEFAULT_255_2_778
10
9.5651008
20
73.975512
40
1.2984798
50
89.9946509
51
94.7850278
0
ARC
8
DEFAULT_255_2_778
10
9.5673902
20
73.9693441
40
1.3046496
50
58.1428905
51
90.0952196
0
ARC
8
DEFAULT_255_2_778
10
9.5758177
20
73.9754453
40
1.2950254
50
3.2656058
51
58.3171105
0
ARC
8
DEFAULT_255_2_778
10
9.5763693
20
73.9794485
40
1.2942527
50
359.997494
51
3.0900664
0
ARC
8
DEFAULT_255_2_778
10
9.5936718
20
73.9772448
40
1.276952
50
359.9949307
51
0.0963391
0
ARC
8
DEFAULT_255_2_778
10
9.5663093
20
73.9772585
40
1.3043147
50
315.0200668
51
359.994431
0
ARC
8
DEFAULT_255_2_778
10
9.5663338
20
73.97702
40
1.3041287
50
270.0008363
51
315.026719
0
LINE
8
DEFAULT_255_2_778
10
9.5663529
20
72.6728914
11
9.5652221
21
72.6728919
0
ARC
8
DEFAULT_255_2_778
10
9.5694412
20
73.9754135
40
0.7580334
50
269.6810953
51
315.6152252
0
ARC
8
DEFAULT_255_2_778
10
9.5663839
20
73.9747381
40
0.7597504
50
315.8129036
51
0.3254485
0
ARC
8
DEFAULT_255_2_778
10
9.5738176
20
73.9776565
40
0.7523058
50
0.1093155
51
85.7820321
0
ARC
8
DEFAULT_255_2_778
10
9.5653381
20
73.9361263
40
0.7943655
50
85.3923987
51
90.0083732
0
ARC
8
DEFAULT_255_2_778
10
9.5633385
20
73.9913348
40
0.7391595
50
89.8539942
51
89.9999859
0
ARC
8
DEFAULT_255_2_778
10
9.563405
20
73.9794783
40
0.7510159
50
90.0050654
51
134.9497993
0
ARC
8
DEFAULT_255_2_778
10
9.5632746
20
73.9792963
40
0.7510526
50
134.9329452
51
180.0155944
0
ARC
8
DEFAULT_255_2_778
10
9.5762945
20
73.9751612
40
0.7640826
50
179.7052536
51
222.5741919
0
ARC
8
DEFAULT_255_2_778
10
9.5632805
20
73.9641163
40
0.7470269
50
222.6256588
51
270.1489141
0
LINE
8
DEFAULT_255_2_778
10
14.0768221
20
75.1951919
11
14.0768221
21
72.7323919
0
LINE
8
DEFAULT_255_2_778
10
14.0768221
20
72.7323919
11
14.6203221
21
72.7323919
0
LINE
8
DEFAULT_255_2_778
10
14.6203221
20
72.7323919
11
14.6203221
21
74.7397919
0
LINE
8
DEFAULT_255_2_778
10
14.6203221
20
74.7397919
11
15.2632221
21
74.7397919
0
LINE
8
DEFAULT_255_2_778
10
15.2632221
20
73.9790919
11
14.7986221
21
73.9790919
0
LINE
8
DEFAULT_255_2_778
10
14.7986221
20
73.9790919
11
15.6397221
21
72.7320919
0
LINE
8
DEFAULT_255_2_778
10
15.6397221
20
72.7320919
11
16.3126221
21
72.7320919
0
LINE
8
DEFAULT_255_2_778
10
16.3126221
20
72.7320919
11
15.6993221
21
73.6324919
0
LINE
8
DEFAULT_255_2_778
10
15.3421221
20
75.2157919
11
14.6200221
21
75.2157919
0
LINE
8
DEFAULT_255_2_778
10
14.6200221
20
75.2157919
11
14.0766221
21
75.1951919
0
LINE
8
DEFAULT_255_2_778
10
14.0766221
20
75.1951919
11
14.0768221
21
75.1951919
0
LINE
8
DEFAULT_255_2_778
10
19.0142221
20
75.1951919
11
19.0142221
21
72.7323919
0
LINE
8
DEFAULT_255_2_778
10
19.0142221
20
72.7323919
11
19.5577221
21
72.7323919
0
LINE
8
DEFAULT_255_2_778
10
19.5577221
20
72.7323919
11
19.5577221
21
74.7397919
0
LINE
8
DEFAULT_255_2_778
10
19.5577221
20
74.7397919
11
20.1723221
21
74.7397919
0
LINE
8
DEFAULT_255_2_778
10
20.5578221
20
74.3645919
11
20.5578221
21
72.7323919
0
LINE
8
DEFAULT_255_2_778
10
20.5578221
20
72.7323919
11
21.1013221
21
72.7323919
0
LINE
8
DEFAULT_255_2_778
10
21.1013221
20
72.7323919
11
21.1013221
21
74.3452919
0
LINE
8
DEFAULT_255_2_778
10
20.2305221
20
75.2157919
11
19.5577221
21
75.2157919
0
LINE
8
DEFAULT_255_2_778
10
19.5577221
20
75.2157919
11
19.0142221
21
75.1951919
0
LINE
8
DEFAULT_255_2_778
10
19.0142221
20
75.1951919
11
19.0142221
21
75.1951919
0
LINE
8
DEFAULT_255_2_778
10
11.0196221
20
75.1951919
11
11.0196221
21
72.7323919
0
LINE
8
DEFAULT_255_2_778
10
11.0196221
20
72.7323919
11
11.5628221
21
72.7323919
0
LINE
8
DEFAULT_255_2_778
10
11.5628221
20
72.7323919
11
11.5628221
21
74.7397919
0
LINE
8
DEFAULT_255_2_778
10
11.5628221
20
74.7397919
11
12.1671221
21
74.7397919
0
LINE
8
DEFAULT_255_2_778
10
12.1671221
20
74.7397919
11
12.1671221
21
72.7323919
0
LINE
8
DEFAULT_255_2_778
10
12.1671221
20
72.7323919
11
12.7105221
21
72.7323919
0
LINE
8
DEFAULT_255_2_778
10
12.7105221
20
72.7323919
11
12.7105221
21
74.7397919
0
LINE
8
DEFAULT_255_2_778
10
12.7105221
20
74.7397919
11
12.9188221
21
74.7397919
0
LINE
8
DEFAULT_255_2_778
10
13.3042221
20
74.3645919
11
13.3042221
21
72.7323919
0
LINE
8
DEFAULT_255_2_778
10
13.3042221
20
72.7323919
11
13.8490221
21
72.7323919
0
LINE
8
DEFAULT_255_2_778
10
13.8490221
20
72.7323919
11
13.8490221
21
74.3452919
0
LINE
8
DEFAULT_255_2_778
10
12.9783221
20
75.2157919
11
11.5731221
21
75.2157919
0
LINE
8
DEFAULT_255_2_778
10
11.5731221
20
75.2157919
11
11.0193221
21
75.1951919
0
LINE
8
DEFAULT_255_2_778
10
11.0193221
20
75.1951919
11
11.0196221
21
75.1951919
0
LINE
8
DEFAULT_255_2_778
10
17.5598221
20
72.6725919
11
17.5598221
21
72.6728919
0
LINE
8
DEFAULT_255_2_778
10
9.5652221
20
72.6728919
11
9.5652221
21
72.6728919
0
LINE
8
DEFAULT_255_1_234
10
11.486823
20
70.4957663
11
11.6418355
21
70.4957663
0
LINE
8
DEFAULT_255_1_234
10
10.7414777
20
70.6547947
11
10.7414777
21
70.7672391
0
LINE
8
DEFAULT_255_1_234
10
11.6418355
20
70.9182357
11
11.486823
21
70.9182357
0
LINE
8
DEFAULT_255_1_234
10
10.8964902
20
70.7632232
11
10.8964902
21
70.6499757
0
ARC
8
DEFAULT_255_1_234
10
11.0937742
20
70.5554846
40
0.5513052
50
340.1774281
51
353.7814284
0
ARC
8
DEFAULT_255_1_234
10
11.2509095
20
70.4969582
40
0.3836379
50
311.4558989
51
340.4421614
0
ARC
8
DEFAULT_255_1_234
10
11.2475763
20
70.5080528
40
0.3941894
50
282.4333181
51
310.7513653
0
ARC
8
DEFAULT_255_1_234
10
11.2036502
20
70.6895679
40
0.5809175
50
269.9358511
51
282.809604
0
ARC
8
DEFAULT_255_1_234
10
11.1984568
20
70.8353212
40
0.7266847
50
270.0021091
51
270.3581957
0
ARC
8
DEFAULT_255_1_234
10
11.1931985
20
70.5752585
40
0.4666519
50
250.7884749
51
270.6489167
0
ARC
8
DEFAULT_255_1_234
10
11.176382
20
70.5115319
40
0.4009729
50
219.3627325
51
250.0611886
0
ARC
8
DEFAULT_255_1_234
10
11.2593031
20
70.5820042
40
0.5097822
50
193.5479632
51
219.5756669
0
ARC
8
DEFAULT_255_1_234
10
11.4964652
20
70.6435919
40
0.7547848
50
181.1218675
51
193.87563
0
ARC
8
DEFAULT_255_1_234
10
11.7034833
20
70.654658
40
0.9620055
50
179.9918545
51
181.5394234
0
ARC
8
DEFAULT_255_1_234
10
11.5183935
20
70.7709788
40
0.7769248
50
169.5837241
51
180.2757934
0
ARC
8
DEFAULT_255_1_234
10
11.3346873
20
70.8049229
40
0.590109
50
155.0365899
51
169.6003176
0
ARC
8
DEFAULT_255_1_234
10
11.2211337
20
70.8596677
40
0.4640625
50
136.783148
51
155.2472683
0
ARC
8
DEFAULT_255_1_234
10
11.1821814
20
70.8927562
40
0.4130255
50
121.7633186
51
136.428115
0
ARC
8
DEFAULT_255_1_234
10
11.1956776
20
70.8678227
40
0.4413323
50
95.6459699
51
121.5490577
0
ARC
8
DEFAULT_255_1_234
10
11.2114058
20
70.7569949
40
0.55319
50
89.924208
51
96.1377933
0
ARC
8
DEFAULT_255_1_234
10
11.2164491
20
70.7688542
40
0.5413475
50
76.6779277
51
90.4563316
0
ARC
8
DEFAULT_255_1_234
10
11.2558114
20
70.9279114
40
0.3775041
50
47.485847
51
76.9287264
0
ARC
8
DEFAULT_255_1_234
10
11.2411087
20
70.9179159
40
0.3948286
50
16.5424086
51
46.8933463
0
ARC
8
DEFAULT_255_1_234
10
11.0803244
20
70.8650861
40
0.564021
50
5.4072051
51
17.0365086
0
ARC
8
DEFAULT_255_1_234
10
10.9364261
20
70.8419679
40
0.5556559
50
7.8891745
51
15.9239216
0
ARC
8
DEFAULT_255_1_234
10
11.1351274
20
70.8996631
40
0.3487515
50
15.7653144
51
27.9410532
0
ARC
8
DEFAULT_255_1_234
10
11.2455492
20
70.958779
40
0.2235026
50
27.8166557
51
46.4008329
0
ARC
8
DEFAULT_255_1_234
10
11.2505135
20
70.9582082
40
0.2205286
50
47.4371857
51
75.0698205
0
ARC
8
DEFAULT_255_1_234
10
11.2196529
20
70.8507765
40
0.3322915
50
74.7008593
51
87.8124495
0
ARC
8
DEFAULT_255_1_234
10
11.2123217
20
70.7451844
40
0.4380987
50
87.3814673
51
90.0240855
0
ARC
8
DEFAULT_255_1_234
10
11.208476
20
70.8629291
40
0.3203749
50
89.3451631
51
108.5745436
0
ARC
8
DEFAULT_255_1_234
10
11.1947865
20
70.9142908
40
0.2673494
50
109.2998449
51
143.3037509
0
ARC
8
DEFAULT_255_1_234
10
11.2709938
20
70.8556881
40
0.3634757
50
143.0753173
51
163.1916937
0
ARC
8
DEFAULT_255_1_234
10
11.4661666
20
70.7940967
40
0.5681262
50
162.9373603
51
174.6208611
0
ARC
8
DEFAULT_255_1_234
10
11.7287708
20
70.765301
40
0.8322832
50
174.3419979
51
180.1430411
0
ARC
8
DEFAULT_255_1_234
10
11.6356864
20
70.6458698
40
0.7392076
50
179.6817502
51
189.150529
0
ARC
8
DEFAULT_255_1_234
10
11.3856112
20
70.604219
40
0.4856932
50
188.9910863
51
203.5773039
0
ARC
8
DEFAULT_255_1_234
10
11.2776445
20
70.5594211
40
0.3688271
50
203.9077269
51
215.1312379
0
ARC
8
DEFAULT_255_1_234
10
11.1853539
20
70.4878941
40
0.2522457
50
213.9071664
51
263.8849284
0
ARC
8
DEFAULT_255_1_234
10
11.1978868
20
70.5663518
40
0.3316174
50
263.1758525
51
270.1031083
0
ARC
8
DEFAULT_255_1_234
10
11.201096
20
70.6910365
40
0.4563091
50
269.6719807
51
279.0609165
0
ARC
8
DEFAULT_255_1_234
10
11.2277728
20
70.5297907
40
0.2928759
50
278.8750225
51
293.6346586
0
ARC
8
DEFAULT_255_1_234
10
11.2597936
20
70.45459
40
0.2111472
50
293.8553404
51
310.0518804
0
ARC
8
DEFAULT_255_1_234
10
11.260279
20
70.4483516
40
0.2060917
50
311.0646779
51
332.0108348
0
ARC
8
DEFAULT_255_1_234
10
11.1410517
20
70.5140978
40
0.3422352
50
331.6588543
51
343.2878891
0
ARC
8
DEFAULT_255_1_234
10
10.9348032
20
70.5774798
40
0.5580003
50
343.1446044
51
351.010618
0
ARC
8
DEFAULT_255_1_234
10
10.7806678
20
70.6055871
40
0.7146438
50
350.7157277
51
351.1602153
0
LINE
8
DEFAULT_255_1_234
10
12.628133
20
70.9559849
11
12.4731205
21
70.9559849
0
LINE
8
DEFAULT_255_1_234
10
11.7807846
20
70.4636394
11
11.9357972
21
70.4636394
0
ARC
8
DEFAULT_255_1_234
10
12.5390017
20
71.8506768
40
1.252368
50
248.9199003
51
254.1439814
0
ARC
8
DEFAULT_255_1_234
10
12.3709512
20
71.4180234
40
0.788226
50
241.633709
51
249.0064503
0
ARC
8
DEFAULT_255_1_234
10
12.2180907
20
71.1379317
40
0.4691427
50
230.498225
51
241.8087113
0
ARC
8
DEFAULT_255_1_234
10
12.1396481
20
71.0379906
40
0.3421437
50
227.4064532
51
229.9881192
0
ARC
8
DEFAULT_255_1_234
10
12.0909002
20
70.9904088
40
0.2741476
50
200.6781896
51
228.1763934
0
ARC
8
DEFAULT_255_1_234
10
12.0981312
20
70.9889077
40
0.2804109
50
179.5061581
51
199.8694617
0
ARC
8
DEFAULT_255_1_234
10
12.0972064
20
70.996321
40
0.2795204
50
132.4834203
51
181.0242172
0
ARC
8
DEFAULT_255_1_234
10
12.1567646
20
70.9400704
40
0.3612768
50
129.2532479
51
133.4242687
0
ARC
8
DEFAULT_255_1_234
10
12.1714096
20
70.9180965
40
0.3875675
50
101.98776
51
128.8742646
0
ARC
8
DEFAULT_255_1_234
10
12.2112706
20
70.7459741
40
0.5642249
50
89.5906553
51
102.3169264
0
ARC
8
DEFAULT_255_1_234
10
12.2183199
20
70.7778148
40
0.5323783
50
77.2360837
51
90.3248275
0
ARC
8
DEFAULT_255_1_234
10
12.2390278
20
70.87454
40
0.4334697
50
63.837784
51
77.0809408
0
ARC
8
DEFAULT_255_1_234
10
12.2668039
20
70.9262911
40
0.3747796
50
45.9864267
51
64.1607727
0
ARC
8
DEFAULT_255_1_234
10
12.2928921
20
70.9560866
40
0.3352302
50
32.2747395
51
45.6547121
0
ARC
8
DEFAULT_255_1_234
10
12.2995361
20
70.957988
40
0.328603
50
359.6507365
51
32.6130309
0
ARC
8
DEFAULT_255_1_234
10
12.2052457
20
70.958466
40
0.2678863
50
359.469343
51
14.9832209
0
ARC
8
DEFAULT_255_1_234
10
12.2757519
20
70.9773539
40
0.1948938
50
14.9781179
51
48.2004265
0
ARC
8
DEFAULT_255_1_234
10
12.2593163
20
70.9566983
40
0.2212521
50
48.5927837
51
74.1241538
0
ARC
8
DEFAULT_255_1_234
10
12.2259653
20
70.8466248
40
0.3362561
50
73.7888341
51
86.6652678
0
ARC
8
DEFAULT_255_1_234
10
12.2157218
20
70.7258881
40
0.4573953
50
86.2640471
51
90.0526343
0
ARC
8
DEFAULT_255_1_234
10
12.2128931
20
70.7654192
40
0.4178709
50
89.6697524
51
99.2309573
0
ARC
8
DEFAULT_255_1_234
10
12.1886382
20
70.9098964
40
0.2713749
50
99.069534
51
113.7658566
0
ARC
8
DEFAULT_255_1_234
10
12.1612573
20
70.9744677
40
0.2012469
50
114.0401004
51
127.9850673
0
ARC
8
DEFAULT_255_1_234
10
12.1372137
20
71.004073
40
0.1631167
50
127.7287463
51
176.7105154
0
ARC
8
DEFAULT_255_1_234
10
12.2050854
20
70.9939693
40
0.2315392
50
175.1779447
51
180.0581938
0
ARC
8
DEFAULT_255_1_234
10
12.1207701
20
70.9927428
40
0.1472271
50
179.6142195
51
228.1246017
0
ARC
8
DEFAULT_255_1_234
10
12.164937
20
71.0336308
40
0.2072299
50
226.5779593
51
230.8800004
0
ARC
8
DEFAULT_255_1_234
10
12.2120448
20
71.0961636
40
0.2854818
50
231.4635071
51
241.9260842
0
ARC
8
DEFAULT_255_1_234
10
12.3317626
20
71.31648
40
0.53622
50
241.7178533
51
248.3259551
0
ARC
8
DEFAULT_255_1_234
10
12.4702998
20
71.6597064
40
0.9063478
50
248.2007737
51
252.4528373
0
ARC
8
DEFAULT_255_1_234
10
12.5906723
20
72.0318441
40
1.2974635
50
252.3391078
51
254.3469452
0
ARC
8
DEFAULT_255_1_234
10
11.8364426
20
69.3341148
40
1.5037162
50
71.0197183
51
74.4087047
0
ARC
8
DEFAULT_255_1_234
10
12.0059111
20
69.8233111
40
0.9859993
50
66.1847285
51
71.086374
0
ARC
8
DEFAULT_255_1_234
10
12.1615423
20
70.17372
40
0.6025855
50
59.3536294
51
66.2691831
0
ARC
8
DEFAULT_255_1_234
10
12.2504076
20
70.3240609
40
0.4279449
50
49.1020879
51
59.3293958
0
ARC
8
DEFAULT_255_1_234
10
12.3322816
20
70.4173834
40
0.3038015
50
32.7919921
51
49.2505539
0
ARC
8
DEFAULT_255_1_234
10
12.3643906
20
70.4402191
40
0.264448
50
31.1181161
51
32.4005348
0
ARC
8
DEFAULT_255_1_234
10
12.3555443
20
70.4366779
40
0.2738556
50
8.1116974
51
30.7958831
0
ARC
8
DEFAULT_255_1_234
10
12.2745111
20
70.4228753
40
0.3560327
50
359.8389159
51
8.4706516
0
ARC
8
DEFAULT_255_1_234
10
12.3370903
20
70.4180137
40
0.2934776
50
337.4731098
51
0.7537279
0
ARC
8
DEFAULT_255_1_234
10
12.3549598
20
70.4160387
40
0.2762607
50
307.5917067
51
336.4315538
0
ARC
8
DEFAULT_255_1_234
10
12.3089426
20
70.4673102
40
0.3449979
50
307.6551545
51
308.4529766
0
ARC
8
DEFAULT_255_1_234
10
12.2859145
20
70.502825
40
0.3871988
50
284.3734338
51
307.1424381
0
ARC
8
DEFAULT_255_1_234
10
12.2363975
20
70.6849932
40
0.5759636
50
272.4382747
51
284.646547
0
ARC
8
DEFAULT_255_1_234
10
12.2237184
20
70.8649893
40
0.7563528
50
269.9708387
51
272.8178037
0
ARC
8
DEFAULT_255_1_234
10
12.2194223
20
70.6611716
40
0.5525489
50
248.2707594
51
270.4055579
0
ARC
8
DEFAULT_255_1_234
10
12.2139964
20
70.6421192
40
0.5328452
50
246.1383403
51
248.0542782
0
ARC
8
DEFAULT_255_1_234
10
12.1721343
20
70.5541843
40
0.4355005
50
233.1670131
51
246.4950969
0
ARC
8
DEFAULT_255_1_234
10
12.1167248
20
70.4793812
40
0.3424126
50
215.3403242
51
233.0843104
0
ARC
8
DEFAULT_255_1_234
10
12.0894679
20
70.4595549
40
0.3087104
50
179.2419209
51
215.2648451
0
ARC
8
DEFAULT_255_1_234
10
12.1662273
20
70.4609666
40
0.2304457
50
179.335461
51
199.1045811
0
ARC
8
DEFAULT_255_1_234
10
12.132995
20
70.4522766
40
0.1962176
50
199.8828939
51
232.7063202
0
ARC
8
DEFAULT_255_1_234
10
12.1802218
20
70.5116788
40
0.2720938
50
232.3738199
51
255.5136649
0
ARC
8
DEFAULT_255_1_234
10
12.2143085
20
70.6360835
40
0.4010747
50
255.2446292
51
267.5320849
0
ARC
8
DEFAULT_255_1_234
10
12.2230708
20
70.7593702
40
0.5246356
50
267.1557994
51
270.0286766
0
ARC
8
DEFAULT_255_1_234
10
12.225848
20
70.714995
40
0.4802668
50
269.7000017
51
278.1660162
0
ARC
8
DEFAULT_255_1_234
10
12.2514485
20
70.5419515
40
0.3053425
50
278.0231263
51
290.625471
0
ARC
8
DEFAULT_255_1_234
10
12.2862172
20
70.4492025
40
0.206291
50
290.6619762
51
307.0370976
0
ARC
8
DEFAULT_255_1_234
10
12.3162562
20
70.4123504
40
0.1587906
50
306.3943566
51
355.3030547
0
ARC
8
DEFAULT_255_1_234
10
12.2650493
20
70.4200113
40
0.2104809
50
354.3660432
51
0.0698737
0
ARC
8
DEFAULT_255_1_234
10
12.2792838
20
70.4222617
40
0.1962563
50
359.417946
51
16.1971788
0
ARC
8
DEFAULT_255_1_234
10
12.3248149
20
70.4347418
40
0.149053
50
16.4723299
51
52.6262157
0
ARC
8
DEFAULT_255_1_234
10
12.2427202
20
70.3263433
40
0.2850296
50
52.7386432
51
62.4979148
0
ARC
8
DEFAULT_255_1_234
10
12.1042279
20
70.0657283
40
0.5801521
50
62.2515216
51
68.1220564
0
ARC
8
DEFAULT_255_1_234
10
11.932219
20
69.6429872
40
1.0365451
50
68.0062803
51
71.8053402
0
ARC
8
DEFAULT_255_1_234
10
11.7526562
20
69.1044758
40
1.6042013
50
71.7183119
51
73.9258742
0
LINE
8
DEFAULT_255_1_234
10
13.1140532
20
70.6821026
11
13.1140532
21
70.5608234
0
LINE
8
DEFAULT_255_1_234
10
13.1140532
20
70.5608234
11
12.7221043
21
70.5608234
0
LINE
8
DEFAULT_255_1_234
10
12.7221043
20
70.5608234
11
12.7221043
21
70.6821026
0
LINE
8
DEFAULT_255_1_234
10
12.7221043
20
70.6821026
11
13.1140532
21
70.6821026
0
LINE
8
DEFAULT_255_1_234
10
14.0577824
20
70.9559849
11
13.9027699
21
70.9559849
0
LINE
8
DEFAULT_255_1_234
10
13.210434
20
70.4636394
11
13.3654466
21
70.4636394
0
ARC
8
DEFAULT_255_1_234
10
13.9686512
20
71.8506768
40
1.252368
50
248.9199003
51
254.1439814
0
ARC
8
DEFAULT_255_1_234
10
13.8006006
20
71.4180234
40
0.788226
50
241.633709
51
249.0064503
0
ARC
8
DEFAULT_255_1_234
10
13.6477401
20
71.1379317
40
0.4691427
50
230.498225
51
241.8087113
0
ARC
8
DEFAULT_255_1_234
10
13.5692975
20
71.0379906
40
0.3421437
50
227.4064532
51
229.9881192
0
ARC
8
DEFAULT_255_1_234
10
13.5205496
20
70.9904088
40
0.2741476
50
200.6781896
51
228.1763934
0
ARC
8
DEFAULT_255_1_234
10
13.5277806
20
70.9889077
40
0.2804109
50
179.5061581
51
199.8694617
0
ARC
8
DEFAULT_255_1_234
10
13.5268558
20
70.996321
40
0.2795204
50
132.4834203
51
181.0242172
0
ARC
8
DEFAULT_255_1_234
10
13.586414
20
70.9400704
40
0.3612768
50
129.2532479
51
133.4242687
0
ARC
8
DEFAULT_255_1_234
10
13.601059
20
70.9180965
40
0.3875675
50
101.98776
51
128.8742646
0
ARC
8
DEFAULT_255_1_234
10
13.6409201
20
70.7459741
40
0.5642249
50
89.5906553
51
102.3169264
0
ARC
8
DEFAULT_255_1_234
10
13.6479693
20
70.7778148
40
0.5323783
50
77.2360837
51
90.3248275
0
ARC
8
DEFAULT_255_1_234
10
13.6686772
20
70.87454
40
0.4334697
50
63.837784
51
77.0809408
0
ARC
8
DEFAULT_255_1_234
10
13.6964534
20
70.9262911
40
0.3747796
50
45.9864267
51
64.1607727
0
ARC
8
DEFAULT_255_1_234
10
13.7225415
20
70.9560866
40
0.3352302
50
32.2747395
51
45.6547121
0
ARC
8
DEFAULT_255_1_234
10
13.7291856
20
70.957988
40
0.328603
50
359.6507365
51
32.6130309
0
ARC
8
DEFAULT_255_1_234
10
13.6348951
20
70.958466
40
0.2678863
50
359.469343
51
14.9832209
0
ARC
8
DEFAULT_255_1_234
10
13.7054013
20
70.9773539
40
0.1948938
50
14.9781179
51
48.2004265
0
ARC
8
DEFAULT_255_1_234
10
13.6889657
20
70.9566983
40
0.2212521
50
48.5927837
51
74.1241538
0
ARC
8
DEFAULT_255_1_234
10
13.6556147
20
70.8466248
40
0.3362561
50
73.7888341
51
86.6652678
0
ARC
8
DEFAULT_255_1_234
10
13.6453713
20
70.7258881
40
0.4573953
50
86.2640471
51
90.0526343
0
ARC
8
DEFAULT_255_1_234
10
13.6425425
20
70.7654192
40
0.4178709
50
89.6697524
51
99.2309573
0
ARC
8
DEFAULT_255_1_234
10
13.6182876
20
70.9098964
40
0.2713749
50
99.069534
51
113.7658566
0
ARC
8
DEFAULT_255_1_234
10
13.5909067
20
70.9744677
40
0.2012469
50
114.0401004
51
127.9850673
0
ARC
8
DEFAULT_255_1_234
10
13.5668631
20
71.004073
40
0.1631167
50
127.7287463
51
176.7105154
0
ARC
8
DEFAULT_255_1_234
10
13.6347348
20
70.9939693
40
0.2315392
50
175.1779447
51
180.0581938
0
ARC
8
DEFAULT_255_1_234
10
13.5504195
20
70.9927428
40
0.1472271
50
179.6142195
51
228.1246017
0
ARC
8
DEFAULT_255_1_234
10
13.5945864
20
71.0336308
40
0.2072299
50
226.5779593
51
230.8800004
0
ARC
8
DEFAULT_255_1_234
10
13.6416943
20
71.0961636
40
0.2854818
50
231.4635071
51
241.9260842
0
ARC
8
DEFAULT_255_1_234
10
13.7614121
20
71.31648
40
0.53622
50
241.7178533
51
248.3259551
0
ARC
8
DEFAULT_255_1_234
10
13.8999492
20
71.6597064
40
0.9063478
50
248.2007737
51
252.4528373
0
ARC
8
DEFAULT_255_1_234
10
14.0203217
20
72.0318441
40
1.2974635
50
252.3391078
51
254.3469452
0
ARC
8
DEFAULT_255_1_234
10
13.266092
20
69.3341148
40
1.5037162
50
71.0197183
51
74.4087047
0
ARC
8
DEFAULT_255_1_234
10
13.4355605
20
69.8233111
40
0.9859993
50
66.1847285
51
71.086374
0
ARC
8
DEFAULT_255_1_234
10
13.5911918
20
70.17372
40
0.6025855
50
59.3536294
51
66.2691831
0
ARC
8
DEFAULT_255_1_234
10
13.680057
20
70.3240609
40
0.4279449
50
49.1020879
51
59.3293958
0
ARC
8
DEFAULT_255_1_234
10
13.761931
20
70.4173834
40
0.3038015
50
32.7919921
51
49.2505539
0
ARC
8
DEFAULT_255_1_234
10
13.79404
20
70.4402191
40
0.264448
50
31.1181161
51
32.4005348
0
ARC
8
DEFAULT_255_1_234
10
13.7851938
20
70.4366779
40
0.2738556
50
8.1116974
51
30.7958831
0
ARC
8
DEFAULT_255_1_234
10
13.7041606
20
70.4228753
40
0.3560327
50
359.8389159
51
8.4706516
0
ARC
8
DEFAULT_255_1_234
10
13.7667397
20
70.4180137
40
0.2934776
50
337.4731098
51
0.7537279
0
ARC
8
DEFAULT_255_1_234
10
13.7846092
20
70.4160387
40
0.2762607
50
307.5917067
51
336.4315538
0
ARC
8
DEFAULT_255_1_234
10
13.738592
20
70.4673102
40
0.3449979
50
307.6551545
51
308.4529766
0
ARC
8
DEFAULT_255_1_234
10
13.7155639
20
70.502825
40
0.3871988
50
284.3734338
51
307.1424381
0
ARC
8
DEFAULT_255_1_234
10
13.6660469
20
70.6849932
40
0.5759636
50
272.4382747
51
284.646547
0
ARC
8
DEFAULT_255_1_234
10
13.6533678
20
70.8649893
40
0.7563528
50
269.9708387
51
272.8178037
0
ARC
8
DEFAULT_255_1_234
10
13.6490717
20
70.6611716
40
0.5525489
50
248.2707594
51
270.4055579
0
ARC
8
DEFAULT_255_1_234
10
13.6436458
20
70.6421192
40
0.5328452
50
246.1383403
51
248.0542782
0
ARC
8
DEFAULT_255_1_234
10
13.6017837
20
70.5541843
40
0.4355005
50
233.1670131
51
246.4950969
0
ARC
8
DEFAULT_255_1_234
10
13.5463742
20
70.4793812
40
0.3424126
50
215.3403242
51
233.0843104
0
ARC
8
DEFAULT_255_1_234
10
13.5191174
20
70.4595549
40
0.3087104
50
179.2419209
51
215.2648451
0
ARC
8
DEFAULT_255_1_234
10
13.5958767
20
70.4609666
40
0.2304457
50
179.335461
51
199.1045811
0
ARC
8
DEFAULT_255_1_234
10
13.5626444
20
70.4522766
40
0.1962176
50
199.8828939
51
232.7063202
0
ARC
8
DEFAULT_255_1_234
10
13.6098712
20
70.5116788
40
0.2720938
50
232.3738199
51
255.5136649
0
ARC
8
DEFAULT_255_1_234
10
13.6439579
20
70.6360835
40
0.4010747
50
255.2446292
51
267.5320849
0
ARC
8
DEFAULT_255_1_234
10
13.6527202
20
70.7593702
40
0.5246356
50
267.1557994
51
270.0286766
0
ARC
8
DEFAULT_255_1_234
10
13.6554975
20
70.714995
40
0.4802668
50
269.7000017
51
278.1660162
0
ARC
8
DEFAULT_255_1_234
10
13.6810979
20
70.5419515
40
0.3053425
50
278.0231263
51
290.625471
0
ARC
8
DEFAULT_255_1_234
10
13.7158666
20
70.4492025
40
0.206291
50
290.6619762
51
307.0370976
0
ARC
8
DEFAULT_255_1_234
10
13.7459056
20
70.4123504
40
0.1587906
50
306.3943566
51
355.3030547
0
ARC
8
DEFAULT_255_1_234
10
13.6946987
20
70.4200113
40
0.2104809
50
354.3660432
51
0.0698737
0
ARC
8
DEFAULT_255_1_234
10
13.7089332
20
70.4222617
40
0.1962563
50
359.417946
51
16.1971788
0
ARC
8
DEFAULT_255_1_234
10
13.7544643
20
70.4347418
40
0.149053
50
16.4723299
51
52.6262157
0
ARC
8
DEFAULT_255_1_234
10
13.6723697
20
70.3263433
40
0.2850296
50
52.7386432
51
62.4979148
0
ARC
8
DEFAULT_255_1_234
10
13.5338773
20
70.0657283
40
0.5801521
50
62.2515216
51
68.1220564
0
ARC
8
DEFAULT_255_1_234
10
13.3618684
20
69.6429872
40
1.0365451
50
68.0062803
51
71.8053402
0
ARC
8
DEFAULT_255_1_234
10
13.1823056
20
69.1044758
40
1.6042013
50
71.7183119
51
73.9258742
0
LINE
8
DEFAULT_255_1_234
10
14.1967315
20
70.5351218
11
14.1967315
21
70.5624297
0
LINE
8
DEFAULT_255_1_234
10
14.9340451
20
70.5784932
11
14.9340451
21
70.5166488
0
LINE
8
DEFAULT_255_1_234
10
14.9340451
20
70.5166488
11
14.3453187
21
70.5166488
0
LINE
8
DEFAULT_255_1_234
10
14.832042
20
70.3471792
11
14.9228006
21
70.2764999
0
LINE
8
DEFAULT_255_1_234
10
14.3501377
20
70.6387313
11
14.7854579
21
70.6387313
0
LINE
8
DEFAULT_255_1_234
10
14.7854579
20
70.6387313
11
14.7854579
21
70.6499757
0
ARC
8
DEFAULT_255_1_234
10
14.590668
20
70.5462332
40
0.4376191
50
252.3266134
51
270.5810217
0
ARC
8
DEFAULT_255_1_234
10
14.5701769
20
70.4721644
40
0.3608374
50
223.3000567
51
251.8561855
0
ARC
8
DEFAULT_255_1_234
10
14.591313
20
70.4926937
40
0.3902993
50
190.9374509
51
223.3654032
0
ARC
8
DEFAULT_255_1_234
10
14.7638102
20
70.5316885
40
0.5670891
50
179.6531105
51
191.4989439
0
ARC
8
DEFAULT_255_1_234
10
14.7760114
20
70.5656417
40
0.5792888
50
167.4007466
51
180.3176909
0
ARC
8
DEFAULT_255_1_234
10
14.6708176
20
70.5878885
40
0.471777
50
154.1835823
51
167.250763
0
ARC
8
DEFAULT_255_1_234
10
14.6076643
20
70.6211417
40
0.4004528
50
134.3149965
51
154.5315275
0
ARC
8
DEFAULT_255_1_234
10
14.5859138
20
70.6402228
40
0.371612
50
122.8616532
51
133.9707695
0
ARC
8
DEFAULT_255_1_234
10
14.5755713
20
70.6624703
40
0.3473289
50
89.8249009
51
123.4199222
0
ARC
8
DEFAULT_255_1_234
10
14.5805754
20
70.5977967
40
0.4120197
50
74.7876118
51
90.5482747
0
ARC
8
DEFAULT_255_1_234
10
14.6099497
20
70.706303
40
0.2996077
50
39.8178249
51
74.7633718
0
ARC
8
DEFAULT_255_1_234
10
14.5586817
20
70.6663351
40
0.3645855
50
16.8990863
51
39.4829761
0
ARC
8
DEFAULT_255_1_234
10
14.3692113
20
70.6056526
40
0.5635218
50
4.9636328
51
17.2026414
0
ARC
8
DEFAULT_255_1_234
10
14.1274184
20
70.580134
40
0.8066286
50
359.8834553
51
5.2834307
0
ARC
8
DEFAULT_255_1_234
10
14.7311708
20
70.5232803
40
0.3859091
50
180.9846213
51
194.9401313
0
ARC
8
DEFAULT_255_1_234
10
14.6261986
20
70.4945849
40
0.2770883
50
194.80314
51
222.0412631
0
ARC
8
DEFAULT_255_1_234
10
14.5957868
20
70.4644116
40
0.2343055
50
221.5417084
51
268.8614402
0
ARC
8
DEFAULT_255_1_234
10
14.6030862
20
70.5320686
40
0.3021528
50
267.732405
51
270.0097136
0
ARC
8
DEFAULT_255_1_234
10
14.6048672
20
70.5522105
40
0.3222994
50
269.6924892
51
280.4117579
0
ARC
8
DEFAULT_255_1_234
10
14.6225079
20
70.4603193
40
0.2287344
50
280.2255091
51
298.6338936
0
ARC
8
DEFAULT_255_1_234
10
14.6341871
20
70.4359223
40
0.2017294
50
299.0430333
51
300.4643464
0
ARC
8
DEFAULT_255_1_234
10
14.5661877
20
70.5493038
40
0.3339357
50
300.6577328
51
322.0378878
0
ARC
8
DEFAULT_255_1_234
10
14.5311416
20
70.5797021
40
0.3802736
50
321.6750233
51
322.3046845
0
ARC
8
DEFAULT_255_1_234
10
14.6242377
20
70.463037
40
0.3520454
50
276.9728461
51
328.0035423
0
ARC
8
DEFAULT_255_1_234
10
14.596543
20
70.6110841
40
0.5024498
50
269.8361028
51
278.0581756
0
ARC
8
DEFAULT_255_1_234
10
14.5738167
20
70.6855757
40
0.202159
50
89.2018686
51
117.2851756
0
ARC
8
DEFAULT_255_1_234
10
14.5791336
20
70.6813752
40
0.2083484
50
118.0551165
51
137.4540413
0
ARC
8
DEFAULT_255_1_234
10
14.6166076
20
70.6473304
40
0.2589774
50
137.5109581
51
158.8516286
0
ARC
8
DEFAULT_255_1_234
10
14.7303912
20
70.6014074
40
0.38167
50
158.5845963
51
170.1721436
0
ARC
8
DEFAULT_255_1_234
10
14.8473301
20
70.5781823
40
0.5008657
50
169.8376422
51
173.0566086
0
ARC
8
DEFAULT_255_1_234
10
14.3776375
20
70.6292509
40
0.4083467
50
2.9091802
51
12.8847116
0
ARC
8
DEFAULT_255_1_234
10
14.5147052
20
70.6615101
40
0.2675383
50
12.6957781
51
28.6404489
0
ARC
8
DEFAULT_255_1_234
10
14.5688722
20
70.6895458
40
0.2065654
50
29.0169854
51
41.1487595
0
ARC
8
DEFAULT_255_1_234
10
14.5891508
20
70.7072003
40
0.1796786
50
41.1646065
51
85.0013516
0
ARC
8
DEFAULT_255_1_234
10
14.5770604
20
70.6337431
40
0.2539726
50
83.7280015
51
90.0964893
0
LINE
8
DEFAULT_255_1_234
10
15.5259842
20
70.9985531
11
15.5259842
21
70.8604072
0
LINE
8
DEFAULT_255_1_234
10
15.2545114
20
70.7415375
11
15.2545114
21
70.1247
0
LINE
8
DEFAULT_255_1_234
10
15.2545114
20
70.1247
11
15.1059243
21
70.1247
0
LINE
8
DEFAULT_255_1_234
10
15.1059243
20
70.1247
11
15.1059243
21
70.9937341
0
LINE
8
DEFAULT_255_1_234
10
15.1059243
20
70.9937341
11
15.2504956
21
70.9937341
0
LINE
8
DEFAULT_255_1_234
10
15.2504956
20
70.9937341
11
15.2529051
21
70.8933374
0
ARC
8
DEFAULT_255_1_234
10
15.4593247
20
70.4544342
40
0.4114092
50
80.6754243
51
86.8932892
0
ARC
8
DEFAULT_255_1_234
10
15.4532782
20
70.35767
40
0.5083596
50
86.8038578
51
90.0431435
0
ARC
8
DEFAULT_255_1_234
10
15.4495762
20
70.6033866
40
0.2626638
50
89.2759698
51
106.6213787
0
ARC
8
DEFAULT_255_1_234
10
15.4291326
20
70.677683
40
0.1856317
50
107.1346045
51
157.6458115
0
ARC
8
DEFAULT_255_1_234
10
15.4982928
20
70.6393311
40
0.2643398
50
155.6586782
51
157.2539184
0
ARC
8
DEFAULT_255_1_234
10
15.477813
20
70.7562157
40
0.2634121
50
127.8165941
51
148.6302098
0
ARC
8
DEFAULT_255_1_234
10
15.4524599
20
70.7822218
40
0.2273596
50
91.3329982
51
126.7875809
0
ARC
8
DEFAULT_255_1_234
10
15.4600539
20
70.7107195
40
0.299078
50
89.986594
51
92.4688449
0
ARC
8
DEFAULT_255_1_234
10
15.4608934
20
70.7382078
40
0.2715908
50
85.3589899
51
90.1623399
0
ARC
8
DEFAULT_255_1_234
10
15.469345
20
70.8386164
40
0.1708278
50
78.401942
51
85.4594656
0
ARC
8
DEFAULT_255_1_234
10
15.4838334
20
70.9077236
40
0.1002194
50
67.7858312
51
78.5728455
0
ARC
8
DEFAULT_255_1_234
10
15.4946187
20
70.9356887
40
0.0702548
50
63.4835954
51
67.3062642
0
LINE
8
DEFAULT_255_1_234
10
15.8239617
20
70.9937341
11
15.8239617
21
70.1247
0
LINE
8
DEFAULT_255_1_234
10
15.8239617
20
70.1247
11
15.6753745
21
70.1247
0
LINE
8
DEFAULT_255_1_234
10
15.6753745
20
70.1247
11
15.6753745
21
70.9937341
0
LINE
8
DEFAULT_255_1_234
10
15.6753745
20
70.9937341
11
15.8239617
21
70.9937341
0
ARC
8
DEFAULT_255_1_234
10
15.7611894
20
71.2251889
40
0.097867
50
161.415052
51
180.5526306
0
ARC
8
DEFAULT_255_1_234
10
15.7487672
20
71.2286077
40
0.0850062
50
138.1827368
51
160.9307106
0
ARC
8
DEFAULT_255_1_234
10
15.7377618
20
71.2381588
40
0.0704362
50
104.6368899
51
138.0039868
0
ARC
8
DEFAULT_255_1_234
10
15.7484772
20
71.2014963
40
0.1086221
50
92.0600725
51
105.2189128
0
ARC
8
DEFAULT_255_1_234
10
15.7508121
20
71.1672117
40
0.1429728
50
89.9756393
51
92.5012496
0
ARC
8
DEFAULT_255_1_234
10
15.751814
20
71.1897731
40
0.1204151
50
78.0235316
51
90.4478182
0
ARC
8
DEFAULT_255_1_234
10
15.7610232
20
71.2311295
40
0.0780493
50
55.051506
51
78.3369085
0
ARC
8
DEFAULT_255_1_234
10
15.7660506
20
71.2395711
40
0.0682538
50
42.0501187
51
54.4513741
0
ARC
8
DEFAULT_255_1_234
10
15.7525373
20
71.2271798
40
0.0865878
50
1.7497075
51
42.1496013
0
ARC
8
DEFAULT_255_1_234
10
15.7270706
20
71.2242738
40
0.1121515
50
359.9852656
51
2.8364544
0
ARC
8
DEFAULT_255_1_234
10
15.7436699
20
71.2233229
40
0.0955566
50
342.1070653
51
0.552888
0
ARC
8
DEFAULT_255_1_234
10
15.7579396
20
71.2193904
40
0.0807713
50
316.7107116
51
341.6516965
0
ARC
8
DEFAULT_255_1_234
10
15.7646433
20
71.2133823
40
0.0717724
50
285.4397031
51
316.5324284
0
ARC
8
DEFAULT_255_1_234
10
15.753635
20
71.2499554
40
0.1099597
50
272.3547054
51
285.8953117
0
ARC
8
DEFAULT_255_1_234
10
15.7509508
20
71.2865048
40
0.1465932
50
269.9695369
51
272.8160237
0
ARC
8
DEFAULT_255_1_234
10
15.7499689
20
71.2645863
40
0.1246779
50
258.8431134
51
270.4153935
0
ARC
8
DEFAULT_255_1_234
10
15.7409732
20
71.2210414
40
0.0802162
50
238.5431189
51
259.1288175
0
ARC
8
DEFAULT_255_1_234
10
15.7341617
20
71.2086856
40
0.0661247
50
222.5062634
51
237.9906969
0
ARC
8
DEFAULT_255_1_234
10
15.7469204
20
71.2202889
40
0.0833707
50
184.1069131
51
222.460413
0
ARC
8
DEFAULT_255_1_234
10
15.7738445
20
71.2241349
40
0.1105176
50
179.9429482
51
185.0960898
0
LINE
8
DEFAULT_255_1_234
10
16.023952
20
70.5351218
11
16.023952
21
70.5624297
0
LINE
8
DEFAULT_255_1_234
10
16.7612655
20
70.5784932
11
16.7612655
21
70.5166488
0
LINE
8
DEFAULT_255_1_234
10
16.7612655
20
70.5166488
11
16.1725391
21
70.5166488
0
LINE
8
DEFAULT_255_1_234
10
16.6592625
20
70.3471792
11
16.7500211
21
70.2764999
0
LINE
8
DEFAULT_255_1_234
10
16.1773582
20
70.6387313
11
16.6126784
21
70.6387313
0
LINE
8
DEFAULT_255_1_234
10
16.6126784
20
70.6387313
11
16.6126784
21
70.6499757
0
ARC
8
DEFAULT_255_1_234
10
16.4178885
20
70.5462332
40
0.4376191
50
252.3266134
51
270.5810217
0
ARC
8
DEFAULT_255_1_234
10
16.3973974
20
70.4721644
40
0.3608374
50
223.3000567
51
251.8561855
0
ARC
8
DEFAULT_255_1_234
10
16.4185334
20
70.4926937
40
0.3902993
50
190.9374509
51
223.3654032
0
ARC
8
DEFAULT_255_1_234
10
16.5910307
20
70.5316885
40
0.5670891
50
179.6531105
51
191.4989439
0
ARC
8
DEFAULT_255_1_234
10
16.6032319
20
70.5656417
40
0.5792888
50
167.4007466
51
180.3176909
0
ARC
8
DEFAULT_255_1_234
10
16.498038
20
70.5878885
40
0.471777
50
154.1835823
51
167.250763
0
ARC
8
DEFAULT_255_1_234
10
16.4348848
20
70.6211417
40
0.4004528
50
134.3149965
51
154.5315275
0
ARC
8
DEFAULT_255_1_234
10
16.4131343
20
70.6402228
40
0.371612
50
122.8616532
51
133.9707695
0
ARC
8
DEFAULT_255_1_234
10
16.4027917
20
70.6624703
40
0.3473289
50
89.8249009
51
123.4199222
0
ARC
8
DEFAULT_255_1_234
10
16.4077958
20
70.5977967
40
0.4120197
50
74.7876118
51
90.5482747
0
ARC
8
DEFAULT_255_1_234
10
16.4371701
20
70.706303
40
0.2996077
50
39.8178249
51
74.7633718
0
ARC
8
DEFAULT_255_1_234
10
16.3859022
20
70.6663351
40
0.3645855
50
16.8990863
51
39.4829761
0
ARC
8
DEFAULT_255_1_234
10
16.1964318
20
70.6056526
40
0.5635218
50
4.9636328
51
17.2026414
0
ARC
8
DEFAULT_255_1_234
10
15.9546388
20
70.580134
40
0.8066286
50
359.8834553
51
5.2834307
0
ARC
8
DEFAULT_255_1_234
10
16.5583913
20
70.5232803
40
0.3859091
50
180.9846213
51
194.9401313
0
ARC
8
DEFAULT_255_1_234
10
16.453419
20
70.4945849
40
0.2770883
50
194.80314
51
222.0412631
0
ARC
8
DEFAULT_255_1_234
10
16.4230072
20
70.4644116
40
0.2343055
50
221.5417084
51
268.8614402
0
ARC
8
DEFAULT_255_1_234
10
16.4303067
20
70.5320686
40
0.3021528
50
267.732405
51
270.0097136
0
ARC
8
DEFAULT_255_1_234
10
16.4320877
20
70.5522105
40
0.3222994
50
269.6924892
51
280.4117579
0
ARC
8
DEFAULT_255_1_234
10
16.4497284
20
70.4603193
40
0.2287344
50
280.2255091
51
298.6338936
0
ARC
8
DEFAULT_255_1_234
10
16.4614076
20
70.4359223
40
0.2017294
50
299.0430333
51
300.4643464
0
ARC
8
DEFAULT_255_1_234
10
16.3934081
20
70.5493038
40
0.3339357
50
300.6577328
51
322.0378878
0
ARC
8
DEFAULT_255_1_234
10
16.358362
20
70.5797021
40
0.3802736
50
321.6750233
51
322.3046845
0
ARC
8
DEFAULT_255_1_234
10
16.4514582
20
70.463037
40
0.3520454
50
276.9728461
51
328.0035423
0
ARC
8
DEFAULT_255_1_234
10
16.4237635
20
70.6110841
40
0.5024498
50
269.8361028
51
278.0581756
0
ARC
8
DEFAULT_255_1_234
10
16.4010372
20
70.6855757
40
0.202159
50
89.2018686
51
117.2851756
0
ARC
8
DEFAULT_255_1_234
10
16.4063541
20
70.6813752
40
0.2083484
50
118.0551165
51
137.4540413
0
ARC
8
DEFAULT_255_1_234
10
16.4438281
20
70.6473304
40
0.2589774
50
137.5109581
51
158.8516286
0
ARC
8
DEFAULT_255_1_234
10
16.5576116
20
70.6014074
40
0.38167
50
158.5845963
51
170.1721436
0
ARC
8
DEFAULT_255_1_234
10
16.6745506
20
70.5781823
40
0.5008657
50
169.8376422
51
173.0566086
0
ARC
8
DEFAULT_255_1_234
10
16.204858
20
70.6292509
40
0.4083467
50
2.9091802
51
12.8847116
0
ARC
8
DEFAULT_255_1_234
10
16.3419256
20
70.6615101
40
0.2675383
50
12.6957781
51
28.6404489
0
ARC
8
DEFAULT_255_1_234
10
16.3960927
20
70.6895458
40
0.2065654
50
29.0169854
51
41.1487595
0
ARC
8
DEFAULT_255_1_234
10
16.4163712
20
70.7072003
40
0.1796786
50
41.1646065
51
85.0013516
0
ARC
8
DEFAULT_255_1_234
10
16.4042809
20
70.6337431
40
0.2539726
50
83.7280015
51
90.0964893
0
LINE
8
DEFAULT_255_1_234
10
17.5796997
20
70.7383248
11
17.4303093
21
70.7383248
0
LINE
8
DEFAULT_255_1_234
10
16.8970019
20
70.3921569
11
17.0455891
21
70.3921569
0
ARC
8
DEFAULT_255_1_234
10
17.3114912
20
70.3566959
40
0.1276617
50
359.3334982
51
18.5871358
0
ARC
8
DEFAULT_255_1_234
10
17.3323549
20
70.3622133
40
0.1061371
50
19.3540742
51
54.6485071
0
ARC
8
DEFAULT_255_1_234
10
17.2819451
20
70.2926919
40
0.1920087
50
54.3827097
51
65.0622807
0
ARC
8
DEFAULT_255_1_234
10
17.2050847
20
70.13099
40
0.3710447
50
64.8282493
51
71.4200025
0
ARC
8
DEFAULT_255_1_234
10
17.1148723
20
69.8663107
40
0.6506741
50
71.3164301
51
75.8006402
0
ARC
8
DEFAULT_255_1_234
10
17.0307543
20
69.5422561
40
0.9854641
50
75.6809531
51
78.0061883
0
ARC
8
DEFAULT_255_1_234
10
17.4756076
20
71.640177
40
1.1591028
50
254.6901892
51
258.0466452
0
ARC
8
DEFAULT_255_1_234
10
17.3717984
20
71.2642781
40
0.7691345
50
249.9010773
51
254.755261
0
ARC
8
DEFAULT_255_1_234
10
17.2714326
20
70.9916982
40
0.478665
50
243.3097214
51
249.9709442
0
ARC
8
DEFAULT_255_1_234
10
17.2085348
20
70.8662778
40
0.3383568
50
234.4047477
51
243.2862168
0
ARC
8
DEFAULT_255_1_234
10
17.1462871
20
70.7803232
40
0.2322322
50
220.8667099
51
234.5493881
0
ARC
8
DEFAULT_255_1_234
10
17.1120812
20
70.7491817
40
0.1859923
50
214.3062465
51
220.5065136
0
ARC
8
DEFAULT_255_1_234
10
17.1094891
20
70.746088
40
0.1821108
50
186.912965
51
213.9618616
0
ARC
8
DEFAULT_255_1_234
10
17.1626986
20
70.7547009
40
0.2359799
50
179.8808832
51
187.4339886
0
ARC
8
DEFAULT_255_1_234
10
17.147212
20
70.7567088
40
0.2204978
50
132.005434
51
180.3942919
0
ARC
8
DEFAULT_255_1_234
10
17.2128733
20
70.6961083
40
0.3095791
50
129.2319861
51
133.5302299
0
ARC
8
DEFAULT_255_1_234
10
17.2182241
20
70.6866928
40
0.3202615
50
100.4410011
51
128.9081242
0
ARC
8
DEFAULT_255_1_234
10
17.2456125
20
70.5581455
40
0.4516583
50
89.6985377
51
100.9026564
0
ARC
8
DEFAULT_255_1_234
10
17.2513167
20
70.5421166
40
0.4676928
50
77.6965325
51
90.4076836
0
ARC
8
DEFAULT_255_1_234
10
17.2844151
20
70.6848413
40
0.3211988
50
50.7276602
51
78.0399361
0
ARC
8
DEFAULT_255_1_234
10
17.3288609
20
70.7366296
40
0.2529778
50
25.7545084
51
51.0957453
0
ARC
8
DEFAULT_255_1_234
10
17.3289834
20
70.7416206
40
0.250738
50
359.2468627
51
24.7394243
0
ARC
8
DEFAULT_255_1_234
10
17.3005286
20
70.7387664
40
0.1297815
50
359.8050318
51
45.1544908
0
ARC
8
DEFAULT_255_1_234
10
17.2598428
20
70.7039794
40
0.1831883
50
43.8047702
51
49.6271585
0
ARC
8
DEFAULT_255_1_234
10
17.2606329
20
70.7040678
40
0.18261
50
49.7980766
51
82.1218353
0
ARC
8
DEFAULT_255_1_234
10
17.2487301
20
70.6393998
40
0.2483163
50
81.4465357
51
90.1710293
0
ARC
8
DEFAULT_255_1_234
10
17.2462904
20
70.586788
40
0.300932
50
89.6766211
51
99.1264602
0
ARC
8
DEFAULT_255_1_234
10
17.2291366
20
70.6901537
40
0.1961547
50
98.968313
51
113.4570237
0
ARC
8
DEFAULT_255_1_234
10
17.2095451
20
70.7369965
40
0.1453859
50
113.722589
51
127.4763106
0
ARC
8
DEFAULT_255_1_234
10
17.1927097
20
70.7570124
40
0.1192639
50
126.9083309
51
150.3165862
0
ARC
8
DEFAULT_255_1_234
10
17.187943
20
70.7620981
40
0.112623
50
151.3635175
51
180.0701457
0
ARC
8
DEFAULT_255_1_234
10
17.2188214
20
70.759999
40
0.1435149
50
179.2169974
51
179.9954013
0
ARC
8
DEFAULT_255_1_234
10
17.1827272
20
70.7587056
40
0.1074286
50
179.3040112
51
198.4225446
0
ARC
8
DEFAULT_255_1_234
10
17.1635405
20
70.7537127
40
0.0876573
50
199.2895851
51
238.6034594
0
ARC
8
DEFAULT_255_1_234
10
17.2238252
20
70.848345
40
0.1998512
50
237.9846301
51
246.8744712
0
ARC
8
DEFAULT_255_1_234
10
17.3096197
20
71.0446205
40
0.4140547
50
246.6234531
51
251.8168941
0
ARC
8
DEFAULT_255_1_234
10
17.412674
20
71.3540905
40
0.7402308
50
251.713434
51
255.0778414
0
ARC
8
DEFAULT_255_1_234
10
17.5326003
20
71.8007563
40
1.2027155
50
255.0367487
51
257.4705983
0
ARC
8
DEFAULT_255_1_234
10
17.0218013
20
69.4993863
40
1.1546601
50
73.6837552
51
77.5016755
0
ARC
8
DEFAULT_255_1_234
10
17.1306788
20
69.8693581
40
0.7690009
50
68.7044154
51
73.7249639
0
ARC
8
DEFAULT_255_1_234
10
17.2209809
20
70.1020654
40
0.5193873
50
63.590599
51
68.6626804
0
ARC
8
DEFAULT_255_1_234
10
17.2980827
20
70.2558123
40
0.3473927
50
54.7106439
51
63.7013633
0
ARC
8
DEFAULT_255_1_234
10
17.3605282
20
70.34304
40
0.2401192
50
41.0622434
51
54.8487496
0
ARC
8
DEFAULT_255_1_234
10
17.3946668
20
70.3743592
40
0.1938094
50
34.4950568
51
40.7105546
0
ARC
8
DEFAULT_255_1_234
10
17.3993476
20
70.3792078
40
0.1872106
50
9.3763373
51
34.0833615
0
ARC
8
DEFAULT_255_1_234
10
17.3340346
20
70.3666728
40
0.2536988
50
359.7694872
51
9.7663171
0
ARC
8
DEFAULT_255_1_234
10
17.3537847
20
70.3623764
40
0.2339696
50
335.8654732
51
0.8022045
0
ARC
8
DEFAULT_255_1_234
10
17.3612891
20
70.3637197
40
0.2277108
50
307.7357725
51
334.7849066
0
ARC
8
DEFAULT_255_1_234
10
17.3212067
20
70.4087645
40
0.2878951
50
307.0241536
51
308.5578354
0
ARC
8
DEFAULT_255_1_234
10
17.2954398
20
70.4473801
40
0.3342515
50
282.9362969
51
306.5646424
0
ARC
8
DEFAULT_255_1_234
10
17.2592696
20
70.5941108
40
0.4853615
50
271.1026298
51
283.2200835
0
ARC
8
DEFAULT_255_1_234
10
17.252894
20
70.7182418
40
0.6096052
50
269.9919117
51
271.4772449
0
ARC
8
DEFAULT_255_1_234
10
17.2502695
20
70.6104436
40
0.5018135
50
259.0723564
51
270.289833
0
ARC
8
DEFAULT_255_1_234
10
17.2290427
20
70.4987271
40
0.388099
50
245.4963068
51
259.0227342
0
ARC
8
DEFAULT_255_1_234
10
17.2012383
20
70.4405615
40
0.3236422
50
228.9684658
51
245.7044727
0
ARC
8
DEFAULT_255_1_234
10
17.1746827
20
70.4078575
40
0.2815426
50
214.4011705
51
228.6759915
0
ARC
8
DEFAULT_255_1_234
10
17.1457568
20
70.392029
40
0.2487548
50
179.9705531
51
215.1572795
0
ARC
8
DEFAULT_255_1_234
10
17.2158167
20
70.3993806
40
0.1703809
50
182.4299387
51
203.0329699
0
ARC
8
DEFAULT_255_1_234
10
17.1973825
20
70.3937396
40
0.1512226
50
203.798802
51
232.548466
0
ARC
8
DEFAULT_255_1_234
10
17.2250346
20
70.4288826
40
0.1959374
50
232.3782728
51
256.3934612
0
ARC
8
DEFAULT_255_1_234
10
17.2480708
20
70.5178842
40
0.2878639
50
256.104506
51
268.4626716
0
ARC
8
DEFAULT_255_1_234
10
17.2527192
20
70.5975487
40
0.3676329
50
268.0715632
51
270.0138206
0
ARC
8
DEFAULT_255_1_234
10
17.2545717
20
70.5703083
40
0.3403971
50
269.7031147
51
278.8341955
0
ARC
8
DEFAULT_255_1_234
10
17.272781
20
70.4572876
40
0.2259217
50
278.6728789
51
292.8232582
0
ARC
8
DEFAULT_255_1_234
10
17.2928348
20
70.4071449
40
0.171929
50
293.1452328
51
303.6655899
0
ARC
8
DEFAULT_255_1_234
10
17.3193227
20
70.3695204
40
0.1259367
50
303.1248165
51
321.742847
0
ARC
8
DEFAULT_255_1_234
10
17.3379108
20
70.3532156
40
0.1012531
50
322.4748573
51
1.1291126
0
LINE
8
DEFAULT_255_1_234
10
4.9274119
20
68.2616792
11
4.9274119
21
68.1404
0
LINE
8
DEFAULT_255_1_234
10
4.9274119
20
68.1404
11
4.161184
21
68.1404
0
LINE
8
DEFAULT_255_1_234
10
4.161184
20
68.1404
11
4.161184
21
68.2472221
0
LINE
8
DEFAULT_255_1_234
10
4.161184
20
68.2472221
11
4.5659836
21
68.6969995
0
LINE
8
DEFAULT_255_1_234
10
4.2872823
20
68.9652595
11
4.1386952
21
68.9652595
0
LINE
8
DEFAULT_255_1_234
10
4.6535296
20
68.6014218
11
4.3402918
21
68.2616792
0
LINE
8
DEFAULT_255_1_234
10
4.3402918
20
68.2616792
11
4.9274119
21
68.2616792
0
ARC
8
DEFAULT_255_1_234
10
3.216967
20
69.8899527
40
1.8008286
50
318.5132453
51
320.7828378
0
ARC
8
DEFAULT_255_1_234
10
3.7456644
20
69.4596426
40
1.1191493
50
320.7372736
51
323.9737074
0
ARC
8
DEFAULT_255_1_234
10
4.1376501
20
69.1756361
40
0.6350923
50
323.8961724
51
328.6421089
0
ARC
8
DEFAULT_255_1_234
10
4.3423096
20
69.0494031
40
0.3946393
50
328.8299013
51
331.789948
0
ARC
8
DEFAULT_255_1_234
10
4.4420274
20
68.9979509
40
0.2824501
50
331.4255242
51
352.9364833
0
ARC
8
DEFAULT_255_1_234
10
4.4556775
20
68.9948976
40
0.2685315
50
353.2248685
51
0.0169286
0
ARC
8
DEFAULT_255_1_234
10
4.4766652
20
68.997195
40
0.2475536
50
359.4866256
51
15.9339782
0
ARC
8
DEFAULT_255_1_234
10
4.5273637
20
69.0108286
40
0.1950618
50
16.1714718
51
43.5284424
0
ARC
8
DEFAULT_255_1_234
10
4.5350946
20
69.0185573
40
0.184134
50
43.4415429
51
83.1661404
0
ARC
8
DEFAULT_255_1_234
10
4.5216864
20
68.9448771
40
0.258926
50
82.160215
51
90.1505798
0
ARC
8
DEFAULT_255_1_234
10
4.5185291
20
68.8911865
40
0.3126255
50
89.5460705
51
102.5418777
0
ARC
8
DEFAULT_255_1_234
10
4.4942377
20
68.9942665
40
0.2067346
50
102.1739365
51
129.2061916
0
ARC
8
DEFAULT_255_1_234
10
4.4863449
20
69.0067094
40
0.1921118
50
129.7279328
51
135.7542026
0
ARC
8
DEFAULT_255_1_234
10
4.4984977
20
68.9970045
40
0.2075944
50
136.175737
51
166.3674722
0
ARC
8
DEFAULT_255_1_234
10
4.5991896
20
68.9700182
40
0.3118201
50
165.9092917
51
178.8683903
0
ARC
8
DEFAULT_255_1_234
10
4.6856757
20
68.9653179
40
0.3983935
50
178.438168
51
180.0083905
0
ARC
8
DEFAULT_255_1_234
10
4.5455359
20
68.9692231
40
0.4068601
50
163.2878735
51
180.5581814
0
ARC
8
DEFAULT_255_1_234
10
4.4653621
20
68.991284
40
0.3237344
50
133.454115
51
162.9470031
0
ARC
8
DEFAULT_255_1_234
10
4.4832162
20
68.9723
40
0.349795
50
100.7869394
51
133.4384016
0
ARC
8
DEFAULT_255_1_234
10
4.5179934
20
68.8174319
40
0.5084616
50
89.6605301
51
101.3704185
0
ARC
8
DEFAULT_255_1_234
10
4.5246273
20
68.8235496
40
0.502348
50
78.2171172
51
90.4130393
0
ARC
8
DEFAULT_255_1_234
10
4.5601351
20
68.9859637
40
0.3361092
50
55.9268222
51
78.4888551
0
ARC
8
DEFAULT_255_1_234
10
4.5797791
20
69.0198324
40
0.2970617
50
47.9292255
51
55.4054003
0
ARC
8
DEFAULT_255_1_234
10
4.5899352
20
69.0301502
40
0.2825983
50
4.3347696
51
48.0560701
0
ARC
8
DEFAULT_255_1_234
10
4.4803745
20
69.0131601
40
0.393225
50
359.925209
51
5.5967654
0
ARC
8
DEFAULT_255_1_234
10
4.5232637
20
69.0187816
40
0.3503892
50
337.8914096
51
358.9967724
0
ARC
8
DEFAULT_255_1_234
10
4.2519049
20
69.1234706
40
0.6412172
50
326.9135351
51
338.3505194
0
ARC
8
DEFAULT_255_1_234
10
3.8533353
20
69.3789284
40
1.1146189
50
319.6472867
51
327.095818
0
ARC
8
DEFAULT_255_1_234
10
3.4700356
20
69.6951
40
1.6114559
50
317.2586784
51
319.9046139
0
LINE
8
DEFAULT_255_1_234
10
5.6414334
20
69.3106243
11
5.6679381
21
69.3106243
0
LINE
8
DEFAULT_255_1_234
10
5.6679381
20
69.3106243
11
5.6679381
21
69.184526
0
LINE
8
DEFAULT_255_1_234
10
5.6679381
20
69.184526
11
5.6406302
21
69.184526
0
LINE
8
DEFAULT_255_1_234
10
5.0936688
20
68.5853583
11
5.0936688
21
68.6423836
0
LINE
8
DEFAULT_255_1_234
10
5.2430592
20
68.6231075
11
5.2430592
21
68.5684917
0
ARC
8
DEFAULT_255_1_234
10
5.645865
20
68.6847455
40
0.4998079
50
90.6001036
51
104.514704
0
ARC
8
DEFAULT_255_1_234
10
5.6070166
20
68.8292131
40
0.3502176
50
104.2855254
51
133.862935
0
ARC
8
DEFAULT_255_1_234
10
5.6233923
20
68.818383
40
0.3693984
50
134.5302688
51
161.6210873
0
ARC
8
DEFAULT_255_1_234
10
5.7887112
20
68.7600895
40
0.5446739
50
161.2849839
51
174.2076652
0
ARC
8
DEFAULT_255_1_234
10
5.9294049
20
68.7406787
40
0.6866274
50
173.7810589
51
174.9254635
0
ARC
8
DEFAULT_255_1_234
10
5.4743881
20
68.6023839
40
0.3033419
50
95.8330959
51
138.9954921
0
ARC
8
DEFAULT_255_1_234
10
5.4967237
20
68.4745375
40
0.4328947
50
89.8753725
51
97.0544009
0
ARC
8
DEFAULT_255_1_234
10
5.5014703
20
68.5580748
40
0.3493769
50
71.6407809
51
90.6240094
0
ARC
8
DEFAULT_255_1_234
10
5.5165276
20
68.6135082
40
0.2920396
50
39.6367836
51
71.019018
0
ARC
8
DEFAULT_255_1_234
10
5.4528749
20
68.5584998
40
0.3761538
50
10.658731
51
39.9043955
0
ARC
8
DEFAULT_255_1_234
10
5.2980832
20
68.5248686
40
0.5345136
50
359.682601
51
11.132623
0
ARC
8
DEFAULT_255_1_234
10
5.2940963
20
68.517801
40
0.5385081
50
347.2486944
51
0.4369317
0
ARC
8
DEFAULT_255_1_234
10
5.460844
20
68.4776807
40
0.3670249
50
318.1409698
51
347.6118597
0
ARC
8
DEFAULT_255_1_234
10
5.4933433
20
68.4509702
40
0.3250007
50
275.6342139
51
317.8248465
0
ARC
8
DEFAULT_255_1_234
10
5.4712544
20
68.5809219
40
0.4565864
50
269.8874292
51
276.7917694
0
ARC
8
DEFAULT_255_1_234
10
5.4657615
20
68.4783743
40
0.3540676
50
246.9140195
51
270.7437342
0
ARC
8
DEFAULT_255_1_234
10
5.4664005
20
68.4641384
40
0.3412781
50
218.1665114
51
245.878116
0
ARC
8
DEFAULT_255_1_234
10
5.5543466
20
68.5377279
40
0.455911
50
191.4115814
51
218.6077802
0
ARC
8
DEFAULT_255_1_234
10
5.7481555
20
68.5811833
40
0.6545001
50
179.6345085
51
191.7836486
0
ARC
8
DEFAULT_255_1_234
10
6.3063892
20
68.6490697
40
1.2127388
50
171.4525249
51
180.3158839
0
ARC
8
DEFAULT_255_1_234
10
5.8668768
20
68.7174608
40
0.7679464
50
157.9802646
51
171.6246686
0
ARC
8
DEFAULT_255_1_234
10
5.6454789
20
68.8057421
40
0.5296008
50
141.4298019
51
157.854097
0
ARC
8
DEFAULT_255_1_234
10
5.5813109
20
68.8511381
40
0.4511509
50
102.8715806
51
140.8564722
0
ARC
8
DEFAULT_255_1_234
10
5.6460725
20
68.6071552
40
0.7034845
50
90.3778349
51
103.5869322
0
ARC
8
DEFAULT_255_1_234
10
5.4722501
20
68.546673
40
0.2370698
50
89.8751008
51
126.2071704
0
ARC
8
DEFAULT_255_1_234
10
5.4768291
20
68.5312303
40
0.2522934
50
124.9745049
51
144.895901
0
ARC
8
DEFAULT_255_1_234
10
5.4592481
20
68.545556
40
0.2296779
50
145.2974905
51
160.2660252
0
ARC
8
DEFAULT_255_1_234
10
5.766502
20
68.5653071
40
0.5234525
50
179.6514266
51
190.2855912
0
ARC
8
DEFAULT_255_1_234
10
5.5971157
20
68.5333786
40
0.3510893
50
190.0945431
51
207.5098196
0
ARC
8
DEFAULT_255_1_234
10
5.5405427
20
68.5064623
40
0.288489
50
207.9583163
51
216.3251085
0
ARC
8
DEFAULT_255_1_234
10
5.5065535
20
68.4785105
40
0.2445587
50
215.7661442
51
232.5456785
0
ARC
8
DEFAULT_255_1_234
10
5.4682518
20
68.4298482
40
0.1826382
50
232.8005391
51
270.6605633
0
ARC
8
DEFAULT_255_1_234
10
5.4728219
20
68.4662612
40
0.2190529
50
269.35537
51
288.4744281
0
ARC
8
DEFAULT_255_1_234
10
5.4821116
20
68.4313118
40
0.1829749
50
289.1833337
51
322.9683818
0
ARC
8
DEFAULT_255_1_234
10
5.4209638
20
68.4795391
40
0.2608399
50
322.6007884
51
346.5182367
0
ARC
8
DEFAULT_255_1_234
10
5.3052234
20
68.5090616
40
0.3802777
50
346.2582162
51
358.7741648
0
ARC
8
DEFAULT_255_1_234
10
5.2033903
20
68.5145965
40
0.4822176
50
358.3755224
51
0.0098023
0
ARC
8
DEFAULT_255_1_234
10
5.279009
20
68.5173657
40
0.4066078
50
359.6214041
51
11.2839074
0
ARC
8
DEFAULT_255_1_234
10
5.4067237
20
68.5440066
40
0.2761514
50
11.0482309
51
31.8146458
0
ARC
8
DEFAULT_255_1_234
10
5.437628
20
68.5607584
40
0.2410679
50
32.3035391
51
38.082671
0
ARC
8
DEFAULT_255_1_234
10
5.479694
20
68.5988662
40
0.1844966
50
36.825067
51
85.7415724
0
ARC
8
DEFAULT_255_1_234
10
5.4729773
20
68.5488301
40
0.2349122
50
85.0140713
51
90.0513278
0
LINE
8
DEFAULT_255_1_234
10
6.101652
20
69.3098211
11
6.434166
21
68.3452093
0
LINE
8
DEFAULT_255_1_234
10
6.434166
20
68.3452093
11
6.7682863
21
69.3098211
0
LINE
8
DEFAULT_255_1_234
10
6.7682863
20
69.3098211
11
6.9369528
21
69.3098211
0
LINE
8
DEFAULT_255_1_234
10
6.9369528
20
69.3098211
11
6.5032389
21
68.1404
0
LINE
8
DEFAULT_255_1_234
10
6.5032389
20
68.1404
11
6.3666994
21
68.1404
0
LINE
8
DEFAULT_255_1_234
10
6.3666994
20
68.1404
11
5.9337887
21
69.3098211
0
LINE
8
DEFAULT_255_1_234
10
5.9337887
20
69.3098211
11
6.101652
21
69.3098211
0
LINE
8
DEFAULT_255_1_234
10
4.9824023
20
5.4716849
11
4.8273897
21
5.4716849
0
LINE
8
DEFAULT_255_1_234
10
4.1350539
20
4.9793394
11
4.2900665
21
4.9793394
0
ARC
8
DEFAULT_255_1_234
10
4.893271
20
6.3663768
40
1.252368
50
248.9199003
51
254.1439814
0
ARC
8
DEFAULT_255_1_234
10
4.7252205
20
5.9337234
40
0.788226
50
241.633709
51
249.0064503
0
ARC
8
DEFAULT_255_1_234
10
4.57236
20
5.6536317
40
0.4691427
50
230.498225
51
241.8087113
0
ARC
8
DEFAULT_255_1_234
10
4.4939174
20
5.5536906
40
0.3421437
50
227.4064532
51
229.9881192
0
ARC
8
DEFAULT_255_1_234
10
4.4451694
20
5.5061088
40
0.2741476
50
200.6781896
51
228.1763934
0
ARC
8
DEFAULT_255_1_234
10
4.4524005
20
5.5046077
40
0.2804109
50
179.5061581
51
199.8694617
0
ARC
8
DEFAULT_255_1_234
10
4.4514757
20
5.512021
40
0.2795204
50
132.4834203
51
181.0242172
0
ARC
8
DEFAULT_255_1_234
10
4.5110339
20
5.4557704
40
0.3612768
50
129.2532479
51
133.4242687
0
ARC
8
DEFAULT_255_1_234
10
4.5256789
20
5.4337965
40
0.3875675
50
101.98776
51
128.8742646
0
ARC
8
DEFAULT_255_1_234
10
4.5655399
20
5.2616741
40
0.5642249
50
89.5906553
51
102.3169264
0
ARC
8
DEFAULT_255_1_234
10
4.5725891
20
5.2935148
40
0.5323783
50
77.2360837
51
90.3248275
0
ARC
8
DEFAULT_255_1_234
10
4.5932971
20
5.39024
40
0.4334697
50
63.837784
51
77.0809408
0
ARC
8
DEFAULT_255_1_234
10
4.6210732
20
5.4419911
40
0.3747796
50
45.9864267
51
64.1607727
0
ARC
8
DEFAULT_255_1_234
10
4.6471614
20
5.4717866
40
0.3352302
50
32.2747395
51
45.6547121
0
ARC
8
DEFAULT_255_1_234
10
4.6538054
20
5.473688
40
0.328603
50
359.6507365
51
32.6130309
0
ARC
8
DEFAULT_255_1_234
10
4.559515
20
5.474166
40
0.2678863
50
359.469343
51
14.9832209
0
ARC
8
DEFAULT_255_1_234
10
4.6300212
20
5.4930539
40
0.1948938
50
14.9781179
51
48.2004265
0
ARC
8
DEFAULT_255_1_234
10
4.6135856
20
5.4723983
40
0.2212521
50
48.5927837
51
74.1241538
0
ARC
8
DEFAULT_255_1_234
10
4.5802346
20
5.3623248
40
0.3362561
50
73.7888341
51
86.6652678
0
ARC
8
DEFAULT_255_1_234
10
4.5699911
20
5.2415881
40
0.4573953
50
86.2640471
51
90.0526343
0
ARC
8
DEFAULT_255_1_234
10
4.5671624
20
5.2811192
40
0.4178709
50
89.6697524
51
99.2309573
0
ARC
8
DEFAULT_255_1_234
10
4.5429075
20
5.4255964
40
0.2713749
50
99.069534
51
113.7658566
0
ARC
8
DEFAULT_255_1_234
10
4.5155266
20
5.4901677
40
0.2012469
50
114.0401004
51
127.9850673
0
ARC
8
DEFAULT_255_1_234
10
4.491483
20
5.519773
40
0.1631167
50
127.7287463
51
176.7105154
0
ARC
8
DEFAULT_255_1_234
10
4.5593547
20
5.5096693
40
0.2315392
50
175.1779447
51
180.0581938
0
ARC
8
DEFAULT_255_1_234
10
4.4750394
20
5.5084428
40
0.1472271
50
179.6142195
51
228.1246017
0
ARC
8
DEFAULT_255_1_234
10
4.5192063
20
5.5493308
40
0.2072299
50
226.5779593
51
230.8800004
0
ARC
8
DEFAULT_255_1_234
10
4.5663141
20
5.6118636
40
0.2854818
50
231.4635071
51
241.9260842
0
ARC
8
DEFAULT_255_1_234
10
4.6860319
20
5.83218
40
0.53622
50
241.7178533
51
248.3259551
0
ARC
8
DEFAULT_255_1_234
10
4.8245691
20
6.1754064
40
0.9063478
50
248.2007737
51
252.4528373
0
ARC
8
DEFAULT_255_1_234
10
4.9449416
20
6.5475441
40
1.2974635
50
252.3391078
51
254.3469452
0
ARC
8
DEFAULT_255_1_234
10
4.1907119
20
3.8498148
40
1.5037162
50
71.0197183
51
74.4087047
0
ARC
8
DEFAULT_255_1_234
10
4.3601804
20
4.3390111
40
0.9859993
50
66.1847285
51
71.086374
0
ARC
8
DEFAULT_255_1_234
10
4.5158116
20
4.68942
40
0.6025855
50
59.3536294
51
66.2691831
0
ARC
8
DEFAULT_255_1_234
10
4.6046769
20
4.8397609
40
0.4279449
50
49.1020879
51
59.3293958
0
ARC
8
DEFAULT_255_1_234
10
4.6865509
20
4.9330834
40
0.3038015
50
32.7919921
51
49.2505539
0
ARC
8
DEFAULT_255_1_234
10
4.7186599
20
4.9559191
40
0.264448
50
31.1181161
51
32.4005348
0
ARC
8
DEFAULT_255_1_234
10
4.7098136
20
4.9523779
40
0.2738556
50
8.1116974
51
30.7958831
0
ARC
8
DEFAULT_255_1_234
10
4.6287804
20
4.9385753
40
0.3560327
50
359.8389159
51
8.4706516
0
ARC
8
DEFAULT_255_1_234
10
4.6913596
20
4.9337137
40
0.2934776
50
337.4731098
51
0.7537279
0
ARC
8
DEFAULT_255_1_234
10
4.7092291
20
4.9317387
40
0.2762607
50
307.5917067
51
336.4315538
0
ARC
8
DEFAULT_255_1_234
10
4.6632119
20
4.9830102
40
0.3449979
50
307.6551545
51
308.4529766
0
ARC
8
DEFAULT_255_1_234
10
4.6401838
20
5.018525
40
0.3871988
50
284.3734338
51
307.1424381
0
ARC
8
DEFAULT_255_1_234
10
4.5906668
20
5.2006932
40
0.5759636
50
272.4382747
51
284.646547
0
ARC
8
DEFAULT_255_1_234
10
4.5779876
20
5.3806893
40
0.7563528
50
269.9708387
51
272.8178037
0
ARC
8
DEFAULT_255_1_234
10
4.5736916
20
5.1768716
40
0.5525489
50
248.2707594
51
270.4055579
0
ARC
8
DEFAULT_255_1_234
10
4.5682657
20
5.1578192
40
0.5328452
50
246.1383403
51
248.0542782
0
ARC
8
DEFAULT_255_1_234
10
4.5264036
20
5.0698843
40
0.4355005
50
233.1670131
51
246.4950969
0
ARC
8
DEFAULT_255_1_234
10
4.4709941
20
4.9950812
40
0.3424126
50
215.3403242
51
233.0843104
0
ARC
8
DEFAULT_255_1_234
10
4.4437372
20
4.9752549
40
0.3087104
50
179.2419209
51
215.2648451
0
ARC
8
DEFAULT_255_1_234
10
4.5204966
20
4.9766666
40
0.2304457
50
179.335461
51
199.1045811
0
ARC
8
DEFAULT_255_1_234
10
4.4872643
20
4.9679766
40
0.1962176
50
199.8828939
51
232.7063202
0
ARC
8
DEFAULT_255_1_234
10
4.5344911
20
5.0273788
40
0.2720938
50
232.3738199
51
255.5136649
0
ARC
8
DEFAULT_255_1_234
10
4.5685778
20
5.1517835
40
0.4010747
50
255.2446292
51
267.5320849
0
ARC
8
DEFAULT_255_1_234
10
4.5773401
20
5.2750702
40
0.5246356
50
267.1557994
51
270.0286766
0
ARC
8
DEFAULT_255_1_234
10
4.5801173
20
5.230695
40
0.4802668
50
269.7000017
51
278.1660162
0
ARC
8
DEFAULT_255_1_234
10
4.6057178
20
5.0576515
40
0.3053425
50
278.0231263
51
290.625471
0
ARC
8
DEFAULT_255_1_234
10
4.6404865
20
4.9649025
40
0.206291
50
290.6619762
51
307.0370976
0
ARC
8
DEFAULT_255_1_234
10
4.6705254
20
4.9280504
40
0.1587906
50
306.3943566
51
355.3030547
0
ARC
8
DEFAULT_255_1_234
10
4.6193186
20
4.9357113
40
0.2104809
50
354.3660432
51
0.0698737
0
ARC
8
DEFAULT_255_1_234
10
4.6335531
20
4.9379617
40
0.1962563
50
359.417946
51
16.1971788
0
ARC
8
DEFAULT_255_1_234
10
4.6790841
20
4.9504418
40
0.149053
50
16.4723299
51
52.6262157
0
ARC
8
DEFAULT_255_1_234
10
4.5969895
20
4.8420433
40
0.2850296
50
52.7386432
51
62.4979148
0
ARC
8
DEFAULT_255_1_234
10
4.4584972
20
4.5814283
40
0.5801521
50
62.2515216
51
68.1220564
0
ARC
8
DEFAULT_255_1_234
10
4.2864883
20
4.1586872
40
1.0365451
50
68.0062803
51
71.8053402
0
ARC
8
DEFAULT_255_1_234
10
4.1069255
20
3.6201758
40
1.6042013
50
71.7183119
51
73.9258742
0
LINE
8
DEFAULT_255_1_234
10
5.771119
20
5.8098211
11
5.771119
21
5.033152
0
LINE
8
DEFAULT_255_1_234
10
5.771119
20
5.033152
11
5.9333601
21
5.033152
0
LINE
8
DEFAULT_255_1_234
10
5.9333601
20
5.033152
11
5.9333601
21
4.9118728
0
LINE
8
DEFAULT_255_1_234
10
5.9333601
20
4.9118728
11
5.771119
21
4.9118728
0
LINE
8
DEFAULT_255_1_234
10
5.771119
20
4.9118728
11
5.771119
21
4.6404
0
LINE
8
DEFAULT_255_1_234
10
5.771119
20
4.6404
11
5.6217287
21
4.6404
0
LINE
8
DEFAULT_255_1_234
10
5.6217287
20
4.6404
11
5.6217287
21
4.9118728
0
LINE
8
DEFAULT_255_1_234
10
5.6217287
20
4.9118728
11
5.0892244
21
4.9118728
0
LINE
8
DEFAULT_255_1_234
10
5.0892244
20
4.9118728
11
5.0892244
21
4.9994187
0
LINE
8
DEFAULT_255_1_234
10
5.0892244
20
4.9994187
11
5.6128938
21
5.8098211
0
LINE
8
DEFAULT_255_1_234
10
5.6128938
20
5.8098211
11
5.771119
21
5.8098211
0
LINE
8
DEFAULT_255_1_234
10
5.6040588
20
5.5744912
11
5.2578909
21
5.033152
0
LINE
8
DEFAULT_255_1_234
10
5.2578909
20
5.033152
11
5.6217287
21
5.033152
0
LINE
8
DEFAULT_255_1_234
10
5.6217287
20
5.033152
11
5.6217287
21
5.6066181
0
LINE
8
DEFAULT_255_1_234
10
5.6217287
20
5.6066181
11
5.6040588
21
5.5744912
0
LINE
8
DEFAULT_255_1_234
10
4.5877344
20
13.0357091
11
4.3122458
21
13.0357091
0
LINE
8
DEFAULT_255_1_234
10
4.3122458
20
13.0357091
11
4.3122458
21
12.5779
0
LINE
8
DEFAULT_255_1_234
10
4.3122458
20
12.5779
11
4.1580364
21
12.5779
0
LINE
8
DEFAULT_255_1_234
10
4.1580364
20
12.5779
11
4.1580364
21
13.7473211
0
LINE
8
DEFAULT_255_1_234
10
4.1580364
20
13.7473211
11
4.5893407
21
13.7473211
0
LINE
8
DEFAULT_255_1_234
10
4.3122458
20
13.6204196
11
4.3122458
21
13.1618074
0
LINE
8
DEFAULT_255_1_234
10
4.3122458
20
13.1618074
11
4.5893407
21
13.1618074
0
LINE
8
DEFAULT_255_1_234
10
4.5981756
20
13.6204196
11
4.3122458
21
13.6204196
0
ARC
8
DEFAULT_255_1_234
10
4.5935534
20
13.1414195
40
0.6059162
50
78.8378113
51
90.3983573
0
ARC
8
DEFAULT_255_1_234
10
4.6351548
20
13.3434879
40
0.3996205
50
58.9632738
51
79.0810598
0
ARC
8
DEFAULT_255_1_234
10
4.665309
20
13.3994721
40
0.3361177
50
48.0197965
51
58.447194
0
ARC
8
DEFAULT_255_1_234
10
4.6741951
20
13.4080225
40
0.3238191
50
3.3375044
51
48.1766626
0
ARC
8
DEFAULT_255_1_234
10
4.551179
20
13.3903171
40
0.4477806
50
359.9477528
51
4.6829065
0
ARC
8
DEFAULT_255_1_234
10
4.5635107
20
13.3860628
40
0.4354656
50
346.1877825
51
0.5060252
0
ARC
8
DEFAULT_255_1_234
10
4.6993975
20
13.3507731
40
0.295089
50
310.8831995
51
346.5426355
0
ARC
8
DEFAULT_255_1_234
10
4.6685395
20
13.3924695
40
0.3468331
50
286.6925341
51
310.2288297
0
ARC
8
DEFAULT_255_1_234
10
4.6116226
20
13.5714882
40
0.5346654
50
274.6850312
51
287.0245141
0
ARC
8
DEFAULT_255_1_234
10
4.5890949
20
13.7923932
40
0.7566852
50
269.8969846
51
275.018904
0
ARC
8
DEFAULT_255_1_234
10
4.591854
20
13.5844707
40
0.4226708
50
269.6593078
51
279.4153575
0
ARC
8
DEFAULT_255_1_234
10
4.6175815
20
13.4354133
40
0.2714146
50
279.2049762
51
294.9900808
0
ARC
8
DEFAULT_255_1_234
10
4.6466141
20
13.3706508
40
0.2004525
50
295.2888114
51
311.2911209
0
ARC
8
DEFAULT_255_1_234
10
4.6537035
20
13.360122
40
0.1878703
50
311.7854996
51
347.2861051
0
ARC
8
DEFAULT_255_1_234
10
4.5553194
20
13.3854092
40
0.2894234
50
346.6893224
51
0.1059443
0
ARC
8
DEFAULT_255_1_234
10
4.4798089
20
13.3882685
40
0.3649409
50
359.6350983
51
0.0053152
0
ARC
8
DEFAULT_255_1_234
10
4.5768417
20
13.3907937
40
0.2679199
50
359.4672059
51
15.5933957
0
ARC
8
DEFAULT_255_1_234
10
4.6393306
20
13.4076779
40
0.2031932
50
15.7442113
51
46.6203375
0
ARC
8
DEFAULT_255_1_234
10
4.6245527
20
13.3906484
40
0.2257226
50
46.8628658
51
75.6676503
0
ARC
8
DEFAULT_255_1_234
10
4.5951347
20
13.2847718
40
0.3355939
50
75.276167
51
88.2915297
0
ARC
8
DEFAULT_255_1_234
10
4.5893054
20
13.1969524
40
0.4235602
50
87.8575022
51
88.8000139
0
LINE
8
DEFAULT_255_1_234
10
5.7844634
20
13.7473211
11
5.7844634
21
12.970652
0
LINE
8
DEFAULT_255_1_234
10
5.7844634
20
12.970652
11
5.9467045
21
12.970652
0
LINE
8
DEFAULT_255_1_234
10
5.9467045
20
12.970652
11
5.9467045
21
12.8493728
0
LINE
8
DEFAULT_255_1_234
10
5.9467045
20
12.8493728
11
5.7844634
21
12.8493728
0
LINE
8
DEFAULT_255_1_234
10
5.7844634
20
12.8493728
11
5.7844634
21
12.5779
0
LINE
8
DEFAULT_255_1_234
10
5.7844634
20
12.5779
11
5.635073
21
12.5779
0
LINE
8
DEFAULT_255_1_234
10
5.635073
20
12.5779
11
5.635073
21
12.8493728
0
LINE
8
DEFAULT_255_1_234
10
5.635073
20
12.8493728
11
5.1025688
21
12.8493728
0
LINE
8
DEFAULT_255_1_234
10
5.1025688
20
12.8493728
11
5.1025688
21
12.9369187
0
LINE
8
DEFAULT_255_1_234
10
5.1025688
20
12.9369187
11
5.6262381
21
13.7473211
0
LINE
8
DEFAULT_255_1_234
10
5.6262381
20
13.7473211
11
5.7844634
21
13.7473211
0
LINE
8
DEFAULT_255_1_234
10
5.6174032
20
13.5119912
11
5.2712353
21
12.970652
0
LINE
8
DEFAULT_255_1_234
10
5.2712353
20
12.970652
11
5.635073
21
12.970652
0
LINE
8
DEFAULT_255_1_234
10
5.635073
20
12.970652
11
5.635073
21
13.5441181
0
LINE
8
DEFAULT_255_1_234
10
5.635073
20
13.5441181
11
5.6174032
21
13.5119912
0
LINE
8
DEFAULT_255_1_234
10
6.521777
20
13.5465276
11
6.521777
21
13.2051788
0
LINE
8
DEFAULT_255_1_234
10
6.521777
20
13.2051788
11
6.8478655
21
13.2051788
0
LINE
8
DEFAULT_255_1_234
10
6.8478655
20
13.2051788
11
6.8478655
21
13.0646233
0
LINE
8
DEFAULT_255_1_234
10
6.8478655
20
13.0646233
11
6.521777
21
13.0646233
0
LINE
8
DEFAULT_255_1_234
10
6.521777
20
13.0646233
11
6.521777
21
12.6951634
0
LINE
8
DEFAULT_255_1_234
10
6.521777
20
12.6951634
11
6.3723866
21
12.6951634
0
LINE
8
DEFAULT_255_1_234
10
6.3723866
20
12.6951634
11
6.3723866
21
13.0646233
0
LINE
8
DEFAULT_255_1_234
10
6.3723866
20
13.0646233
11
6.046298
21
13.0646233
0
LINE
8
DEFAULT_255_1_234
10
6.046298
20
13.0646233
11
6.046298
21
13.2051788
0
LINE
8
DEFAULT_255_1_234
10
6.046298
20
13.2051788
11
6.3723866
21
13.2051788
0
LINE
8
DEFAULT_255_1_234
10
6.3723866
20
13.2051788
11
6.3723866
21
13.5465276
0
LINE
8
DEFAULT_255_1_234
10
6.3723866
20
13.5465276
11
6.521777
21
13.5465276
0
LINE
8
DEFAULT_255_1_234
10
4.8766023
20
21.3466849
11
4.7215897
21
21.3466849
0
LINE
8
DEFAULT_255_1_234
10
4.0292539
20
20.8543394
11
4.1842665
21
20.8543394
0
ARC
8
DEFAULT_255_1_234
10
4.787471
20
22.2413768
40
1.252368
50
248.9199003
51
254.1439814
0
ARC
8
DEFAULT_255_1_234
10
4.6194205
20
21.8087234
40
0.788226
50
241.633709
51
249.0064503
0
ARC
8
DEFAULT_255_1_234
10
4.46656
20
21.5286317
40
0.4691427
50
230.498225
51
241.8087113
0
ARC
8
DEFAULT_255_1_234
10
4.3881174
20
21.4286906
40
0.3421437
50
227.4064532
51
229.9881192
0
ARC
8
DEFAULT_255_1_234
10
4.3393694
20
21.3811088
40
0.2741476
50
200.6781896
51
228.1763934
0
ARC
8
DEFAULT_255_1_234
10
4.3466005
20
21.3796077
40
0.2804109
50
179.5061581
51
199.8694617
0
ARC
8
DEFAULT_255_1_234
10
4.3456757
20
21.387021
40
0.2795204
50
132.4834203
51
181.0242172
0
ARC
8
DEFAULT_255_1_234
10
4.4052339
20
21.3307704
40
0.3612768
50
129.2532479
51
133.4242687
0
ARC
8
DEFAULT_255_1_234
10
4.4198789
20
21.3087965
40
0.3875675
50
101.98776
51
128.8742646
0
ARC
8
DEFAULT_255_1_234
10
4.4597399
20
21.1366741
40
0.5642249
50
89.5906553
51
102.3169264
0
ARC
8
DEFAULT_255_1_234
10
4.4667891
20
21.1685148
40
0.5323783
50
77.2360837
51
90.3248275
0
ARC
8
DEFAULT_255_1_234
10
4.4874971
20
21.26524
40
0.4334697
50
63.837784
51
77.0809408
0
ARC
8
DEFAULT_255_1_234
10
4.5152732
20
21.3169911
40
0.3747796
50
45.9864267
51
64.1607727
0
ARC
8
DEFAULT_255_1_234
10
4.5413614
20
21.3467866
40
0.3352302
50
32.2747395
51
45.6547121
0
ARC
8
DEFAULT_255_1_234
10
4.5480054
20
21.348688
40
0.328603
50
359.6507365
51
32.6130309
0
ARC
8
DEFAULT_255_1_234
10
4.453715
20
21.349166
40
0.2678863
50
359.469343
51
14.9832209
0
ARC
8
DEFAULT_255_1_234
10
4.5242212
20
21.3680539
40
0.1948938
50
14.9781179
51
48.2004265
0
ARC
8
DEFAULT_255_1_234
10
4.5077856
20
21.3473983
40
0.2212521
50
48.5927837
51
74.1241538
0
ARC
8
DEFAULT_255_1_234
10
4.4744346
20
21.2373248
40
0.3362561
50
73.7888341
51
86.6652678
0
ARC
8
DEFAULT_255_1_234
10
4.4641911
20
21.1165881
40
0.4573953
50
86.2640471
51
90.0526343
0
ARC
8
DEFAULT_255_1_234
10
4.4613624
20
21.1561192
40
0.4178709
50
89.6697524
51
99.2309573
0
ARC
8
DEFAULT_255_1_234
10
4.4371075
20
21.3005964
40
0.2713749
50
99.069534
51
113.7658566
0
ARC
8
DEFAULT_255_1_234
10
4.4097266
20
21.3651677
40
0.2012469
50
114.0401004
51
127.9850673
0
ARC
8
DEFAULT_255_1_234
10
4.385683
20
21.394773
40
0.1631167
50
127.7287463
51
176.7105154
0
ARC
8
DEFAULT_255_1_234
10
4.4535547
20
21.3846693
40
0.2315392
50
175.1779447
51
180.0581938
0
ARC
8
DEFAULT_255_1_234
10
4.3692394
20
21.3834428
40
0.1472271
50
179.6142195
51
228.1246017
0
ARC
8
DEFAULT_255_1_234
10
4.4134063
20
21.4243308
40
0.2072299
50
226.5779593
51
230.8800004
0
ARC
8
DEFAULT_255_1_234
10
4.4605141
20
21.4868636
40
0.2854818
50
231.4635071
51
241.9260842
0
ARC
8
DEFAULT_255_1_234
10
4.5802319
20
21.70718
40
0.53622
50
241.7178533
51
248.3259551
0
ARC
8
DEFAULT_255_1_234
10
4.7187691
20
22.0504064
40
0.9063478
50
248.2007737
51
252.4528373
0
ARC
8
DEFAULT_255_1_234
10
4.8391416
20
22.4225441
40
1.2974635
50
252.3391078
51
254.3469452
0
ARC
8
DEFAULT_255_1_234
10
4.0849119
20
19.7248148
40
1.5037162
50
71.0197183
51
74.4087047
0
ARC
8
DEFAULT_255_1_234
10
4.2543804
20
20.2140111
40
0.9859993
50
66.1847285
51
71.086374
0
ARC
8
DEFAULT_255_1_234
10
4.4100116
20
20.56442
40
0.6025855
50
59.3536294
51
66.2691831
0
ARC
8
DEFAULT_255_1_234
10
4.4988769
20
20.7147609
40
0.4279449
50
49.1020879
51
59.3293958
0
ARC
8
DEFAULT_255_1_234
10
4.5807509
20
20.8080834
40
0.3038015
50
32.7919921
51
49.2505539
0
ARC
8
DEFAULT_255_1_234
10
4.6128599
20
20.8309191
40
0.264448
50
31.1181161
51
32.4005348
0
ARC
8
DEFAULT_255_1_234
10
4.6040136
20
20.8273779
40
0.2738556
50
8.1116974
51
30.7958831
0
ARC
8
DEFAULT_255_1_234
10
4.5229804
20
20.8135753
40
0.3560327
50
359.8389159
51
8.4706516
0
ARC
8
DEFAULT_255_1_234
10
4.5855596
20
20.8087137
40
0.2934776
50
337.4731098
51
0.7537279
0
ARC
8
DEFAULT_255_1_234
10
4.6034291
20
20.8067387
40
0.2762607
50
307.5917067
51
336.4315538
0
ARC
8
DEFAULT_255_1_234
10
4.5574119
20
20.8580102
40
0.3449979
50
307.6551545
51
308.4529766
0
ARC
8
DEFAULT_255_1_234
10
4.5343838
20
20.893525
40
0.3871988
50
284.3734338
51
307.1424381
0
ARC
8
DEFAULT_255_1_234
10
4.4848668
20
21.0756932
40
0.5759636
50
272.4382747
51
284.646547
0
ARC
8
DEFAULT_255_1_234
10
4.4721876
20
21.2556893
40
0.7563528
50
269.9708387
51
272.8178037
0
ARC
8
DEFAULT_255_1_234
10
4.4678916
20
21.0518716
40
0.5525489
50
248.2707594
51
270.4055579
0
ARC
8
DEFAULT_255_1_234
10
4.4624657
20
21.0328192
40
0.5328452
50
246.1383403
51
248.0542782
0
ARC
8
DEFAULT_255_1_234
10
4.4206036
20
20.9448843
40
0.4355005
50
233.1670131
51
246.4950969
0
ARC
8
DEFAULT_255_1_234
10
4.3651941
20
20.8700812
40
0.3424126
50
215.3403242
51
233.0843104
0
ARC
8
DEFAULT_255_1_234
10
4.3379372
20
20.8502549
40
0.3087104
50
179.2419209
51
215.2648451
0
ARC
8
DEFAULT_255_1_234
10
4.4146966
20
20.8516666
40
0.2304457
50
179.335461
51
199.1045811
0
ARC
8
DEFAULT_255_1_234
10
4.3814643
20
20.8429766
40
0.1962176
50
199.8828939
51
232.7063202
0
ARC
8
DEFAULT_255_1_234
10
4.4286911
20
20.9023788
40
0.2720938
50
232.3738199
51
255.5136649
0
ARC
8
DEFAULT_255_1_234
10
4.4627778
20
21.0267835
40
0.4010747
50
255.2446292
51
267.5320849
0
ARC
8
DEFAULT_255_1_234
10
4.4715401
20
21.1500702
40
0.5246356
50
267.1557994
51
270.0286766
0
ARC
8
DEFAULT_255_1_234
10
4.4743173
20
21.105695
40
0.4802668
50
269.7000017
51
278.1660162
0
ARC
8
DEFAULT_255_1_234
10
4.4999178
20
20.9326515
40
0.3053425
50
278.0231263
51
290.625471
0
ARC
8
DEFAULT_255_1_234
10
4.5346865
20
20.8399025
40
0.206291
50
290.6619762
51
307.0370976
0
ARC
8
DEFAULT_255_1_234
10
4.5647254
20
20.8030504
40
0.1587906
50
306.3943566
51
355.3030547
0
ARC
8
DEFAULT_255_1_234
10
4.5135186
20
20.8107113
40
0.2104809
50
354.3660432
51
0.0698737
0
ARC
8
DEFAULT_255_1_234
10
4.5277531
20
20.8129617
40
0.1962563
50
359.417946
51
16.1971788
0
ARC
8
DEFAULT_255_1_234
10
4.5732841
20
20.8254418
40
0.149053
50
16.4723299
51
52.6262157
0
ARC
8
DEFAULT_255_1_234
10
4.4911895
20
20.7170433
40
0.2850296
50
52.7386432
51
62.4979148
0
ARC
8
DEFAULT_255_1_234
10
4.3526972
20
20.4564283
40
0.5801521
50
62.2515216
51
68.1220564
0
ARC
8
DEFAULT_255_1_234
10
4.1806883
20
20.0336872
40
1.0365451
50
68.0062803
51
71.8053402
0
ARC
8
DEFAULT_255_1_234
10
4.0011255
20
19.4951758
40
1.6042013
50
71.7183119
51
73.9258742
0
LINE
8
DEFAULT_255_1_234
10
5.254094
20
21.0511169
11
5.254094
21
21.1723962
0
LINE
8
DEFAULT_255_1_234
10
5.254094
20
21.1723962
11
5.3657352
21
21.1723962
0
LINE
8
DEFAULT_255_1_234
10
5.175383
20
21.3780087
11
5.0267958
21
21.3780087
0
LINE
8
DEFAULT_255_1_234
10
5.0163545
20
20.8238188
11
5.1657449
21
20.8238188
0
LINE
8
DEFAULT_255_1_234
10
5.3657352
20
21.0511169
11
5.254094
21
21.0511169
0
ARC
8
DEFAULT_255_1_234
10
5.3628218
20
21.5116713
40
0.3392876
50
270.4919872
51
281.8951556
0
ARC
8
DEFAULT_255_1_234
10
5.386948
20
21.4014702
40
0.2264817
50
281.6691735
51
301.2943132
0
ARC
8
DEFAULT_255_1_234
10
5.403969
20
21.3703304
40
0.1910381
50
301.7833094
51
311.7545298
0
ARC
8
DEFAULT_255_1_234
10
5.4131266
20
21.3601748
40
0.1773635
50
311.7323931
51
354.2802411
0
ARC
8
DEFAULT_255_1_234
10
5.3404891
20
21.3726722
40
0.2509385
50
353.0937916
51
0.1181479
0
ARC
8
DEFAULT_255_1_234
10
5.2943676
20
21.3774386
40
0.2970898
50
359.1805295
51
15.0453146
0
ARC
8
DEFAULT_255_1_234
10
5.4289513
20
21.4166992
40
0.1569564
50
13.9577229
51
77.6713066
0
ARC
8
DEFAULT_255_1_234
10
5.3903042
20
21.2781949
40
0.3006298
50
76.1116566
51
90.7026153
0
ARC
8
DEFAULT_255_1_234
10
5.384388
20
21.3055545
40
0.2732568
50
89.5324876
51
103.531937
0
ARC
8
DEFAULT_255_1_234
10
5.3643324
20
21.3854884
40
0.1908508
50
103.2931773
51
133.5619022
0
ARC
8
DEFAULT_255_1_234
10
5.3598813
20
21.3914375
40
0.1834746
50
133.8349307
51
173.5344437
0
ARC
8
DEFAULT_255_1_234
10
5.4321856
20
21.3786213
40
0.2568033
50
172.5096846
51
180.1366907
0
ARC
8
DEFAULT_255_1_234
10
5.337075
20
21.3820622
40
0.3103056
50
155.3484492
51
180.7484736
0
ARC
8
DEFAULT_255_1_234
10
5.3321839
20
21.3791846
40
0.3070957
50
131.5744599
51
154.4798489
0
ARC
8
DEFAULT_255_1_234
10
5.3634986
20
21.347531
40
0.3515643
50
96.9875458
51
131.9690667
0
ARC
8
DEFAULT_255_1_234
10
5.3854466
20
21.2229636
40
0.4779224
50
89.8596053
51
97.7825159
0
ARC
8
DEFAULT_255_1_234
10
5.3902529
20
21.1967616
40
0.5041361
50
78.3655447
51
90.4131539
0
ARC
8
DEFAULT_255_1_234
10
5.4260447
20
21.3626887
40
0.3344039
50
56.6229102
51
78.638727
0
ARC
8
DEFAULT_255_1_234
10
5.4475391
20
21.4002805
40
0.2912001
50
47.0253525
51
56.0854072
0
ARC
8
DEFAULT_255_1_234
10
5.4495171
20
21.4042223
40
0.2869704
50
10.9208013
51
46.7778124
0
ARC
8
DEFAULT_255_1_234
10
5.3131237
20
21.3726857
40
0.426899
50
359.6364486
51
11.6087304
0
ARC
8
DEFAULT_255_1_234
10
5.4966081
20
21.3711752
40
0.243409
50
332.3549906
51
359.7179418
0
ARC
8
DEFAULT_255_1_234
10
5.4315683
20
21.4020142
40
0.3153459
50
325.2333722
51
332.8745602
0
ARC
8
DEFAULT_255_1_234
10
5.4468306
20
21.3913828
40
0.2967456
50
292.9802137
51
325.2392345
0
ARC
8
DEFAULT_255_1_234
10
5.419368
20
21.4447863
40
0.3566604
50
292.5402179
51
293.6924929
0
ARC
8
DEFAULT_255_1_234
10
5.4586276
20
20.7993091
40
0.3307468
50
57.6435486
51
72.8625112
0
ARC
8
DEFAULT_255_1_234
10
5.4940776
20
20.8567549
40
0.2632492
50
36.7248896
51
57.4697979
0
ARC
8
DEFAULT_255_1_234
10
5.4929409
20
20.858022
40
0.2634081
50
8.0545065
51
36.356114
0
ARC
8
DEFAULT_255_1_234
10
5.4066594
20
20.8425174
40
0.3510261
50
359.8320645
51
8.5869982
0
ARC
8
DEFAULT_255_1_234
10
5.369137
20
20.8377101
40
0.3885653
50
343.9829931
51
0.5571613
0
ARC
8
DEFAULT_255_1_234
10
5.4577567
20
20.8134438
40
0.2966924
50
311.6359546
51
343.7651759
0
ARC
8
DEFAULT_255_1_234
10
5.4199136
20
20.8561102
40
0.3537231
50
279.7829875
51
311.6255694
0
ARC
8
DEFAULT_255_1_234
10
5.3897913
20
20.999828
40
0.5004971
50
269.7286406
51
280.3856417
0
ARC
8
DEFAULT_255_1_234
10
5.3835985
20
20.9956996
40
0.4963778
50
256.6828919
51
270.4412052
0
ARC
8
DEFAULT_255_1_234
10
5.3497281
20
20.8572394
40
0.3538406
50
229.4223008
51
256.8556159
0
ARC
8
DEFAULT_255_1_234
10
5.3082674
20
20.8105736
40
0.2914296
50
181.818294
51
229.6455059
0
ARC
8
DEFAULT_255_1_234
10
5.412263
20
20.8236496
40
0.3959084
50
179.9755256
51
183.2323064
0
ARC
8
DEFAULT_255_1_234
10
5.3950376
20
20.8216037
40
0.2293034
50
179.4465117
51
196.2869258
0
ARC
8
DEFAULT_255_1_234
10
5.3462784
20
20.8082651
40
0.1787621
50
196.5661473
51
227.705904
0
ARC
8
DEFAULT_255_1_234
10
5.3626879
20
20.8266155
40
0.2033784
50
227.7652068
51
257.8762805
0
ARC
8
DEFAULT_255_1_234
10
5.3851849
20
20.9209156
40
0.3003081
50
257.4584385
51
270.426602
0
ARC
8
DEFAULT_255_1_234
10
5.3897415
20
20.9498996
40
0.329292
50
269.5962073
51
280.8789248
0
ARC
8
DEFAULT_255_1_234
10
5.4126944
20
20.8352685
40
0.2123908
50
280.6346389
51
299.8595945
0
ARC
8
DEFAULT_255_1_234
10
5.4317851
20
20.7990212
40
0.171457
50
300.3576302
51
314.5517981
0
ARC
8
DEFAULT_255_1_234
10
5.4234911
20
20.8050919
40
0.1816095
50
315.0728369
51
345.0431014
0
ARC
8
DEFAULT_255_1_234
10
5.3311725
20
20.8319841
40
0.2777492
50
344.5986631
51
357.9269593
0
ARC
8
DEFAULT_255_1_234
10
5.2416052
20
20.8381276
40
0.3674917
50
357.4748886
51
0.0231117
0
ARC
8
DEFAULT_255_1_234
10
5.3439161
20
20.8405679
40
0.2651907
50
359.5047933
51
13.4239635
0
ARC
8
DEFAULT_255_1_234
10
5.4305804
20
20.8627478
40
0.1757509
50
12.9498199
51
48.7551375
0
ARC
8
DEFAULT_255_1_234
10
5.4123538
20
20.83784
40
0.2065134
50
49.5088623
51
72.1836453
0
ARC
8
DEFAULT_255_1_234
10
5.3765691
20
20.7316291
40
0.3185836
50
71.9010081
51
84.3554254
0
ARC
8
DEFAULT_255_1_234
10
5.3604323
20
20.5955326
40
0.4556151
50
84.0193428
51
89.333121
0
LINE
8
DEFAULT_255_1_234
10
4.5877344
20
28.9107091
11
4.3122458
21
28.9107091
0
LINE
8
DEFAULT_255_1_234
10
4.3122458
20
28.9107091
11
4.3122458
21
28.4529
0
LINE
8
DEFAULT_255_1_234
10
4.3122458
20
28.4529
11
4.1580364
21
28.4529
0
LINE
8
DEFAULT_255_1_234
10
4.1580364
20
28.4529
11
4.1580364
21
29.6223211
0
LINE
8
DEFAULT_255_1_234
10
4.1580364
20
29.6223211
11
4.5893407
21
29.6223211
0
LINE
8
DEFAULT_255_1_234
10
4.3122458
20
29.4954196
11
4.3122458
21
29.0368074
0
LINE
8
DEFAULT_255_1_234
10
4.3122458
20
29.0368074
11
4.5893407
21
29.0368074
0
LINE
8
DEFAULT_255_1_234
10
4.5981756
20
29.4954196
11
4.3122458
21
29.4954196
0
ARC
8
DEFAULT_255_1_234
10
4.5935534
20
29.0164195
40
0.6059162
50
78.8378113
51
90.3983573
0
ARC
8
DEFAULT_255_1_234
10
4.6351548
20
29.2184879
40
0.3996205
50
58.9632738
51
79.0810598
0
ARC
8
DEFAULT_255_1_234
10
4.665309
20
29.2744721
40
0.3361177
50
48.0197965
51
58.447194
0
ARC
8
DEFAULT_255_1_234
10
4.6741951
20
29.2830225
40
0.3238191
50
3.3375044
51
48.1766626
0
ARC
8
DEFAULT_255_1_234
10
4.551179
20
29.2653171
40
0.4477806
50
359.9477528
51
4.6829065
0
ARC
8
DEFAULT_255_1_234
10
4.5635107
20
29.2610628
40
0.4354656
50
346.1877825
51
0.5060252
0
ARC
8
DEFAULT_255_1_234
10
4.6993975
20
29.2257731
40
0.295089
50
310.8831995
51
346.5426355
0
ARC
8
DEFAULT_255_1_234
10
4.6685395
20
29.2674695
40
0.3468331
50
286.6925341
51
310.2288297
0
ARC
8
DEFAULT_255_1_234
10
4.6116226
20
29.4464882
40
0.5346654
50
274.6850312
51
287.0245141
0
ARC
8
DEFAULT_255_1_234
10
4.5890949
20
29.6673932
40
0.7566852
50
269.8969846
51
275.018904
0
ARC
8
DEFAULT_255_1_234
10
4.591854
20
29.4594707
40
0.4226708
50
269.6593078
51
279.4153575
0
ARC
8
DEFAULT_255_1_234
10
4.6175815
20
29.3104133
40
0.2714146
50
279.2049762
51
294.9900808
0
ARC
8
DEFAULT_255_1_234
10
4.6466141
20
29.2456508
40
0.2004525
50
295.2888114
51
311.2911209
0
ARC
8
DEFAULT_255_1_234
10
4.6537035
20
29.235122
40
0.1878703
50
311.7854996
51
347.2861051
0
ARC
8
DEFAULT_255_1_234
10
4.5553194
20
29.2604092
40
0.2894234
50
346.6893224
51
0.1059443
0
ARC
8
DEFAULT_255_1_234
10
4.4798089
20
29.2632685
40
0.3649409
50
359.6350983
51
0.0053152
0
ARC
8
DEFAULT_255_1_234
10
4.5768417
20
29.2657937
40
0.2679199
50
359.4672059
51
15.5933957
0
ARC
8
DEFAULT_255_1_234
10
4.6393306
20
29.2826779
40
0.2031932
50
15.7442113
51
46.6203375
0
ARC
8
DEFAULT_255_1_234
10
4.6245527
20
29.2656484
40
0.2257226
50
46.8628658
51
75.6676503
0
ARC
8
DEFAULT_255_1_234
10
4.5951347
20
29.1597718
40
0.3355939
50
75.276167
51
88.2915297
0
ARC
8
DEFAULT_255_1_234
10
4.5893054
20
29.0719524
40
0.4235602
50
87.8575022
51
88.8000139
0
LINE
8
DEFAULT_255_1_234
10
5.3732384
20
28.9886169
11
5.3732384
21
29.1098962
0
LINE
8
DEFAULT_255_1_234
10
5.3732384
20
29.1098962
11
5.4848795
21
29.1098962
0
LINE
8
DEFAULT_255_1_234
10
5.2945273
20
29.3155087
11
5.1459402
21
29.3155087
0
LINE
8
DEFAULT_255_1_234
10
5.1354989
20
28.7613188
11
5.2848893
21
28.7613188
0
LINE
8
DEFAULT_255_1_234
10
5.4848795
20
28.9886169
11
5.3732384
21
28.9886169
0
ARC
8
DEFAULT_255_1_234
10
5.4819662
20
29.4491713
40
0.3392876
50
270.4919872
51
281.8951556
0
ARC
8
DEFAULT_255_1_234
10
5.5060923
20
29.3389702
40
0.2264817
50
281.6691735
51
301.2943132
0
ARC
8
DEFAULT_255_1_234
10
5.5231134
20
29.3078304
40
0.1910381
50
301.7833094
51
311.7545298
0
ARC
8
DEFAULT_255_1_234
10
5.5322709
20
29.2976748
40
0.1773635
50
311.7323931
51
354.2802411
0
ARC
8
DEFAULT_255_1_234
10
5.4596335
20
29.3101722
40
0.2509385
50
353.0937916
51
0.1181479
0
ARC
8
DEFAULT_255_1_234
10
5.413512
20
29.3149386
40
0.2970898
50
359.1805295
51
15.0453146
0
ARC
8
DEFAULT_255_1_234
10
5.5480957
20
29.3541992
40
0.1569564
50
13.9577229
51
77.6713066
0
ARC
8
DEFAULT_255_1_234
10
5.5094486
20
29.2156949
40
0.3006298
50
76.1116566
51
90.7026153
0
ARC
8
DEFAULT_255_1_234
10
5.5035324
20
29.2430545
40
0.2732568
50
89.5324876
51
103.531937
0
ARC
8
DEFAULT_255_1_234
10
5.4834768
20
29.3229884
40
0.1908508
50
103.2931773
51
133.5619022
0
ARC
8
DEFAULT_255_1_234
10
5.4790256
20
29.3289375
40
0.1834746
50
133.8349307
51
173.5344437
0
ARC
8
DEFAULT_255_1_234
10
5.55133
20
29.3161213
40
0.2568033
50
172.5096846
51
180.1366907
0
ARC
8
DEFAULT_255_1_234
10
5.4562193
20
29.3195622
40
0.3103056
50
155.3484492
51
180.7484736
0
ARC
8
DEFAULT_255_1_234
10
5.4513283
20
29.3166846
40
0.3070957
50
131.5744599
51
154.4798489
0
ARC
8
DEFAULT_255_1_234
10
5.482643
20
29.285031
40
0.3515643
50
96.9875458
51
131.9690667
0
ARC
8
DEFAULT_255_1_234
10
5.504591
20
29.1604636
40
0.4779224
50
89.8596053
51
97.7825159
0
ARC
8
DEFAULT_255_1_234
10
5.5093973
20
29.1342616
40
0.5041361
50
78.3655447
51
90.4131539
0
ARC
8
DEFAULT_255_1_234
10
5.5451891
20
29.3001887
40
0.3344039
50
56.6229102
51
78.638727
0
ARC
8
DEFAULT_255_1_234
10
5.5666834
20
29.3377805
40
0.2912001
50
47.0253525
51
56.0854072
0
ARC
8
DEFAULT_255_1_234
10
5.5686614
20
29.3417223
40
0.2869704
50
10.9208013
51
46.7778124
0
ARC
8
DEFAULT_255_1_234
10
5.4322681
20
29.3101857
40
0.426899
50
359.6364486
51
11.6087304
0
ARC
8
DEFAULT_255_1_234
10
5.6157525
20
29.3086752
40
0.243409
50
332.3549906
51
359.7179418
0
ARC
8
DEFAULT_255_1_234
10
5.5507126
20
29.3395142
40
0.3153459
50
325.2333722
51
332.8745602
0
ARC
8
DEFAULT_255_1_234
10
5.565975
20
29.3288828
40
0.2967456
50
292.9802137
51
325.2392345
0
ARC
8
DEFAULT_255_1_234
10
5.5385124
20
29.3822863
40
0.3566604
50
292.5402179
51
293.6924929
0
ARC
8
DEFAULT_255_1_234
10
5.577772
20
28.7368091
40
0.3307468
50
57.6435486
51
72.8625112
0
ARC
8
DEFAULT_255_1_234
10
5.613222
20
28.7942549
40
0.2632492
50
36.7248896
51
57.4697979
0
ARC
8
DEFAULT_255_1_234
10
5.6120852
20
28.795522
40
0.2634081
50
8.0545065
51
36.356114
0
ARC
8
DEFAULT_255_1_234
10
5.5258038
20
28.7800174
40
0.3510261
50
359.8320645
51
8.5869982
0
ARC
8
DEFAULT_255_1_234
10
5.4882814
20
28.7752101
40
0.3885653
50
343.9829931
51
0.5571613
0
ARC
8
DEFAULT_255_1_234
10
5.5769011
20
28.7509438
40
0.2966924
50
311.6359546
51
343.7651759
0
ARC
8
DEFAULT_255_1_234
10
5.539058
20
28.7936102
40
0.3537231
50
279.7829875
51
311.6255694
0
ARC
8
DEFAULT_255_1_234
10
5.5089356
20
28.937328
40
0.5004971
50
269.7286406
51
280.3856417
0
ARC
8
DEFAULT_255_1_234
10
5.5027429
20
28.9331996
40
0.4963778
50
256.6828919
51
270.4412052
0
ARC
8
DEFAULT_255_1_234
10
5.4688725
20
28.7947394
40
0.3538406
50
229.4223008
51
256.8556159
0
ARC
8
DEFAULT_255_1_234
10
5.4274118
20
28.7480736
40
0.2914296
50
181.818294
51
229.6455059
0
ARC
8
DEFAULT_255_1_234
10
5.5314074
20
28.7611496
40
0.3959084
50
179.9755256
51
183.2323064
0
ARC
8
DEFAULT_255_1_234
10
5.514182
20
28.7591037
40
0.2293034
50
179.4465117
51
196.2869258
0
ARC
8
DEFAULT_255_1_234
10
5.4654228
20
28.7457651
40
0.1787621
50
196.5661473
51
227.705904
0
ARC
8
DEFAULT_255_1_234
10
5.4818323
20
28.7641155
40
0.2033784
50
227.7652068
51
257.8762805
0
ARC
8
DEFAULT_255_1_234
10
5.5043293
20
28.8584156
40
0.3003081
50
257.4584385
51
270.426602
0
ARC
8
DEFAULT_255_1_234
10
5.5088859
20
28.8873996
40
0.329292
50
269.5962073
51
280.8789248
0
ARC
8
DEFAULT_255_1_234
10
5.5318388
20
28.7727685
40
0.2123908
50
280.6346389
51
299.8595945
0
ARC
8
DEFAULT_255_1_234
10
5.5509294
20
28.7365212
40
0.171457
50
300.3576302
51
314.5517981
0
ARC
8
DEFAULT_255_1_234
10
5.5426354
20
28.7425919
40
0.1816095
50
315.0728369
51
345.0431014
0
ARC
8
DEFAULT_255_1_234
10
5.4503169
20
28.7694841
40
0.2777492
50
344.5986631
51
357.9269593
0
ARC
8
DEFAULT_255_1_234
10
5.3607495
20
28.7756276
40
0.3674917
50
357.4748886
51
0.0231117
0
ARC
8
DEFAULT_255_1_234
10
5.4630604
20
28.7780679
40
0.2651907
50
359.5047933
51
13.4239635
0
ARC
8
DEFAULT_255_1_234
10
5.5497248
20
28.8002478
40
0.1757509
50
12.9498199
51
48.7551375
0
ARC
8
DEFAULT_255_1_234
10
5.5314982
20
28.77534
40
0.2065134
50
49.5088623
51
72.1836453
0
ARC
8
DEFAULT_255_1_234
10
5.4957135
20
28.6691291
40
0.3185836
50
71.9010081
51
84.3554254
0
ARC
8
DEFAULT_255_1_234
10
5.4795766
20
28.5330326
40
0.4556151
50
84.0193428
51
89.333121
0
LINE
8
DEFAULT_255_1_234
10
6.521777
20
29.4215276
11
6.521777
21
29.0801788
0
LINE
8
DEFAULT_255_1_234
10
6.521777
20
29.0801788
11
6.8478655
21
29.0801788
0
LINE
8
DEFAULT_255_1_234
10
6.8478655
20
29.0801788
11
6.8478655
21
28.9396233
0
LINE
8
DEFAULT_255_1_234
10
6.8478655
20
28.9396233
11
6.521777
21
28.9396233
0
LINE
8
DEFAULT_255_1_234
10
6.521777
20
28.9396233
11
6.521777
21
28.5701634
0
LINE
8
DEFAULT_255_1_234
10
6.521777
20
28.5701634
11
6.3723866
21
28.5701634
0
LINE
8
DEFAULT_255_1_234
10
6.3723866
20
28.5701634
11
6.3723866
21
28.9396233
0
LINE
8
DEFAULT_255_1_234
10
6.3723866
20
28.9396233
11
6.046298
21
28.9396233
0
LINE
8
DEFAULT_255_1_234
10
6.046298
20
28.9396233
11
6.046298
21
29.0801788
0
LINE
8
DEFAULT_255_1_234
10
6.046298
20
29.0801788
11
6.3723866
21
29.0801788
0
LINE
8
DEFAULT_255_1_234
10
6.3723866
20
29.0801788
11
6.3723866
21
29.4215276
0
LINE
8
DEFAULT_255_1_234
10
6.3723866
20
29.4215276
11
6.521777
21
29.4215276
0
LINE
8
DEFAULT_255_1_234
10
4.8766023
20
37.2216849
11
4.7215897
21
37.2216849
0
LINE
8
DEFAULT_255_1_234
10
4.0292539
20
36.7293394
11
4.1842665
21
36.7293394
0
ARC
8
DEFAULT_255_1_234
10
4.787471
20
38.1163768
40
1.252368
50
248.9199003
51
254.1439814
0
ARC
8
DEFAULT_255_1_234
10
4.6194205
20
37.6837234
40
0.788226
50
241.633709
51
249.0064503
0
ARC
8
DEFAULT_255_1_234
10
4.46656
20
37.4036317
40
0.4691427
50
230.498225
51
241.8087113
0
ARC
8
DEFAULT_255_1_234
10
4.3881174
20
37.3036906
40
0.3421437
50
227.4064532
51
229.9881192
0
ARC
8
DEFAULT_255_1_234
10
4.3393694
20
37.2561088
40
0.2741476
50
200.6781896
51
228.1763934
0
ARC
8
DEFAULT_255_1_234
10
4.3466005
20
37.2546077
40
0.2804109
50
179.5061581
51
199.8694617
0
ARC
8
DEFAULT_255_1_234
10
4.3456757
20
37.262021
40
0.2795204
50
132.4834203
51
181.0242172
0
ARC
8
DEFAULT_255_1_234
10
4.4052339
20
37.2057704
40
0.3612768
50
129.2532479
51
133.4242687
0
ARC
8
DEFAULT_255_1_234
10
4.4198789
20
37.1837965
40
0.3875675
50
101.98776
51
128.8742646
0
ARC
8
DEFAULT_255_1_234
10
4.4597399
20
37.0116741
40
0.5642249
50
89.5906553
51
102.3169264
0
ARC
8
DEFAULT_255_1_234
10
4.4667891
20
37.0435148
40
0.5323783
50
77.2360837
51
90.3248275
0
ARC
8
DEFAULT_255_1_234
10
4.4874971
20
37.14024
40
0.4334697
50
63.837784
51
77.0809408
0
ARC
8
DEFAULT_255_1_234
10
4.5152732
20
37.1919911
40
0.3747796
50
45.9864267
51
64.1607727
0
ARC
8
DEFAULT_255_1_234
10
4.5413614
20
37.2217866
40
0.3352302
50
32.2747395
51
45.6547121
0
ARC
8
DEFAULT_255_1_234
10
4.5480054
20
37.223688
40
0.328603
50
359.6507365
51
32.6130309
0
ARC
8
DEFAULT_255_1_234
10
4.453715
20
37.224166
40
0.2678863
50
359.469343
51
14.9832209
0
ARC
8
DEFAULT_255_1_234
10
4.5242212
20
37.2430539
40
0.1948938
50
14.9781179
51
48.2004265
0
ARC
8
DEFAULT_255_1_234
10
4.5077856
20
37.2223983
40
0.2212521
50
48.5927837
51
74.1241538
0
ARC
8
DEFAULT_255_1_234
10
4.4744346
20
37.1123248
40
0.3362561
50
73.7888341
51
86.6652678
0
ARC
8
DEFAULT_255_1_234
10
4.4641911
20
36.9915881
40
0.4573953
50
86.2640471
51
90.0526343
0
ARC
8
DEFAULT_255_1_234
10
4.4613624
20
37.0311192
40
0.4178709
50
89.6697524
51
99.2309573
0
ARC
8
DEFAULT_255_1_234
10
4.4371075
20
37.1755964
40
0.2713749
50
99.069534
51
113.7658566
0
ARC
8
DEFAULT_255_1_234
10
4.4097266
20
37.2401677
40
0.2012469
50
114.0401004
51
127.9850673
0
ARC
8
DEFAULT_255_1_234
10
4.385683
20
37.269773
40
0.1631167
50
127.7287463
51
176.7105154
0
ARC
8
DEFAULT_255_1_234
10
4.4535547
20
37.2596693
40
0.2315392
50
175.1779447
51
180.0581938
0
ARC
8
DEFAULT_255_1_234
10
4.3692394
20
37.2584428
40
0.1472271
50
179.6142195
51
228.1246017
0
ARC
8
DEFAULT_255_1_234
10
4.4134063
20
37.2993308
40
0.2072299
50
226.5779593
51
230.8800004
0
ARC
8
DEFAULT_255_1_234
10
4.4605141
20
37.3618636
40
0.2854818
50
231.4635071
51
241.9260842
0
ARC
8
DEFAULT_255_1_234
10
4.5802319
20
37.58218
40
0.53622
50
241.7178533
51
248.3259551
0
ARC
8
DEFAULT_255_1_234
10
4.7187691
20
37.9254064
40
0.9063478
50
248.2007737
51
252.4528373
0
ARC
8
DEFAULT_255_1_234
10
4.8391416
20
38.2975441
40
1.2974635
50
252.3391078
51
254.3469452
0
ARC
8
DEFAULT_255_1_234
10
4.0849119
20
35.5998148
40
1.5037162
50
71.0197183
51
74.4087047
0
ARC
8
DEFAULT_255_1_234
10
4.2543804
20
36.0890111
40
0.9859993
50
66.1847285
51
71.086374
0
ARC
8
DEFAULT_255_1_234
10
4.4100116
20
36.43942
40
0.6025855
50
59.3536294
51
66.2691831
0
ARC
8
DEFAULT_255_1_234
10
4.4988769
20
36.5897609
40
0.4279449
50
49.1020879
51
59.3293958
0
ARC
8
DEFAULT_255_1_234
10
4.5807509
20
36.6830834
40
0.3038015
50
32.7919921
51
49.2505539
0
ARC
8
DEFAULT_255_1_234
10
4.6128599
20
36.7059191
40
0.264448
50
31.1181161
51
32.4005348
0
ARC
8
DEFAULT_255_1_234
10
4.6040136
20
36.7023779
40
0.2738556
50
8.1116974
51
30.7958831
0
ARC
8
DEFAULT_255_1_234
10
4.5229804
20
36.6885753
40
0.3560327
50
359.8389159
51
8.4706516
0
ARC
8
DEFAULT_255_1_234
10
4.5855596
20
36.6837137
40
0.2934776
50
337.4731098
51
0.7537279
0
ARC
8
DEFAULT_255_1_234
10
4.6034291
20
36.6817387
40
0.2762607
50
307.5917067
51
336.4315538
0
ARC
8
DEFAULT_255_1_234
10
4.5574119
20
36.7330102
40
0.3449979
50
307.6551545
51
308.4529766
0
ARC
8
DEFAULT_255_1_234
10
4.5343838
20
36.768525
40
0.3871988
50
284.3734338
51
307.1424381
0
ARC
8
DEFAULT_255_1_234
10
4.4848668
20
36.9506932
40
0.5759636
50
272.4382747
51
284.646547
0
ARC
8
DEFAULT_255_1_234
10
4.4721876
20
37.1306893
40
0.7563528
50
269.9708387
51
272.8178037
0
ARC
8
DEFAULT_255_1_234
10
4.4678916
20
36.9268716
40
0.5525489
50
248.2707594
51
270.4055579
0
ARC
8
DEFAULT_255_1_234
10
4.4624657
20
36.9078192
40
0.5328452
50
246.1383403
51
248.0542782
0
ARC
8
DEFAULT_255_1_234
10
4.4206036
20
36.8198843
40
0.4355005
50
233.1670131
51
246.4950969
0
ARC
8
DEFAULT_255_1_234
10
4.3651941
20
36.7450812
40
0.3424126
50
215.3403242
51
233.0843104
0
ARC
8
DEFAULT_255_1_234
10
4.3379372
20
36.7252549
40
0.3087104
50
179.2419209
51
215.2648451
0
ARC
8
DEFAULT_255_1_234
10
4.4146966
20
36.7266666
40
0.2304457
50
179.335461
51
199.1045811
0
ARC
8
DEFAULT_255_1_234
10
4.3814643
20
36.7179766
40
0.1962176
50
199.8828939
51
232.7063202
0
ARC
8
DEFAULT_255_1_234
10
4.4286911
20
36.7773788
40
0.2720938
50
232.3738199
51
255.5136649
0
ARC
8
DEFAULT_255_1_234
10
4.4627778
20
36.9017835
40
0.4010747
50
255.2446292
51
267.5320849
0
ARC
8
DEFAULT_255_1_234
10
4.4715401
20
37.0250702
40
0.5246356
50
267.1557994
51
270.0286766
0
ARC
8
DEFAULT_255_1_234
10
4.4743173
20
36.980695
40
0.4802668
50
269.7000017
51
278.1660162
0
ARC
8
DEFAULT_255_1_234
10
4.4999178
20
36.8076515
40
0.3053425
50
278.0231263
51
290.625471
0
ARC
8
DEFAULT_255_1_234
10
4.5346865
20
36.7149025
40
0.206291
50
290.6619762
51
307.0370976
0
ARC
8
DEFAULT_255_1_234
10
4.5647254
20
36.6780504
40
0.1587906
50
306.3943566
51
355.3030547
0
ARC
8
DEFAULT_255_1_234
10
4.5135186
20
36.6857113
40
0.2104809
50
354.3660432
51
0.0698737
0
ARC
8
DEFAULT_255_1_234
10
4.5277531
20
36.6879617
40
0.1962563
50
359.417946
51
16.1971788
0
ARC
8
DEFAULT_255_1_234
10
4.5732841
20
36.7004418
40
0.149053
50
16.4723299
51
52.6262157
0
ARC
8
DEFAULT_255_1_234
10
4.4911895
20
36.5920433
40
0.2850296
50
52.7386432
51
62.4979148
0
ARC
8
DEFAULT_255_1_234
10
4.3526972
20
36.3314283
40
0.5801521
50
62.2515216
51
68.1220564
0
ARC
8
DEFAULT_255_1_234
10
4.1806883
20
35.9086872
40
1.0365451
50
68.0062803
51
71.8053402
0
ARC
8
DEFAULT_255_1_234
10
4.0011255
20
35.3701758
40
1.6042013
50
71.7183119
51
73.9258742
0
LINE
8
DEFAULT_255_1_234
10
5.8042681
20
36.5116792
11
5.8042681
21
36.3904
0
LINE
8
DEFAULT_255_1_234
10
5.8042681
20
36.3904
11
5.0380402
21
36.3904
0
LINE
8
DEFAULT_255_1_234
10
5.0380402
20
36.3904
11
5.0380402
21
36.4972221
0
LINE
8
DEFAULT_255_1_234
10
5.0380402
20
36.4972221
11
5.4428398
21
36.9469995
0
LINE
8
DEFAULT_255_1_234
10
5.1641385
20
37.2152595
11
5.0155514
21
37.2152595
0
LINE
8
DEFAULT_255_1_234
10
5.5303858
20
36.8514218
11
5.217148
21
36.5116792
0
LINE
8
DEFAULT_255_1_234
10
5.217148
20
36.5116792
11
5.8042681
21
36.5116792
0
ARC
8
DEFAULT_255_1_234
10
4.0938232
20
38.1399527
40
1.8008286
50
318.5132453
51
320.7828378
0
ARC
8
DEFAULT_255_1_234
10
4.6225206
20
37.7096426
40
1.1191493
50
320.7372736
51
323.9737074
0
ARC
8
DEFAULT_255_1_234
10
5.0145063
20
37.4256361
40
0.6350923
50
323.8961724
51
328.6421089
0
ARC
8
DEFAULT_255_1_234
10
5.2191658
20
37.2994031
40
0.3946393
50
328.8299013
51
331.789948
0
ARC
8
DEFAULT_255_1_234
10
5.3188836
20
37.2479509
40
0.2824501
50
331.4255242
51
352.9364833
0
ARC
8
DEFAULT_255_1_234
10
5.3325337
20
37.2448976
40
0.2685315
50
353.2248685
51
0.0169286
0
ARC
8
DEFAULT_255_1_234
10
5.3535214
20
37.247195
40
0.2475536
50
359.4866256
51
15.9339782
0
ARC
8
DEFAULT_255_1_234
10
5.4042199
20
37.2608286
40
0.1950618
50
16.1714718
51
43.5284424
0
ARC
8
DEFAULT_255_1_234
10
5.4119508
20
37.2685573
40
0.184134
50
43.4415429
51
83.1661404
0
ARC
8
DEFAULT_255_1_234
10
5.3985426
20
37.1948771
40
0.258926
50
82.160215
51
90.1505798
0
ARC
8
DEFAULT_255_1_234
10
5.3953853
20
37.1411865
40
0.3126255
50
89.5460705
51
102.5418777
0
ARC
8
DEFAULT_255_1_234
10
5.3710939
20
37.2442665
40
0.2067346
50
102.1739365
51
129.2061916
0
ARC
8
DEFAULT_255_1_234
10
5.3632011
20
37.2567094
40
0.1921118
50
129.7279328
51
135.7542026
0
ARC
8
DEFAULT_255_1_234
10
5.3753539
20
37.2470045
40
0.2075944
50
136.175737
51
166.3674722
0
ARC
8
DEFAULT_255_1_234
10
5.4760458
20
37.2200182
40
0.3118201
50
165.9092917
51
178.8683903
0
ARC
8
DEFAULT_255_1_234
10
5.5625319
20
37.2153179
40
0.3983935
50
178.438168
51
180.0083905
0
ARC
8
DEFAULT_255_1_234
10
5.4223921
20
37.2192231
40
0.4068601
50
163.2878735
51
180.5581814
0
ARC
8
DEFAULT_255_1_234
10
5.3422183
20
37.241284
40
0.3237344
50
133.454115
51
162.9470031
0
ARC
8
DEFAULT_255_1_234
10
5.3600724
20
37.2223
40
0.349795
50
100.7869394
51
133.4384016
0
ARC
8
DEFAULT_255_1_234
10
5.3948496
20
37.0674319
40
0.5084616
50
89.6605301
51
101.3704185
0
ARC
8
DEFAULT_255_1_234
10
5.4014835
20
37.0735496
40
0.502348
50
78.2171172
51
90.4130393
0
ARC
8
DEFAULT_255_1_234
10
5.4369913
20
37.2359637
40
0.3361092
50
55.9268222
51
78.4888551
0
ARC
8
DEFAULT_255_1_234
10
5.4566353
20
37.2698324
40
0.2970617
50
47.9292255
51
55.4054003
0
ARC
8
DEFAULT_255_1_234
10
5.4667914
20
37.2801502
40
0.2825983
50
4.3347696
51
48.0560701
0
ARC
8
DEFAULT_255_1_234
10
5.3572307
20
37.2631601
40
0.393225
50
359.925209
51
5.5967654
0
ARC
8
DEFAULT_255_1_234
10
5.4001199
20
37.2687816
40
0.3503892
50
337.8914096
51
358.9967724
0
ARC
8
DEFAULT_255_1_234
10
5.1287611
20
37.3734706
40
0.6412172
50
326.9135351
51
338.3505194
0
ARC
8
DEFAULT_255_1_234
10
4.7301915
20
37.6289284
40
1.1146189
50
319.6472867
51
327.095818
0
ARC
8
DEFAULT_255_1_234
10
4.3468918
20
37.9451
40
1.6114559
50
317.2586784
51
319.9046139
0
LINE
8
DEFAULT_255_1_234
10
4.5877344
20
44.7857091
11
4.3122458
21
44.7857091
0
LINE
8
DEFAULT_255_1_234
10
4.3122458
20
44.7857091
11
4.3122458
21
44.3279
0
LINE
8
DEFAULT_255_1_234
10
4.3122458
20
44.3279
11
4.1580364
21
44.3279
0
LINE
8
DEFAULT_255_1_234
10
4.1580364
20
44.3279
11
4.1580364
21
45.4973211
0
LINE
8
DEFAULT_255_1_234
10
4.1580364
20
45.4973211
11
4.5893407
21
45.4973211
0
LINE
8
DEFAULT_255_1_234
10
4.3122458
20
45.3704196
11
4.3122458
21
44.9118074
0
LINE
8
DEFAULT_255_1_234
10
4.3122458
20
44.9118074
11
4.5893407
21
44.9118074
0
LINE
8
DEFAULT_255_1_234
10
4.5981756
20
45.3704196
11
4.3122458
21
45.3704196
0
ARC
8
DEFAULT_255_1_234
10
4.5935534
20
44.8914195
40
0.6059162
50
78.8378113
51
90.3983573
0
ARC
8
DEFAULT_255_1_234
10
4.6351548
20
45.0934879
40
0.3996205
50
58.9632738
51
79.0810598
0
ARC
8
DEFAULT_255_1_234
10
4.665309
20
45.1494721
40
0.3361177
50
48.0197965
51
58.447194
0
ARC
8
DEFAULT_255_1_234
10
4.6741951
20
45.1580225
40
0.3238191
50
3.3375044
51
48.1766626
0
ARC
8
DEFAULT_255_1_234
10
4.551179
20
45.1403171
40
0.4477806
50
359.9477528
51
4.6829065
0
ARC
8
DEFAULT_255_1_234
10
4.5635107
20
45.1360628
40
0.4354656
50
346.1877825
51
0.5060252
0
ARC
8
DEFAULT_255_1_234
10
4.6993975
20
45.1007731
40
0.295089
50
310.8831995
51
346.5426355
0
ARC
8
DEFAULT_255_1_234
10
4.6685395
20
45.1424695
40
0.3468331
50
286.6925341
51
310.2288297
0
ARC
8
DEFAULT_255_1_234
10
4.6116226
20
45.3214882
40
0.5346654
50
274.6850312
51
287.0245141
0
ARC
8
DEFAULT_255_1_234
10
4.5890949
20
45.5423932
40
0.7566852
50
269.8969846
51
275.018904
0
ARC
8
DEFAULT_255_1_234
10
4.591854
20
45.3344707
40
0.4226708
50
269.6593078
51
279.4153575
0
ARC
8
DEFAULT_255_1_234
10
4.6175815
20
45.1854133
40
0.2714146
50
279.2049762
51
294.9900808
0
ARC
8
DEFAULT_255_1_234
10
4.6466141
20
45.1206508
40
0.2004525
50
295.2888114
51
311.2911209
0
ARC
8
DEFAULT_255_1_234
10
4.6537035
20
45.110122
40
0.1878703
50
311.7854996
51
347.2861051
0
ARC
8
DEFAULT_255_1_234
10
4.5553194
20
45.1354092
40
0.2894234
50
346.6893224
51
0.1059443
0
ARC
8
DEFAULT_255_1_234
10
4.4798089
20
45.1382685
40
0.3649409
50
359.6350983
51
0.0053152
0
ARC
8
DEFAULT_255_1_234
10
4.5768417
20
45.1407937
40
0.2679199
50
359.4672059
51
15.5933957
0
ARC
8
DEFAULT_255_1_234
10
4.6393306
20
45.1576779
40
0.2031932
50
15.7442113
51
46.6203375
0
ARC
8
DEFAULT_255_1_234
10
4.6245527
20
45.1406484
40
0.2257226
50
46.8628658
51
75.6676503
0
ARC
8
DEFAULT_255_1_234
10
4.5951347
20
45.0347718
40
0.3355939
50
75.276167
51
88.2915297
0
ARC
8
DEFAULT_255_1_234
10
4.5893054
20
44.9469524
40
0.4235602
50
87.8575022
51
88.8000139
0
LINE
8
DEFAULT_255_1_234
10
5.9234125
20
44.4491792
11
5.9234125
21
44.3279
0
LINE
8
DEFAULT_255_1_234
10
5.9234125
20
44.3279
11
5.1571846
21
44.3279
0
LINE
8
DEFAULT_255_1_234
10
5.1571846
20
44.3279
11
5.1571846
21
44.4347221
0
LINE
8
DEFAULT_255_1_234
10
5.1571846
20
44.4347221
11
5.5619842
21
44.8844995
0
LINE
8
DEFAULT_255_1_234
10
5.2832829
20
45.1527595
11
5.1346958
21
45.1527595
0
LINE
8
DEFAULT_255_1_234
10
5.6495302
20
44.7889218
11
5.3362924
21
44.4491792
0
LINE
8
DEFAULT_255_1_234
10
5.3362924
20
44.4491792
11
5.9234125
21
44.4491792
0
ARC
8
DEFAULT_255_1_234
10
4.2129676
20
46.0774527
40
1.8008286
50
318.5132453
51
320.7828378
0
ARC
8
DEFAULT_255_1_234
10
4.741665
20
45.6471426
40
1.1191493
50
320.7372736
51
323.9737074
0
ARC
8
DEFAULT_255_1_234
10
5.1336506
20
45.3631361
40
0.6350923
50
323.8961724
51
328.6421089
0
ARC
8
DEFAULT_255_1_234
10
5.3383102
20
45.2369031
40
0.3946393
50
328.8299013
51
331.789948
0
ARC
8
DEFAULT_255_1_234
10
5.438028
20
45.1854509
40
0.2824501
50
331.4255242
51
352.9364833
0
ARC
8
DEFAULT_255_1_234
10
5.4516781
20
45.1823976
40
0.2685315
50
353.2248685
51
0.0169286
0
ARC
8
DEFAULT_255_1_234
10
5.4726658
20
45.184695
40
0.2475536
50
359.4866256
51
15.9339782
0
ARC
8
DEFAULT_255_1_234
10
5.5233643
20
45.1983286
40
0.1950618
50
16.1714718
51
43.5284424
0
ARC
8
DEFAULT_255_1_234
10
5.5310952
20
45.2060573
40
0.184134
50
43.4415429
51
83.1661404
0
ARC
8
DEFAULT_255_1_234
10
5.517687
20
45.1323771
40
0.258926
50
82.160215
51
90.1505798
0
ARC
8
DEFAULT_255_1_234
10
5.5145297
20
45.0786865
40
0.3126255
50
89.5460705
51
102.5418777
0
ARC
8
DEFAULT_255_1_234
10
5.4902383
20
45.1817665
40
0.2067346
50
102.1739365
51
129.2061916
0
ARC
8
DEFAULT_255_1_234
10
5.4823455
20
45.1942094
40
0.1921118
50
129.7279328
51
135.7542026
0
ARC
8
DEFAULT_255_1_234
10
5.4944983
20
45.1845045
40
0.2075944
50
136.175737
51
166.3674722
0
ARC
8
DEFAULT_255_1_234
10
5.5951902
20
45.1575182
40
0.3118201
50
165.9092917
51
178.8683903
0
ARC
8
DEFAULT_255_1_234
10
5.6816763
20
45.1528179
40
0.3983935
50
178.438168
51
180.0083905
0
ARC
8
DEFAULT_255_1_234
10
5.5415365
20
45.1567231
40
0.4068601
50
163.2878735
51
180.5581814
0
ARC
8
DEFAULT_255_1_234
10
5.4613627
20
45.178784
40
0.3237344
50
133.454115
51
162.9470031
0
ARC
8
DEFAULT_255_1_234
10
5.4792168
20
45.1598
40
0.349795
50
100.7869394
51
133.4384016
0
ARC
8
DEFAULT_255_1_234
10
5.5139939
20
45.0049319
40
0.5084616
50
89.6605301
51
101.3704185
0
ARC
8
DEFAULT_255_1_234
10
5.5206278
20
45.0110496
40
0.502348
50
78.2171172
51
90.4130393
0
ARC
8
DEFAULT_255_1_234
10
5.5561357
20
45.1734637
40
0.3361092
50
55.9268222
51
78.4888551
0
ARC
8
DEFAULT_255_1_234
10
5.5757797
20
45.2073324
40
0.2970617
50
47.9292255
51
55.4054003
0
ARC
8
DEFAULT_255_1_234
10
5.5859357
20
45.2176502
40
0.2825983
50
4.3347696
51
48.0560701
0
ARC
8
DEFAULT_255_1_234
10
5.4763751
20
45.2006601
40
0.393225
50
359.925209
51
5.5967654
0
ARC
8
DEFAULT_255_1_234
10
5.5192643
20
45.2062816
40
0.3503892
50
337.8914096
51
358.9967724
0
ARC
8
DEFAULT_255_1_234
10
5.2479055
20
45.3109706
40
0.6412172
50
326.9135351
51
338.3505194
0
ARC
8
DEFAULT_255_1_234
10
4.8493359
20
45.5664284
40
1.1146189
50
319.6472867
51
327.095818
0
ARC
8
DEFAULT_255_1_234
10
4.4660362
20
45.8826
40
1.6114559
50
317.2586784
51
319.9046139
0
LINE
8
DEFAULT_255_1_234
10
6.521777
20
45.2965276
11
6.521777
21
44.9551788
0
LINE
8
DEFAULT_255_1_234
10
6.521777
20
44.9551788
11
6.8478655
21
44.9551788
0
LINE
8
DEFAULT_255_1_234
10
6.8478655
20
44.9551788
11
6.8478655
21
44.8146233
0
LINE
8
DEFAULT_255_1_234
10
6.8478655
20
44.8146233
11
6.521777
21
44.8146233
0
LINE
8
DEFAULT_255_1_234
10
6.521777
20
44.8146233
11
6.521777
21
44.4451634
0
LINE
8
DEFAULT_255_1_234
10
6.521777
20
44.4451634
11
6.3723866
21
44.4451634
0
LINE
8
DEFAULT_255_1_234
10
6.3723866
20
44.4451634
11
6.3723866
21
44.8146233
0
LINE
8
DEFAULT_255_1_234
10
6.3723866
20
44.8146233
11
6.046298
21
44.8146233
0
LINE
8
DEFAULT_255_1_234
10
6.046298
20
44.8146233
11
6.046298
21
44.9551788
0
LINE
8
DEFAULT_255_1_234
10
6.046298
20
44.9551788
11
6.3723866
21
44.9551788
0
LINE
8
DEFAULT_255_1_234
10
6.3723866
20
44.9551788
11
6.3723866
21
45.2965276
0
LINE
8
DEFAULT_255_1_234
10
6.3723866
20
45.2965276
11
6.521777
21
45.2965276
0
LINE
8
DEFAULT_255_1_234
10
4.8680023
20
53.0966849
11
4.7129897
21
53.0966849
0
LINE
8
DEFAULT_255_1_234
10
4.0206539
20
52.6043394
11
4.1756665
21
52.6043394
0
ARC
8
DEFAULT_255_1_234
10
4.778871
20
53.9913768
40
1.252368
50
248.9199003
51
254.1439814
0
ARC
8
DEFAULT_255_1_234
10
4.6108205
20
53.5587234
40
0.788226
50
241.633709
51
249.0064503
0
ARC
8
DEFAULT_255_1_234
10
4.45796
20
53.2786317
40
0.4691427
50
230.498225
51
241.8087113
0
ARC
8
DEFAULT_255_1_234
10
4.3795174
20
53.1786906
40
0.3421437
50
227.4064532
51
229.9881192
0
ARC
8
DEFAULT_255_1_234
10
4.3307694
20
53.1311088
40
0.2741476
50
200.6781896
51
228.1763934
0
ARC
8
DEFAULT_255_1_234
10
4.3380005
20
53.1296077
40
0.2804109
50
179.5061581
51
199.8694617
0
ARC
8
DEFAULT_255_1_234
10
4.3370757
20
53.137021
40
0.2795204
50
132.4834203
51
181.0242172
0
ARC
8
DEFAULT_255_1_234
10
4.3966339
20
53.0807704
40
0.3612768
50
129.2532479
51
133.4242687
0
ARC
8
DEFAULT_255_1_234
10
4.4112789
20
53.0587965
40
0.3875675
50
101.98776
51
128.8742646
0
ARC
8
DEFAULT_255_1_234
10
4.4511399
20
52.8866741
40
0.5642249
50
89.5906553
51
102.3169264
0
ARC
8
DEFAULT_255_1_234
10
4.4581891
20
52.9185148
40
0.5323783
50
77.2360837
51
90.3248275
0
ARC
8
DEFAULT_255_1_234
10
4.4788971
20
53.01524
40
0.4334697
50
63.837784
51
77.0809408
0
ARC
8
DEFAULT_255_1_234
10
4.5066732
20
53.0669911
40
0.3747796
50
45.9864267
51
64.1607727
0
ARC
8
DEFAULT_255_1_234
10
4.5327614
20
53.0967866
40
0.3352302
50
32.2747395
51
45.6547121
0
ARC
8
DEFAULT_255_1_234
10
4.5394054
20
53.098688
40
0.328603
50
359.6507365
51
32.6130309
0
ARC
8
DEFAULT_255_1_234
10
4.445115
20
53.099166
40
0.2678863
50
359.469343
51
14.9832209
0
ARC
8
DEFAULT_255_1_234
10
4.5156212
20
53.1180539
40
0.1948938
50
14.9781179
51
48.2004265
0
ARC
8
DEFAULT_255_1_234
10
4.4991856
20
53.0973983
40
0.2212521
50
48.5927837
51
74.1241538
0
ARC
8
DEFAULT_255_1_234
10
4.4658346
20
52.9873248
40
0.3362561
50
73.7888341
51
86.6652678
0
ARC
8
DEFAULT_255_1_234
10
4.4555911
20
52.8665881
40
0.4573953
50
86.2640471
51
90.0526343
0
ARC
8
DEFAULT_255_1_234
10
4.4527624
20
52.9061192
40
0.4178709
50
89.6697524
51
99.2309573
0
ARC
8
DEFAULT_255_1_234
10
4.4285075
20
53.0505964
40
0.2713749
50
99.069534
51
113.7658566
0
ARC
8
DEFAULT_255_1_234
10
4.4011266
20
53.1151677
40
0.2012469
50
114.0401004
51
127.9850673
0
ARC
8
DEFAULT_255_1_234
10
4.377083
20
53.144773
40
0.1631167
50
127.7287463
51
176.7105154
0
ARC
8
DEFAULT_255_1_234
10
4.4449547
20
53.1346693
40
0.2315392
50
175.1779447
51
180.0581938
0
ARC
8
DEFAULT_255_1_234
10
4.3606394
20
53.1334428
40
0.1472271
50
179.6142195
51
228.1246017
0
ARC
8
DEFAULT_255_1_234
10
4.4048063
20
53.1743308
40
0.2072299
50
226.5779593
51
230.8800004
0
ARC
8
DEFAULT_255_1_234
10
4.4519141
20
53.2368636
40
0.2854818
50
231.4635071
51
241.9260842
0
ARC
8
DEFAULT_255_1_234
10
4.5716319
20
53.45718
40
0.53622
50
241.7178533
51
248.3259551
0
ARC
8
DEFAULT_255_1_234
10
4.7101691
20
53.8004064
40
0.9063478
50
248.2007737
51
252.4528373
0
ARC
8
DEFAULT_255_1_234
10
4.8305416
20
54.1725441
40
1.2974635
50
252.3391078
51
254.3469452
0
ARC
8
DEFAULT_255_1_234
10
4.0763119
20
51.4748148
40
1.5037162
50
71.0197183
51
74.4087047
0
ARC
8
DEFAULT_255_1_234
10
4.2457804
20
51.9640111
40
0.9859993
50
66.1847285
51
71.086374
0
ARC
8
DEFAULT_255_1_234
10
4.4014116
20
52.31442
40
0.6025855
50
59.3536294
51
66.2691831
0
ARC
8
DEFAULT_255_1_234
10
4.4902769
20
52.4647609
40
0.4279449
50
49.1020879
51
59.3293958
0
ARC
8
DEFAULT_255_1_234
10
4.5721509
20
52.5580834
40
0.3038015
50
32.7919921
51
49.2505539
0
ARC
8
DEFAULT_255_1_234
10
4.6042599
20
52.5809191
40
0.264448
50
31.1181161
51
32.4005348
0
ARC
8
DEFAULT_255_1_234
10
4.5954136
20
52.5773779
40
0.2738556
50
8.1116974
51
30.7958831
0
ARC
8
DEFAULT_255_1_234
10
4.5143804
20
52.5635753
40
0.3560327
50
359.8389159
51
8.4706516
0
ARC
8
DEFAULT_255_1_234
10
4.5769596
20
52.5587137
40
0.2934776
50
337.4731098
51
0.7537279
0
ARC
8
DEFAULT_255_1_234
10
4.5948291
20
52.5567387
40
0.2762607
50
307.5917067
51
336.4315538
0
ARC
8
DEFAULT_255_1_234
10
4.5488119
20
52.6080102
40
0.3449979
50
307.6551545
51
308.4529766
0
ARC
8
DEFAULT_255_1_234
10
4.5257838
20
52.643525
40
0.3871988
50
284.3734338
51
307.1424381
0
ARC
8
DEFAULT_255_1_234
10
4.4762668
20
52.8256932
40
0.5759636
50
272.4382747
51
284.646547
0
ARC
8
DEFAULT_255_1_234
10
4.4635876
20
53.0056893
40
0.7563528
50
269.9708387
51
272.8178037
0
ARC
8
DEFAULT_255_1_234
10
4.4592916
20
52.8018716
40
0.5525489
50
248.2707594
51
270.4055579
0
ARC
8
DEFAULT_255_1_234
10
4.4538657
20
52.7828192
40
0.5328452
50
246.1383403
51
248.0542782
0
ARC
8
DEFAULT_255_1_234
10
4.4120036
20
52.6948843
40
0.4355005
50
233.1670131
51
246.4950969
0
ARC
8
DEFAULT_255_1_234
10
4.3565941
20
52.6200812
40
0.3424126
50
215.3403242
51
233.0843104
0
ARC
8
DEFAULT_255_1_234
10
4.3293372
20
52.6002549
40
0.3087104
50
179.2419209
51
215.2648451
0
ARC
8
DEFAULT_255_1_234
10
4.4060966
20
52.6016666
40
0.2304457
50
179.335461
51
199.1045811
0
ARC
8
DEFAULT_255_1_234
10
4.3728643
20
52.5929766
40
0.1962176
50
199.8828939
51
232.7063202
0
ARC
8
DEFAULT_255_1_234
10
4.4200911
20
52.6523788
40
0.2720938
50
232.3738199
51
255.5136649
0
ARC
8
DEFAULT_255_1_234
10
4.4541778
20
52.7767835
40
0.4010747
50
255.2446292
51
267.5320849
0
ARC
8
DEFAULT_255_1_234
10
4.4629401
20
52.9000702
40
0.5246356
50
267.1557994
51
270.0286766
0
ARC
8
DEFAULT_255_1_234
10
4.4657173
20
52.855695
40
0.4802668
50
269.7000017
51
278.1660162
0
ARC
8
DEFAULT_255_1_234
10
4.4913178
20
52.6826515
40
0.3053425
50
278.0231263
51
290.625471
0
ARC
8
DEFAULT_255_1_234
10
4.5260865
20
52.5899025
40
0.206291
50
290.6619762
51
307.0370976
0
ARC
8
DEFAULT_255_1_234
10
4.5561254
20
52.5530504
40
0.1587906
50
306.3943566
51
355.3030547
0
ARC
8
DEFAULT_255_1_234
10
4.5049186
20
52.5607113
40
0.2104809
50
354.3660432
51
0.0698737
0
ARC
8
DEFAULT_255_1_234
10
4.5191531
20
52.5629617
40
0.1962563
50
359.417946
51
16.1971788
0
ARC
8
DEFAULT_255_1_234
10
4.5646841
20
52.5754418
40
0.149053
50
16.4723299
51
52.6262157
0
ARC
8
DEFAULT_255_1_234
10
4.4825895
20
52.4670433
40
0.2850296
50
52.7386432
51
62.4979148
0
ARC
8
DEFAULT_255_1_234
10
4.3440972
20
52.2064283
40
0.5801521
50
62.2515216
51
68.1220564
0
ARC
8
DEFAULT_255_1_234
10
4.1720883
20
51.7836872
40
1.0365451
50
68.0062803
51
71.8053402
0
ARC
8
DEFAULT_255_1_234
10
3.9925255
20
51.2451758
40
1.6042013
50
71.7183119
51
73.9258742
0
LINE
8
DEFAULT_255_1_234
10
5.5177699
20
53.4404433
11
5.5177699
21
52.2654
0
LINE
8
DEFAULT_255_1_234
10
5.5177699
20
52.2654
11
5.3683796
21
52.2654
0
LINE
8
DEFAULT_255_1_234
10
5.3683796
20
52.2654
11
5.3683796
21
53.2557133
0
LINE
8
DEFAULT_255_1_234
10
5.3683796
20
53.2557133
11
5.0687958
21
53.1456785
0
LINE
8
DEFAULT_255_1_234
10
5.0687958
20
53.1456785
11
5.0687958
21
53.2806117
0
LINE
8
DEFAULT_255_1_234
10
5.0687958
20
53.2806117
11
5.4944779
21
53.4404433
0
LINE
8
DEFAULT_255_1_234
10
5.4944779
20
53.4404433
11
5.5177699
21
53.4404433
0
LINE
8
DEFAULT_255_1_234
10
4.5877344
20
60.6607091
11
4.3122458
21
60.6607091
0
LINE
8
DEFAULT_255_1_234
10
4.3122458
20
60.6607091
11
4.3122458
21
60.2029
0
LINE
8
DEFAULT_255_1_234
10
4.3122458
20
60.2029
11
4.1580364
21
60.2029
0
LINE
8
DEFAULT_255_1_234
10
4.1580364
20
60.2029
11
4.1580364
21
61.3723211
0
LINE
8
DEFAULT_255_1_234
10
4.1580364
20
61.3723211
11
4.5893407
21
61.3723211
0
LINE
8
DEFAULT_255_1_234
10
4.3122458
20
61.2454196
11
4.3122458
21
60.7868074
0
LINE
8
DEFAULT_255_1_234
10
4.3122458
20
60.7868074
11
4.5893407
21
60.7868074
0
LINE
8
DEFAULT_255_1_234
10
4.5981756
20
61.2454196
11
4.3122458
21
61.2454196
0
ARC
8
DEFAULT_255_1_234
10
4.5935534
20
60.7664195
40
0.6059162
50
78.8378113
51
90.3983573
0
ARC
8
DEFAULT_255_1_234
10
4.6351548
20
60.9684879
40
0.3996205
50
58.9632738
51
79.0810598
0
ARC
8
DEFAULT_255_1_234
10
4.665309
20
61.0244721
40
0.3361177
50
48.0197965
51
58.447194
0
ARC
8
DEFAULT_255_1_234
10
4.6741951
20
61.0330225
40
0.3238191
50
3.3375044
51
48.1766626
0
ARC
8
DEFAULT_255_1_234
10
4.551179
20
61.0153171
40
0.4477806
50
359.9477528
51
4.6829065
0
ARC
8
DEFAULT_255_1_234
10
4.5635107
20
61.0110628
40
0.4354656
50
346.1877825
51
0.5060252
0
ARC
8
DEFAULT_255_1_234
10
4.6993975
20
60.9757731
40
0.295089
50
310.8831995
51
346.5426355
0
ARC
8
DEFAULT_255_1_234
10
4.6685395
20
61.0174695
40
0.3468331
50
286.6925341
51
310.2288297
0
ARC
8
DEFAULT_255_1_234
10
4.6116226
20
61.1964882
40
0.5346654
50
274.6850312
51
287.0245141
0
ARC
8
DEFAULT_255_1_234
10
4.5890949
20
61.4173932
40
0.7566852
50
269.8969846
51
275.018904
0
ARC
8
DEFAULT_255_1_234
10
4.591854
20
61.2094707
40
0.4226708
50
269.6593078
51
279.4153575
0
ARC
8
DEFAULT_255_1_234
10
4.6175815
20
61.0604133
40
0.2714146
50
279.2049762
51
294.9900808
0
ARC
8
DEFAULT_255_1_234
10
4.6466141
20
60.9956508
40
0.2004525
50
295.2888114
51
311.2911209
0
ARC
8
DEFAULT_255_1_234
10
4.6537035
20
60.985122
40
0.1878703
50
311.7854996
51
347.2861051
0
ARC
8
DEFAULT_255_1_234
10
4.5553194
20
61.0104092
40
0.2894234
50
346.6893224
51
0.1059443
0
ARC
8
DEFAULT_255_1_234
10
4.4798089
20
61.0132685
40
0.3649409
50
359.6350983
51
0.0053152
0
ARC
8
DEFAULT_255_1_234
10
4.5768417
20
61.0157937
40
0.2679199
50
359.4672059
51
15.5933957
0
ARC
8
DEFAULT_255_1_234
10
4.6393306
20
61.0326779
40
0.2031932
50
15.7442113
51
46.6203375
0
ARC
8
DEFAULT_255_1_234
10
4.6245527
20
61.0156484
40
0.2257226
50
46.8628658
51
75.6676503
0
ARC
8
DEFAULT_255_1_234
10
4.5951347
20
60.9097718
40
0.3355939
50
75.276167
51
88.2915297
0
ARC
8
DEFAULT_255_1_234
10
4.5893054
20
60.8219524
40
0.4235602
50
87.8575022
51
88.8000139
0
LINE
8
DEFAULT_255_1_234
10
5.6455143
20
61.3779433
11
5.6455143
21
60.2029
0
LINE
8
DEFAULT_255_1_234
10
5.6455143
20
60.2029
11
5.496124
21
60.2029
0
LINE
8
DEFAULT_255_1_234
10
5.496124
20
60.2029
11
5.496124
21
61.1932133
0
LINE
8
DEFAULT_255_1_234
10
5.496124
20
61.1932133
11
5.1965401
21
61.0831785
0
LINE
8
DEFAULT_255_1_234
10
5.1965401
20
61.0831785
11
5.1965401
21
61.2181117
0
LINE
8
DEFAULT_255_1_234
10
5.1965401
20
61.2181117
11
5.6222223
21
61.3779433
0
LINE
8
DEFAULT_255_1_234
10
5.6222223
20
61.3779433
11
5.6455143
21
61.3779433
0
LINE
8
DEFAULT_255_1_234
10
6.521777
20
61.1715276
11
6.521777
21
60.8301788
0
LINE
8
DEFAULT_255_1_234
10
6.521777
20
60.8301788
11
6.8478655
21
60.8301788
0
LINE
8
DEFAULT_255_1_234
10
6.8478655
20
60.8301788
11
6.8478655
21
60.6896233
0
LINE
8
DEFAULT_255_1_234
10
6.8478655
20
60.6896233
11
6.521777
21
60.6896233
0
LINE
8
DEFAULT_255_1_234
10
6.521777
20
60.6896233
11
6.521777
21
60.3201634
0
LINE
8
DEFAULT_255_1_234
10
6.521777
20
60.3201634
11
6.3723866
21
60.3201634
0
LINE
8
DEFAULT_255_1_234
10
6.3723866
20
60.3201634
11
6.3723866
21
60.6896233
0
LINE
8
DEFAULT_255_1_234
10
6.3723866
20
60.6896233
11
6.046298
21
60.6896233
0
LINE
8
DEFAULT_255_1_234
10
6.046298
20
60.6896233
11
6.046298
21
60.8301788
0
LINE
8
DEFAULT_255_1_234
10
6.046298
20
60.8301788
11
6.3723866
21
60.8301788
0
LINE
8
DEFAULT_255_1_234
10
6.3723866
20
60.8301788
11
6.3723866
21
61.1715276
0
LINE
8
DEFAULT_255_1_234
10
6.3723866
20
61.1715276
11
6.521777
21
61.1715276
0
LINE
8
DEFAULT_255_1_234
10
23.1656817
20
68.8319327
11
23.1656817
21
68.6391709
0
LINE
8
DEFAULT_255_1_234
10
22.427565
20
68.6190916
11
22.427565
21
68.8174755
0
LINE
8
DEFAULT_255_1_234
10
23.0170946
20
68.5990123
11
23.0170946
21
68.8423739
0
LINE
8
DEFAULT_255_1_234
10
22.5761521
20
68.8536184
11
22.5761521
21
68.6158789
0
ARC
8
DEFAULT_255_1_234
10
21.9409707
20
68.6342805
40
1.2247208
50
353.8441951
51
0.2287902
0
ARC
8
DEFAULT_255_1_234
10
22.4049211
20
68.5824806
40
0.7578929
50
344.4934747
51
353.9765454
0
ARC
8
DEFAULT_255_1_234
10
22.7041801
20
68.4973981
40
0.4467846
50
329.2803592
51
344.7472793
0
ARC
8
DEFAULT_255_1_234
10
22.8034626
20
68.4429018
40
0.3336173
50
324.9352394
51
328.6160465
0
ARC
8
DEFAULT_255_1_234
10
22.8411734
20
68.4165427
40
0.2876076
50
280.580143
51
324.9173126
0
ARC
8
DEFAULT_255_1_234
10
22.8010527
20
68.5836099
40
0.4592847
50
269.5977311
51
281.6734359
0
ARC
8
DEFAULT_255_1_234
10
22.7938433
20
68.5716173
40
0.4472986
50
256.6228859
51
270.51044
0
ARC
8
DEFAULT_255_1_234
10
22.753641
20
68.4167877
40
0.2873874
50
215.8618325
51
257.2788573
0
ARC
8
DEFAULT_255_1_234
10
22.8557442
20
68.4852977
40
0.4102928
50
197.9693508
51
215.2623606
0
ARC
8
DEFAULT_255_1_234
10
23.1042558
20
68.5691709
40
0.6725652
50
187.8816417
51
198.2346507
0
ARC
8
DEFAULT_255_1_234
10
23.5000766
20
68.6263079
40
1.0724845
50
180.8976217
51
188.0055519
0
ARC
8
DEFAULT_255_1_234
10
23.7800954
20
68.6366777
40
1.3526448
50
180.7449369
51
181.1510016
0
ARC
8
DEFAULT_255_1_234
10
23.6223683
20
68.8223042
40
1.1948131
50
173.7675579
51
180.231553
0
ARC
8
DEFAULT_255_1_234
10
23.170583
20
68.8733666
40
0.7401564
50
164.3058563
51
173.9002247
0
ARC
8
DEFAULT_255_1_234
10
22.8793899
20
68.9572656
40
0.4371288
50
148.7922025
51
164.568378
0
ARC
8
DEFAULT_255_1_234
10
22.7842351
20
69.0103929
40
0.3282386
50
144.5883898
51
148.1176286
0
ARC
8
DEFAULT_255_1_234
10
22.7499249
20
69.0343315
40
0.2864044
50
101.6440918
51
144.514236
0
ARC
8
DEFAULT_255_1_234
10
22.7924315
20
68.8654069
40
0.4604934
50
89.5284041
51
102.5819763
0
ARC
8
DEFAULT_255_1_234
10
22.8003403
20
68.8615018
40
0.464401
50
77.0437873
51
90.5081339
0
ARC
8
DEFAULT_255_1_234
10
22.8405405
20
69.0257615
40
0.2953195
50
48.2778575
51
77.4994676
0
ARC
8
DEFAULT_255_1_234
10
22.8478036
20
69.0386746
40
0.2808655
50
36.3142134
51
47.6305865
0
ARC
8
DEFAULT_255_1_234
10
22.7609343
20
68.9801515
40
0.3855453
50
18.2931786
51
35.6769206
0
ARC
8
DEFAULT_255_1_234
10
22.5066102
20
68.8928593
40
0.654423
50
8.024666
51
18.5605216
0
ARC
8
DEFAULT_255_1_234
10
22.0903022
20
68.8313792
40
1.0752407
50
1.1274072
51
8.1718305
0
ARC
8
DEFAULT_255_1_234
10
21.7667213
20
68.8186885
40
1.3990231
50
0.5424119
51
1.3863029
0
ARC
8
DEFAULT_255_1_234
10
21.948859
20
68.8459342
40
1.0682415
50
359.8090433
51
4.9407866
0
ARC
8
DEFAULT_255_1_234
10
22.3698604
20
68.8835113
40
0.6455691
50
4.8362157
51
12.2904523
0
ARC
8
DEFAULT_255_1_234
10
22.6453719
20
68.9448965
40
0.3633074
50
12.0805627
51
23.8173984
0
ARC
8
DEFAULT_255_1_234
10
22.7627425
20
68.9945919
40
0.2358723
50
24.2871213
51
31.3935614
0
ARC
8
DEFAULT_255_1_234
10
22.8152122
20
69.0289233
40
0.1732111
50
30.7407893
51
82.4657128
0
ARC
8
DEFAULT_255_1_234
10
22.7972256
20
68.9405691
40
0.263235
50
81.1060089
51
90.2184952
0
ARC
8
DEFAULT_255_1_234
10
22.7936555
20
68.9663924
40
0.2374236
50
89.3806855
51
105.6762551
0
ARC
8
DEFAULT_255_1_234
10
22.7753186
20
69.0330567
40
0.1682847
50
105.7981136
51
149.7388061
0
ARC
8
DEFAULT_255_1_234
10
22.8817264
20
68.969095
40
0.2924306
50
149.4208916
51
163.6286378
0
ARC
8
DEFAULT_255_1_234
10
23.0908152
20
68.905325
40
0.5110213
50
163.3763315
51
172.1410975
0
ARC
8
DEFAULT_255_1_234
10
23.4208871
20
68.8580518
40
0.8444586
50
172.0259487
51
178.0703232
0
ARC
8
DEFAULT_255_1_234
10
23.723896
20
68.8436906
40
1.1477868
50
177.8631668
51
179.5044149
0
ARC
8
DEFAULT_255_1_234
10
23.6166365
20
68.6122389
40
1.0404907
50
179.7995573
51
185.2460446
0
ARC
8
DEFAULT_255_1_234
10
23.2123404
20
68.5739513
40
0.6343885
50
185.1411642
51
193.0079639
0
ARC
8
DEFAULT_255_1_234
10
22.9479877
20
68.5114641
40
0.3627568
50
192.7897626
51
205.2507664
0
ARC
8
DEFAULT_255_1_234
10
22.8433424
20
68.4647415
40
0.2481908
50
205.8005384
51
211.2537509
0
ARC
8
DEFAULT_255_1_234
10
22.7909864
20
68.429658
40
0.1852521
50
210.3789793
51
238.4008143
0
ARC
8
DEFAULT_255_1_234
10
22.7890386
20
68.4343376
40
0.1882621
50
239.6520629
51
265.9793761
0
ARC
8
DEFAULT_255_1_234
10
22.7975586
20
68.5015427
40
0.2559272
50
265.1315437
51
270.060332
0
ARC
8
DEFAULT_255_1_234
10
22.8004365
20
68.4691534
40
0.2235528
50
269.3314664
51
287.2178029
0
ARC
8
DEFAULT_255_1_234
10
22.8142217
20
68.4188279
40
0.1714108
50
287.7958004
51
329.080874
0
ARC
8
DEFAULT_255_1_234
10
22.7184674
20
68.478593
40
0.2842745
50
328.6634704
51
343.3325132
0
ARC
8
DEFAULT_255_1_234
10
22.5011694
20
68.5462863
40
0.5118644
50
343.0499468
51
351.9393422
0
ARC
8
DEFAULT_255_1_234
10
22.1544994
20
68.5973949
40
0.8622784
50
351.8069023
51
357.7959224
0
ARC
8
DEFAULT_255_1_234
10
21.830955
20
68.6141721
40
1.1862365
50
357.5871873
51
359.2677531
0
LINE
8
DEFAULT_255_1_234
10
23.4492021
20
69.3098211
11
23.7817161
21
68.3452093
0
LINE
8
DEFAULT_255_1_234
10
23.7817161
20
68.3452093
11
24.1158364
21
69.3098211
0
LINE
8
DEFAULT_255_1_234
10
24.1158364
20
69.3098211
11
24.2845029
21
69.3098211
0
LINE
8
DEFAULT_255_1_234
10
24.2845029
20
69.3098211
11
23.850789
21
68.1404
0
LINE
8
DEFAULT_255_1_234
10
23.850789
20
68.1404
11
23.7142495
21
68.1404
0
LINE
8
DEFAULT_255_1_234
10
23.7142495
20
68.1404
11
23.2813388
21
69.3098211
0
LINE
8
DEFAULT_255_1_234
10
23.2813388
20
69.3098211
11
23.4492021
21
69.3098211
0
ENDSEC
0
EOF