0
SECTION
2
HEADER
9
$MEASUREMENT
70
1
0
ENDSEC
0
SECTION
2
TABLES
0
TABLE
2
LTYPE
0
LTYPE
72
65
70
64
2
CONTINUOUS
3
______
73
0
40
0
0
ENDTAB
0
TABLE
2
LAYER
0
LAYER
2
DEFAULT_255_2_778
70
0
62
255
6
CONTINUOUS
0
LAYER
2
DEFAULT_255_1_234
70
0
62
255
6
CONTINUOUS
0
ENDTAB
0
ENDSEC
0
SECTION
2
ENTITIES
0
ARC
8
DEFAULT_255_2_778
10
3.5700693
20
28.1802037
40
0.7914215
50
129.1312896
51
180.1450914
0
ARC
8
DEFAULT_255_2_778
10
3.5703345
20
28.1806908
40
0.7912112
50
89.854026
51
129.1684493
0
ARC
8
DEFAULT_255_2_778
10
25.7993937
20
28.1803773
40
0.7915249
50
39.4792447
51
90.147911
0
ARC
8
DEFAULT_255_2_778
10
25.7999935
20
28.180224
40
0.7911595
50
359.8533901
51
39.5154338
0
ARC
8
DEFAULT_255_2_778
10
25.7996693
20
-1.9863486
40
0.7914836
50
309.4761667
51
0.1482649
0
ARC
8
DEFAULT_255_2_778
10
25.799398
20
-1.9867797
40
0.7913235
50
269.8517415
51
309.511178
0
ARC
8
DEFAULT_255_2_778
10
3.570342
20
-1.9867215
40
0.7913815
50
219.1282118
51
270.1454017
0
ARC
8
DEFAULT_255_2_778
10
3.5700247
20
-1.986339
40
0.7913769
50
179.8524075
51
219.1641908
0
LINE
8
DEFAULT_255_2_778
10
3.5723503
20
28.9718996
11
25.7973503
21
28.9718996
0
LINE
8
DEFAULT_255_2_778
10
26.5911503
20
28.1781996
11
26.5911503
21
-1.9843004
0
LINE
8
DEFAULT_255_2_778
10
25.7973503
20
-2.7781004
11
3.5723503
21
-2.7781004
0
LINE
8
DEFAULT_255_2_778
10
2.7786503
20
-1.9843004
11
2.7786503
21
28.1781996
0
LINE
8
DEFAULT_255_1_234
10
10.072623
20
-0.2802337
11
10.2276355
21
-0.2802337
0
LINE
8
DEFAULT_255_1_234
10
9.3272777
20
-0.1212053
11
9.3272777
21
-0.0087609
0
LINE
8
DEFAULT_255_1_234
10
10.2276355
20
0.1422357
11
10.072623
21
0.1422357
0
LINE
8
DEFAULT_255_1_234
10
9.4822902
20
-0.0127768
11
9.4822902
21
-0.1260243
0
ARC
8
DEFAULT_255_1_234
10
9.6795742
20
-0.2205154
40
0.5513052
50
340.1774281
51
353.7814284
0
ARC
8
DEFAULT_255_1_234
10
9.8367095
20
-0.2790418
40
0.3836379
50
311.4558989
51
340.4421614
0
ARC
8
DEFAULT_255_1_234
10
9.8333763
20
-0.2679472
40
0.3941894
50
282.4333181
51
310.7513653
0
ARC
8
DEFAULT_255_1_234
10
9.7894502
20
-0.0864321
40
0.5809175
50
269.9358511
51
282.809604
0
ARC
8
DEFAULT_255_1_234
10
9.7842568
20
0.0593212
40
0.7266847
50
270.0021091
51
270.3581957
0
ARC
8
DEFAULT_255_1_234
10
9.7789985
20
-0.2007415
40
0.4666519
50
250.7884749
51
270.6489167
0
ARC
8
DEFAULT_255_1_234
10
9.762182
20
-0.2644681
40
0.4009729
50
219.3627325
51
250.0611886
0
ARC
8
DEFAULT_255_1_234
10
9.8451031
20
-0.1939958
40
0.5097822
50
193.5479632
51
219.5756669
0
ARC
8
DEFAULT_255_1_234
10
10.0822652
20
-0.1324081
40
0.7547848
50
181.1218675
51
193.87563
0
ARC
8
DEFAULT_255_1_234
10
10.2892833
20
-0.121342
40
0.9620055
50
179.9918545
51
181.5394234
0
ARC
8
DEFAULT_255_1_234
10
10.1041935
20
-0.0050212
40
0.7769248
50
169.5837241
51
180.2757934
0
ARC
8
DEFAULT_255_1_234
10
9.9204873
20
0.0289229
40
0.590109
50
155.0365899
51
169.6003176
0
ARC
8
DEFAULT_255_1_234
10
9.8069337
20
0.0836677
40
0.4640625
50
136.783148
51
155.2472683
0
ARC
8
DEFAULT_255_1_234
10
9.7679814
20
0.1167562
40
0.4130255
50
121.7633186
51
136.428115
0
ARC
8
DEFAULT_255_1_234
10
9.7814776
20
0.0918227
40
0.4413323
50
95.6459699
51
121.5490577
0
ARC
8
DEFAULT_255_1_234
10
9.7972058
20
-0.0190051
40
0.55319
50
89.924208
51
96.1377933
0
ARC
8
DEFAULT_255_1_234
10
9.8022491
20
-0.0071458
40
0.5413475
50
76.6779277
51
90.4563316
0
ARC
8
DEFAULT_255_1_234
10
9.8416114
20
0.1519114
40
0.3775041
50
47.485847
51
76.9287264
0
ARC
8
DEFAULT_255_1_234
10
9.8269087
20
0.1419159
40
0.3948286
50
16.5424086
51
46.8933463
0
ARC
8
DEFAULT_255_1_234
10
9.6661244
20
0.0890861
40
0.564021
50
5.4072051
51
17.0365086
0
ARC
8
DEFAULT_255_1_234
10
9.5222261
20
0.0659679
40
0.5556559
50
7.8891745
51
15.9239216
0
ARC
8
DEFAULT_255_1_234
10
9.7209274
20
0.1236631
40
0.3487515
50
15.7653144
51
27.9410532
0
ARC
8
DEFAULT_255_1_234
10
9.8313492
20
0.182779
40
0.2235026
50
27.8166557
51
46.4008329
0
ARC
8
DEFAULT_255_1_234
10
9.8363135
20
0.1822082
40
0.2205286
50
47.4371857
51
75.0698205
0
ARC
8
DEFAULT_255_1_234
10
9.8054529
20
0.0747765
40
0.3322915
50
74.7008593
51
87.8124495
0
ARC
8
DEFAULT_255_1_234
10
9.7981217
20
-0.0308156
40
0.4380987
50
87.3814673
51
90.0240855
0
ARC
8
DEFAULT_255_1_234
10
9.794276
20
0.0869291
40
0.3203749
50
89.3451631
51
108.5745436
0
ARC
8
DEFAULT_255_1_234
10
9.7805865
20
0.1382908
40
0.2673494
50
109.2998449
51
143.3037509
0
ARC
8
DEFAULT_255_1_234
10
9.8567938
20
0.0796881
40
0.3634757
50
143.0753173
51
163.1916937
0
ARC
8
DEFAULT_255_1_234
10
10.0519666
20
0.0180967
40
0.5681262
50
162.9373603
51
174.6208611
0
ARC
8
DEFAULT_255_1_234
10
10.3145708
20
-0.010699
40
0.8322832
50
174.3419979
51
180.1430411
0
ARC
8
DEFAULT_255_1_234
10
10.2214864
20
-0.1301302
40
0.7392076
50
179.6817502
51
189.150529
0
ARC
8
DEFAULT_255_1_234
10
9.9714112
20
-0.171781
40
0.4856932
50
188.9910863
51
203.5773039
0
ARC
8
DEFAULT_255_1_234
10
9.8634445
20
-0.2165789
40
0.3688271
50
203.9077269
51
215.1312379
0
ARC
8
DEFAULT_255_1_234
10
9.7711539
20
-0.2881059
40
0.2522457
50
213.9071664
51
263.8849284
0
ARC
8
DEFAULT_255_1_234
10
9.7836868
20
-0.2096482
40
0.3316174
50
263.1758525
51
270.1031083
0
ARC
8
DEFAULT_255_1_234
10
9.786896
20
-0.0849635
40
0.4563091
50
269.6719807
51
279.0609165
0
ARC
8
DEFAULT_255_1_234
10
9.8135728
20
-0.2462093
40
0.2928759
50
278.8750225
51
293.6346586
0
ARC
8
DEFAULT_255_1_234
10
9.8455936
20
-0.32141
40
0.2111472
50
293.8553404
51
310.0518804
0
ARC
8
DEFAULT_255_1_234
10
9.846079
20
-0.3276484
40
0.2060917
50
311.0646779
51
332.0108348
0
ARC
8
DEFAULT_255_1_234
10
9.7268517
20
-0.2619022
40
0.3422352
50
331.6588543
51
343.2878891
0
ARC
8
DEFAULT_255_1_234
10
9.5206032
20
-0.1985202
40
0.5580003
50
343.1446044
51
351.010618
0
ARC
8
DEFAULT_255_1_234
10
9.3664678
20
-0.1704129
40
0.7146438
50
350.7157277
51
351.1602153
0
LINE
8
DEFAULT_255_1_234
10
11.213933
20
0.1799849
11
11.0589205
21
0.1799849
0
LINE
8
DEFAULT_255_1_234
10
10.3665846
20
-0.3123606
11
10.5215972
21
-0.3123606
0
ARC
8
DEFAULT_255_1_234
10
11.1248017
20
1.0746768
40
1.252368
50
248.9199003
51
254.1439814
0
ARC
8
DEFAULT_255_1_234
10
10.9567512
20
0.6420234
40
0.788226
50
241.633709
51
249.0064503
0
ARC
8
DEFAULT_255_1_234
10
10.8038907
20
0.3619317
40
0.4691427
50
230.498225
51
241.8087113
0
ARC
8
DEFAULT_255_1_234
10
10.7254481
20
0.2619906
40
0.3421437
50
227.4064532
51
229.9881192
0
ARC
8
DEFAULT_255_1_234
10
10.6767002
20
0.2144088
40
0.2741476
50
200.6781896
51
228.1763934
0
ARC
8
DEFAULT_255_1_234
10
10.6839312
20
0.2129077
40
0.2804109
50
179.5061581
51
199.8694617
0
ARC
8
DEFAULT_255_1_234
10
10.6830064
20
0.220321
40
0.2795204
50
132.4834203
51
181.0242172
0
ARC
8
DEFAULT_255_1_234
10
10.7425646
20
0.1640704
40
0.3612768
50
129.2532479
51
133.4242687
0
ARC
8
DEFAULT_255_1_234
10
10.7572096
20
0.1420965
40
0.3875675
50
101.98776
51
128.8742646
0
ARC
8
DEFAULT_255_1_234
10
10.7970706
20
-0.0300259
40
0.5642249
50
89.5906553
51
102.3169264
0
ARC
8
DEFAULT_255_1_234
10
10.8041199
20
0.0018148
40
0.5323783
50
77.2360837
51
90.3248275
0
ARC
8
DEFAULT_255_1_234
10
10.8248278
20
0.09854
40
0.4334697
50
63.837784
51
77.0809408
0
ARC
8
DEFAULT_255_1_234
10
10.8526039
20
0.1502911
40
0.3747796
50
45.9864267
51
64.1607727
0
ARC
8
DEFAULT_255_1_234
10
10.8786921
20
0.1800866
40
0.3352302
50
32.2747395
51
45.6547121
0
ARC
8
DEFAULT_255_1_234
10
10.8853361
20
0.181988
40
0.328603
50
359.6507365
51
32.6130309
0
ARC
8
DEFAULT_255_1_234
10
10.7910457
20
0.182466
40
0.2678863
50
359.469343
51
14.9832209
0
ARC
8
DEFAULT_255_1_234
10
10.8615519
20
0.2013539
40
0.1948938
50
14.9781179
51
48.2004265
0
ARC
8
DEFAULT_255_1_234
10
10.8451163
20
0.1806983
40
0.2212521
50
48.5927837
51
74.1241538
0
ARC
8
DEFAULT_255_1_234
10
10.8117653
20
0.0706248
40
0.3362561
50
73.7888341
51
86.6652678
0
ARC
8
DEFAULT_255_1_234
10
10.8015218
20
-0.0501119
40
0.4573953
50
86.2640471
51
90.0526343
0
ARC
8
DEFAULT_255_1_234
10
10.7986931
20
-0.0105808
40
0.4178709
50
89.6697524
51
99.2309573
0
ARC
8
DEFAULT_255_1_234
10
10.7744382
20
0.1338964
40
0.2713749
50
99.069534
51
113.7658566
0
ARC
8
DEFAULT_255_1_234
10
10.7470573
20
0.1984677
40
0.2012469
50
114.0401004
51
127.9850673
0
ARC
8
DEFAULT_255_1_234
10
10.7230137
20
0.228073
40
0.1631167
50
127.7287463
51
176.7105154
0
ARC
8
DEFAULT_255_1_234
10
10.7908854
20
0.2179693
40
0.2315392
50
175.1779447
51
180.0581938
0
ARC
8
DEFAULT_255_1_234
10
10.7065701
20
0.2167428
40
0.1472271
50
179.6142195
51
228.1246017
0
ARC
8
DEFAULT_255_1_234
10
10.750737
20
0.2576308
40
0.2072299
50
226.5779593
51
230.8800004
0
ARC
8
DEFAULT_255_1_234
10
10.7978448
20
0.3201636
40
0.2854818
50
231.4635071
51
241.9260842
0
ARC
8
DEFAULT_255_1_234
10
10.9175626
20
0.54048
40
0.53622
50
241.7178533
51
248.3259551
0
ARC
8
DEFAULT_255_1_234
10
11.0560998
20
0.8837064
40
0.9063478
50
248.2007737
51
252.4528373
0
ARC
8
DEFAULT_255_1_234
10
11.1764723
20
1.2558441
40
1.2974635
50
252.3391078
51
254.3469452
0
ARC
8
DEFAULT_255_1_234
10
10.4222426
20
-1.4418852
40
1.5037162
50
71.0197183
51
74.4087047
0
ARC
8
DEFAULT_255_1_234
10
10.5917111
20
-0.9526889
40
0.9859993
50
66.1847285
51
71.086374
0
ARC
8
DEFAULT_255_1_234
10
10.7473423
20
-0.60228
40
0.6025855
50
59.3536294
51
66.2691831
0
ARC
8
DEFAULT_255_1_234
10
10.8362076
20
-0.4519391
40
0.4279449
50
49.1020879
51
59.3293958
0
ARC
8
DEFAULT_255_1_234
10
10.9180816
20
-0.3586166
40
0.3038015
50
32.7919921
51
49.2505539
0
ARC
8
DEFAULT_255_1_234
10
10.9501906
20
-0.3357809
40
0.264448
50
31.1181161
51
32.4005348
0
ARC
8
DEFAULT_255_1_234
10
10.9413443
20
-0.3393221
40
0.2738556
50
8.1116974
51
30.7958831
0
ARC
8
DEFAULT_255_1_234
10
10.8603111
20
-0.3531247
40
0.3560327
50
359.8389159
51
8.4706516
0
ARC
8
DEFAULT_255_1_234
10
10.9228903
20
-0.3579863
40
0.2934776
50
337.4731098
51
0.7537279
0
ARC
8
DEFAULT_255_1_234
10
10.9407598
20
-0.3599613
40
0.2762607
50
307.5917067
51
336.4315538
0
ARC
8
DEFAULT_255_1_234
10
10.8947426
20
-0.3086898
40
0.3449979
50
307.6551545
51
308.4529766
0
ARC
8
DEFAULT_255_1_234
10
10.8717145
20
-0.273175
40
0.3871988
50
284.3734338
51
307.1424381
0
ARC
8
DEFAULT_255_1_234
10
10.8221975
20
-0.0910068
40
0.5759636
50
272.4382747
51
284.646547
0
ARC
8
DEFAULT_255_1_234
10
10.8095184
20
0.0889893
40
0.7563528
50
269.9708387
51
272.8178037
0
ARC
8
DEFAULT_255_1_234
10
10.8052223
20
-0.1148284
40
0.5525489
50
248.2707594
51
270.4055579
0
ARC
8
DEFAULT_255_1_234
10
10.7997964
20
-0.1338808
40
0.5328452
50
246.1383403
51
248.0542782
0
ARC
8
DEFAULT_255_1_234
10
10.7579343
20
-0.2218157
40
0.4355005
50
233.1670131
51
246.4950969
0
ARC
8
DEFAULT_255_1_234
10
10.7025248
20
-0.2966188
40
0.3424126
50
215.3403242
51
233.0843104
0
ARC
8
DEFAULT_255_1_234
10
10.6752679
20
-0.3164451
40
0.3087104
50
179.2419209
51
215.2648451
0
ARC
8
DEFAULT_255_1_234
10
10.7520273
20
-0.3150334
40
0.2304457
50
179.335461
51
199.1045811
0
ARC
8
DEFAULT_255_1_234
10
10.718795
20
-0.3237234
40
0.1962176
50
199.8828939
51
232.7063202
0
ARC
8
DEFAULT_255_1_234
10
10.7660218
20
-0.2643212
40
0.2720938
50
232.3738199
51
255.5136649
0
ARC
8
DEFAULT_255_1_234
10
10.8001085
20
-0.1399165
40
0.4010747
50
255.2446292
51
267.5320849
0
ARC
8
DEFAULT_255_1_234
10
10.8088708
20
-0.0166298
40
0.5246356
50
267.1557994
51
270.0286766
0
ARC
8
DEFAULT_255_1_234
10
10.811648
20
-0.061005
40
0.4802668
50
269.7000017
51
278.1660162
0
ARC
8
DEFAULT_255_1_234
10
10.8372485
20
-0.2340485
40
0.3053425
50
278.0231263
51
290.625471
0
ARC
8
DEFAULT_255_1_234
10
10.8720172
20
-0.3267975
40
0.206291
50
290.6619762
51
307.0370976
0
ARC
8
DEFAULT_255_1_234
10
10.9020562
20
-0.3636496
40
0.1587906
50
306.3943566
51
355.3030547
0
ARC
8
DEFAULT_255_1_234
10
10.8508493
20
-0.3559887
40
0.2104809
50
354.3660432
51
0.0698737
0
ARC
8
DEFAULT_255_1_234
10
10.8650838
20
-0.3537383
40
0.1962563
50
359.417946
51
16.1971788
0
ARC
8
DEFAULT_255_1_234
10
10.9106149
20
-0.3412582
40
0.149053
50
16.4723299
51
52.6262157
0
ARC
8
DEFAULT_255_1_234
10
10.8285202
20
-0.4496567
40
0.2850296
50
52.7386432
51
62.4979148
0
ARC
8
DEFAULT_255_1_234
10
10.6900279
20
-0.7102717
40
0.5801521
50
62.2515216
51
68.1220564
0
ARC
8
DEFAULT_255_1_234
10
10.518019
20
-1.1330128
40
1.0365451
50
68.0062803
51
71.8053402
0
ARC
8
DEFAULT_255_1_234
10
10.3384562
20
-1.6715242
40
1.6042013
50
71.7183119
51
73.9258742
0
LINE
8
DEFAULT_255_1_234
10
11.8637006
20
0.5237433
11
11.8637006
21
-0.6513
0
LINE
8
DEFAULT_255_1_234
10
11.8637006
20
-0.6513
11
11.7143103
21
-0.6513
0
LINE
8
DEFAULT_255_1_234
10
11.7143103
20
-0.6513
11
11.7143103
21
0.3390133
0
LINE
8
DEFAULT_255_1_234
10
11.7143103
20
0.3390133
11
11.4147265
21
0.2289785
0
LINE
8
DEFAULT_255_1_234
10
11.4147265
20
0.2289785
11
11.4147265
21
0.3639117
0
LINE
8
DEFAULT_255_1_234
10
11.4147265
20
0.3639117
11
11.8404086
21
0.5237433
0
LINE
8
DEFAULT_255_1_234
10
11.8404086
20
0.5237433
11
11.8637006
21
0.5237433
0
LINE
8
DEFAULT_255_1_234
10
12.4050398
20
0.5181211
11
12.5897698
21
-0.2826432
0
LINE
8
DEFAULT_255_1_234
10
12.5897698
20
-0.2826432
11
12.6122586
21
-0.4368526
0
LINE
8
DEFAULT_255_1_234
10
12.6122586
20
-0.4368526
11
12.6451888
21
-0.2979035
0
LINE
8
DEFAULT_255_1_234
10
12.6451888
20
-0.2979035
11
12.8765028
21
0.5181211
0
LINE
8
DEFAULT_255_1_234
10
12.8765028
20
0.5181211
11
13.006617
21
0.5181211
0
LINE
8
DEFAULT_255_1_234
10
13.006617
20
0.5181211
11
13.2323088
21
-0.2979035
0
LINE
8
DEFAULT_255_1_234
10
13.2323088
20
-0.2979035
11
13.2644358
21
-0.4392621
0
LINE
8
DEFAULT_255_1_234
10
13.2644358
20
-0.4392621
11
13.2893342
21
-0.28184
0
LINE
8
DEFAULT_255_1_234
10
13.2893342
20
-0.28184
11
13.4708515
21
0.5181211
0
LINE
8
DEFAULT_255_1_234
10
13.4708515
20
0.5181211
11
13.625864
21
0.5181211
0
LINE
8
DEFAULT_255_1_234
10
13.625864
20
0.5181211
11
13.3423437
21
-0.6513
0
LINE
8
DEFAULT_255_1_234
10
13.3423437
20
-0.6513
11
13.2017882
21
-0.6513
0
LINE
8
DEFAULT_255_1_234
10
13.2017882
20
-0.6513
11
12.9608361
21
0.2008674
0
LINE
8
DEFAULT_255_1_234
10
12.9608361
20
0.2008674
11
12.9423631
21
0.2900197
0
LINE
8
DEFAULT_255_1_234
10
12.9423631
20
0.2900197
11
12.9238901
21
0.2008674
0
LINE
8
DEFAULT_255_1_234
10
12.9238901
20
0.2008674
11
12.674103
21
-0.6513
0
LINE
8
DEFAULT_255_1_234
10
12.674103
20
-0.6513
11
12.5335476
21
-0.6513
0
LINE
8
DEFAULT_255_1_234
10
12.5335476
20
-0.6513
11
12.2508304
21
0.5181211
0
LINE
8
DEFAULT_255_1_234
10
12.2508304
20
0.5181211
11
12.4050398
21
0.5181211
0
LINE
8
DEFAULT_255_1_234
10
14.0346795
20
-0.0938974
11
14.0346795
21
-0.2151766
0
LINE
8
DEFAULT_255_1_234
10
14.0346795
20
-0.2151766
11
13.6427307
21
-0.2151766
0
LINE
8
DEFAULT_255_1_234
10
13.6427307
20
-0.2151766
11
13.6427307
21
-0.0938974
0
LINE
8
DEFAULT_255_1_234
10
13.6427307
20
-0.0938974
11
14.0346795
21
-0.0938974
0
LINE
8
DEFAULT_255_1_234
10
15.1012943
20
0.5181211
11
15.1012943
21
-0.6513
0
LINE
8
DEFAULT_255_1_234
10
15.1012943
20
-0.6513
11
14.9462818
21
-0.6513
0
LINE
8
DEFAULT_255_1_234
10
14.9462818
20
-0.6513
11
14.3575554
21
0.249861
0
LINE
8
DEFAULT_255_1_234
10
14.3575554
20
0.249861
11
14.3575554
21
-0.6513
0
LINE
8
DEFAULT_255_1_234
10
14.3575554
20
-0.6513
11
14.2025428
21
-0.6513
0
LINE
8
DEFAULT_255_1_234
10
14.2025428
20
-0.6513
11
14.2025428
21
0.5181211
0
LINE
8
DEFAULT_255_1_234
10
14.2025428
20
0.5181211
11
14.3575554
21
0.5181211
0
LINE
8
DEFAULT_255_1_234
10
14.3575554
20
0.5181211
11
14.9478881
21
-0.3870558
0
LINE
8
DEFAULT_255_1_234
10
14.9478881
20
-0.3870558
11
14.9478881
21
0.5181211
0
LINE
8
DEFAULT_255_1_234
10
14.9478881
20
0.5181211
11
15.1012943
21
0.5181211
0
LINE
8
DEFAULT_255_1_234
10
16.0803632
20
-0.2802337
11
16.2353758
21
-0.2802337
0
LINE
8
DEFAULT_255_1_234
10
15.3350179
20
-0.1212053
11
15.3350179
21
-0.0087609
0
LINE
8
DEFAULT_255_1_234
10
16.2353758
20
0.1422357
11
16.0803632
21
0.1422357
0
LINE
8
DEFAULT_255_1_234
10
15.4900305
20
-0.0127768
11
15.4900305
21
-0.1260243
0
ARC
8
DEFAULT_255_1_234
10
15.6873145
20
-0.2205154
40
0.5513052
50
340.1774281
51
353.7814284
0
ARC
8
DEFAULT_255_1_234
10
15.8444497
20
-0.2790418
40
0.3836379
50
311.4558989
51
340.4421614
0
ARC
8
DEFAULT_255_1_234
10
15.8411165
20
-0.2679472
40
0.3941894
50
282.4333181
51
310.7513653
0
ARC
8
DEFAULT_255_1_234
10
15.7971905
20
-0.0864321
40
0.5809175
50
269.9358511
51
282.809604
0
ARC
8
DEFAULT_255_1_234
10
15.7919971
20
0.0593212
40
0.7266847
50
270.0021091
51
270.3581957
0
ARC
8
DEFAULT_255_1_234
10
15.7867388
20
-0.2007415
40
0.4666519
50
250.7884749
51
270.6489167
0
ARC
8
DEFAULT_255_1_234
10
15.7699222
20
-0.2644681
40
0.4009729
50
219.3627325
51
250.0611886
0
ARC
8
DEFAULT_255_1_234
10
15.8528433
20
-0.1939958
40
0.5097822
50
193.5479632
51
219.5756669
0
ARC
8
DEFAULT_255_1_234
10
16.0900054
20
-0.1324081
40
0.7547848
50
181.1218675
51
193.87563
0
ARC
8
DEFAULT_255_1_234
10
16.2970235
20
-0.121342
40
0.9620055
50
179.9918545
51
181.5394234
0
ARC
8
DEFAULT_255_1_234
10
16.1119337
20
-0.0050212
40
0.7769248
50
169.5837241
51
180.2757934
0
ARC
8
DEFAULT_255_1_234
10
15.9282275
20
0.0289229
40
0.590109
50
155.0365899
51
169.6003176
0
ARC
8
DEFAULT_255_1_234
10
15.8146739
20
0.0836677
40
0.4640625
50
136.783148
51
155.2472683
0
ARC
8
DEFAULT_255_1_234
10
15.7757216
20
0.1167562
40
0.4130255
50
121.7633186
51
136.428115
0
ARC
8
DEFAULT_255_1_234
10
15.7892178
20
0.0918227
40
0.4413323
50
95.6459699
51
121.5490577
0
ARC
8
DEFAULT_255_1_234
10
15.804946
20
-0.0190051
40
0.55319
50
89.924208
51
96.1377933
0
ARC
8
DEFAULT_255_1_234
10
15.8099893
20
-0.0071458
40
0.5413475
50
76.6779277
51
90.4563316
0
ARC
8
DEFAULT_255_1_234
10
15.8493516
20
0.1519114
40
0.3775041
50
47.485847
51
76.9287264
0
ARC
8
DEFAULT_255_1_234
10
15.8346489
20
0.1419159
40
0.3948286
50
16.5424086
51
46.8933463
0
ARC
8
DEFAULT_255_1_234
10
15.6738646
20
0.0890861
40
0.564021
50
5.4072051
51
17.0365086
0
ARC
8
DEFAULT_255_1_234
10
15.5299664
20
0.0659679
40
0.5556559
50
7.8891745
51
15.9239216
0
ARC
8
DEFAULT_255_1_234
10
15.7286677
20
0.1236631
40
0.3487515
50
15.7653144
51
27.9410532
0
ARC
8
DEFAULT_255_1_234
10
15.8390895
20
0.182779
40
0.2235026
50
27.8166557
51
46.4008329
0
ARC
8
DEFAULT_255_1_234
10
15.8440537
20
0.1822082
40
0.2205286
50
47.4371857
51
75.0698205
0
ARC
8
DEFAULT_255_1_234
10
15.8131932
20
0.0747765
40
0.3322915
50
74.7008593
51
87.8124495
0
ARC
8
DEFAULT_255_1_234
10
15.8058619
20
-0.0308156
40
0.4380987
50
87.3814673
51
90.0240855
0
ARC
8
DEFAULT_255_1_234
10
15.8020163
20
0.0869291
40
0.3203749
50
89.3451631
51
108.5745436
0
ARC
8
DEFAULT_255_1_234
10
15.7883268
20
0.1382908
40
0.2673494
50
109.2998449
51
143.3037509
0
ARC
8
DEFAULT_255_1_234
10
15.8645341
20
0.0796881
40
0.3634757
50
143.0753173
51
163.1916937
0
ARC
8
DEFAULT_255_1_234
10
16.0597068
20
0.0180967
40
0.5681262
50
162.9373603
51
174.6208611
0
ARC
8
DEFAULT_255_1_234
10
16.322311
20
-0.010699
40
0.8322832
50
174.3419979
51
180.1430411
0
ARC
8
DEFAULT_255_1_234
10
16.2292267
20
-0.1301302
40
0.7392076
50
179.6817502
51
189.150529
0
ARC
8
DEFAULT_255_1_234
10
15.9791515
20
-0.171781
40
0.4856932
50
188.9910863
51
203.5773039
0
ARC
8
DEFAULT_255_1_234
10
15.8711848
20
-0.2165789
40
0.3688271
50
203.9077269
51
215.1312379
0
ARC
8
DEFAULT_255_1_234
10
15.7788941
20
-0.2881059
40
0.2522457
50
213.9071664
51
263.8849284
0
ARC
8
DEFAULT_255_1_234
10
15.7914271
20
-0.2096482
40
0.3316174
50
263.1758525
51
270.1031083
0
ARC
8
DEFAULT_255_1_234
10
15.7946362
20
-0.0849635
40
0.4563091
50
269.6719807
51
279.0609165
0
ARC
8
DEFAULT_255_1_234
10
15.821313
20
-0.2462093
40
0.2928759
50
278.8750225
51
293.6346586
0
ARC
8
DEFAULT_255_1_234
10
15.8533338
20
-0.32141
40
0.2111472
50
293.8553404
51
310.0518804
0
ARC
8
DEFAULT_255_1_234
10
15.8538192
20
-0.3276484
40
0.2060917
50
311.0646779
51
332.0108348
0
ARC
8
DEFAULT_255_1_234
10
15.7345919
20
-0.2619022
40
0.3422352
50
331.6588543
51
343.2878891
0
ARC
8
DEFAULT_255_1_234
10
15.5283434
20
-0.1985202
40
0.5580003
50
343.1446044
51
351.010618
0
ARC
8
DEFAULT_255_1_234
10
15.374208
20
-0.1704129
40
0.7146438
50
350.7157277
51
351.1602153
0
LINE
8
DEFAULT_255_1_234
10
17.1734828
20
-0.5300208
11
17.1734828
21
-0.6513
0
LINE
8
DEFAULT_255_1_234
10
17.1734828
20
-0.6513
11
16.407255
21
-0.6513
0
LINE
8
DEFAULT_255_1_234
10
16.407255
20
-0.6513
11
16.407255
21
-0.5444779
0
LINE
8
DEFAULT_255_1_234
10
16.407255
20
-0.5444779
11
16.8120546
21
-0.0947005
0
LINE
8
DEFAULT_255_1_234
10
16.5333533
20
0.1735595
11
16.3847661
21
0.1735595
0
LINE
8
DEFAULT_255_1_234
10
16.8996005
20
-0.1902782
11
16.5863627
21
-0.5300208
0
LINE
8
DEFAULT_255_1_234
10
16.5863627
20
-0.5300208
11
17.1734828
21
-0.5300208
0
ARC
8
DEFAULT_255_1_234
10
15.4630379
20
1.0982527
40
1.8008286
50
318.5132453
51
320.7828378
0
ARC
8
DEFAULT_255_1_234
10
15.9917354
20
0.6679426
40
1.1191493
50
320.7372736
51
323.9737074
0
ARC
8
DEFAULT_255_1_234
10
16.383721
20
0.3839361
40
0.6350923
50
323.8961724
51
328.6421089
0
ARC
8
DEFAULT_255_1_234
10
16.5883805
20
0.2577031
40
0.3946393
50
328.8299013
51
331.789948
0
ARC
8
DEFAULT_255_1_234
10
16.6880984
20
0.2062509
40
0.2824501
50
331.4255242
51
352.9364833
0
ARC
8
DEFAULT_255_1_234
10
16.7017485
20
0.2031976
40
0.2685315
50
353.2248685
51
0.0169286
0
ARC
8
DEFAULT_255_1_234
10
16.7227361
20
0.205495
40
0.2475536
50
359.4866256
51
15.9339782
0
ARC
8
DEFAULT_255_1_234
10
16.7734347
20
0.2191286
40
0.1950618
50
16.1714718
51
43.5284424
0
ARC
8
DEFAULT_255_1_234
10
16.7811655
20
0.2268573
40
0.184134
50
43.4415429
51
83.1661404
0
ARC
8
DEFAULT_255_1_234
10
16.7677573
20
0.1531771
40
0.258926
50
82.160215
51
90.1505798
0
ARC
8
DEFAULT_255_1_234
10
16.7646001
20
0.0994865
40
0.3126255
50
89.5460705
51
102.5418777
0
ARC
8
DEFAULT_255_1_234
10
16.7403087
20
0.2025665
40
0.2067346
50
102.1739365
51
129.2061916
0
ARC
8
DEFAULT_255_1_234
10
16.7324159
20
0.2150094
40
0.1921118
50
129.7279328
51
135.7542026
0
ARC
8
DEFAULT_255_1_234
10
16.7445686
20
0.2053045
40
0.2075944
50
136.175737
51
166.3674722
0
ARC
8
DEFAULT_255_1_234
10
16.8452606
20
0.1783182
40
0.3118201
50
165.9092917
51
178.8683903
0
ARC
8
DEFAULT_255_1_234
10
16.9317467
20
0.1736179
40
0.3983935
50
178.438168
51
180.0083905
0
ARC
8
DEFAULT_255_1_234
10
16.7916069
20
0.1775231
40
0.4068601
50
163.2878735
51
180.5581814
0
ARC
8
DEFAULT_255_1_234
10
16.711433
20
0.199584
40
0.3237344
50
133.454115
51
162.9470031
0
ARC
8
DEFAULT_255_1_234
10
16.7292872
20
0.1806
40
0.349795
50
100.7869394
51
133.4384016
0
ARC
8
DEFAULT_255_1_234
10
16.7640643
20
0.0257319
40
0.5084616
50
89.6605301
51
101.3704185
0
ARC
8
DEFAULT_255_1_234
10
16.7706982
20
0.0318496
40
0.502348
50
78.2171172
51
90.4130393
0
ARC
8
DEFAULT_255_1_234
10
16.806206
20
0.1942637
40
0.3361092
50
55.9268222
51
78.4888551
0
ARC
8
DEFAULT_255_1_234
10
16.82585
20
0.2281324
40
0.2970617
50
47.9292255
51
55.4054003
0
ARC
8
DEFAULT_255_1_234
10
16.8360061
20
0.2384502
40
0.2825983
50
4.3347696
51
48.0560701
0
ARC
8
DEFAULT_255_1_234
10
16.7264455
20
0.2214601
40
0.393225
50
359.925209
51
5.5967654
0
ARC
8
DEFAULT_255_1_234
10
16.7693346
20
0.2270816
40
0.3503892
50
337.8914096
51
358.9967724
0
ARC
8
DEFAULT_255_1_234
10
16.4979759
20
0.3317706
40
0.6412172
50
326.9135351
51
338.3505194
0
ARC
8
DEFAULT_255_1_234
10
16.0994062
20
0.5872284
40
1.1146189
50
319.6472867
51
327.095818
0
ARC
8
DEFAULT_255_1_234
10
15.7161065
20
0.9034
40
1.6114559
50
317.2586784
51
319.9046139
0
LINE
8
DEFAULT_255_1_234
10
17.8192346
20
0.5237433
11
17.8192346
21
-0.6513
0
LINE
8
DEFAULT_255_1_234
10
17.8192346
20
-0.6513
11
17.6698442
21
-0.6513
0
LINE
8
DEFAULT_255_1_234
10
17.6698442
20
-0.6513
11
17.6698442
21
0.3390133
0
LINE
8
DEFAULT_255_1_234
10
17.6698442
20
0.3390133
11
17.3702604
21
0.2289785
0
LINE
8
DEFAULT_255_1_234
10
17.3702604
20
0.2289785
11
17.3702604
21
0.3639117
0
LINE
8
DEFAULT_255_1_234
10
17.3702604
20
0.3639117
11
17.7959425
21
0.5237433
0
LINE
8
DEFAULT_255_1_234
10
17.7959425
20
0.5237433
11
17.8192346
21
0.5237433
0
LINE
8
DEFAULT_255_1_234
10
18.4706085
20
-0.1155831
11
18.4706085
21
0.0056962
0
LINE
8
DEFAULT_255_1_234
10
18.4706085
20
0.0056962
11
18.5822497
21
0.0056962
0
LINE
8
DEFAULT_255_1_234
10
18.3918975
20
0.2113087
11
18.2433104
21
0.2113087
0
LINE
8
DEFAULT_255_1_234
10
18.2328691
20
-0.3428812
11
18.3822594
21
-0.3428812
0
LINE
8
DEFAULT_255_1_234
10
18.5822497
20
-0.1155831
11
18.4706085
21
-0.1155831
0
ARC
8
DEFAULT_255_1_234
10
18.5793363
20
0.3449713
40
0.3392876
50
270.4919872
51
281.8951556
0
ARC
8
DEFAULT_255_1_234
10
18.6034625
20
0.2347702
40
0.2264817
50
281.6691735
51
301.2943132
0
ARC
8
DEFAULT_255_1_234
10
18.6204835
20
0.2036304
40
0.1910381
50
301.7833094
51
311.7545298
0
ARC
8
DEFAULT_255_1_234
10
18.6296411
20
0.1934748
40
0.1773635
50
311.7323931
51
354.2802411
0
ARC
8
DEFAULT_255_1_234
10
18.5570036
20
0.2059722
40
0.2509385
50
353.0937916
51
0.1181479
0
ARC
8
DEFAULT_255_1_234
10
18.5108821
20
0.2107386
40
0.2970898
50
359.1805295
51
15.0453146
0
ARC
8
DEFAULT_255_1_234
10
18.6454658
20
0.2499992
40
0.1569564
50
13.9577229
51
77.6713066
0
ARC
8
DEFAULT_255_1_234
10
18.6068187
20
0.1114949
40
0.3006298
50
76.1116566
51
90.7026153
0
ARC
8
DEFAULT_255_1_234
10
18.6009026
20
0.1388545
40
0.2732568
50
89.5324876
51
103.531937
0
ARC
8
DEFAULT_255_1_234
10
18.580847
20
0.2187884
40
0.1908508
50
103.2931773
51
133.5619022
0
ARC
8
DEFAULT_255_1_234
10
18.5763958
20
0.2247375
40
0.1834746
50
133.8349307
51
173.5344437
0
ARC
8
DEFAULT_255_1_234
10
18.6487001
20
0.2119213
40
0.2568033
50
172.5096846
51
180.1366907
0
ARC
8
DEFAULT_255_1_234
10
18.5535895
20
0.2153622
40
0.3103056
50
155.3484492
51
180.7484736
0
ARC
8
DEFAULT_255_1_234
10
18.5486984
20
0.2124846
40
0.3070957
50
131.5744599
51
154.4798489
0
ARC
8
DEFAULT_255_1_234
10
18.5800132
20
0.180831
40
0.3515643
50
96.9875458
51
131.9690667
0
ARC
8
DEFAULT_255_1_234
10
18.6019612
20
0.0562636
40
0.4779224
50
89.8596053
51
97.7825159
0
ARC
8
DEFAULT_255_1_234
10
18.6067675
20
0.0300616
40
0.5041361
50
78.3655447
51
90.4131539
0
ARC
8
DEFAULT_255_1_234
10
18.6425593
20
0.1959887
40
0.3344039
50
56.6229102
51
78.638727
0
ARC
8
DEFAULT_255_1_234
10
18.6640536
20
0.2335805
40
0.2912001
50
47.0253525
51
56.0854072
0
ARC
8
DEFAULT_255_1_234
10
18.6660316
20
0.2375223
40
0.2869704
50
10.9208013
51
46.7778124
0
ARC
8
DEFAULT_255_1_234
10
18.5296383
20
0.2059857
40
0.426899
50
359.6364486
51
11.6087304
0
ARC
8
DEFAULT_255_1_234
10
18.7131227
20
0.2044752
40
0.243409
50
332.3549906
51
359.7179418
0
ARC
8
DEFAULT_255_1_234
10
18.6480828
20
0.2353142
40
0.3153459
50
325.2333722
51
332.8745602
0
ARC
8
DEFAULT_255_1_234
10
18.6633452
20
0.2246828
40
0.2967456
50
292.9802137
51
325.2392345
0
ARC
8
DEFAULT_255_1_234
10
18.6358826
20
0.2780863
40
0.3566604
50
292.5402179
51
293.6924929
0
ARC
8
DEFAULT_255_1_234
10
18.6751422
20
-0.3673909
40
0.3307468
50
57.6435486
51
72.8625112
0
ARC
8
DEFAULT_255_1_234
10
18.7105922
20
-0.3099451
40
0.2632492
50
36.7248896
51
57.4697979
0
ARC
8
DEFAULT_255_1_234
10
18.7094554
20
-0.308678
40
0.2634081
50
8.0545065
51
36.356114
0
ARC
8
DEFAULT_255_1_234
10
18.6231739
20
-0.3241826
40
0.3510261
50
359.8320645
51
8.5869982
0
ARC
8
DEFAULT_255_1_234
10
18.5856516
20
-0.3289899
40
0.3885653
50
343.9829931
51
0.5571613
0
ARC
8
DEFAULT_255_1_234
10
18.6742713
20
-0.3532562
40
0.2966924
50
311.6359546
51
343.7651759
0
ARC
8
DEFAULT_255_1_234
10
18.6364282
20
-0.3105898
40
0.3537231
50
279.7829875
51
311.6255694
0
ARC
8
DEFAULT_255_1_234
10
18.6063058
20
-0.166872
40
0.5004971
50
269.7286406
51
280.3856417
0
ARC
8
DEFAULT_255_1_234
10
18.6001131
20
-0.1710004
40
0.4963778
50
256.6828919
51
270.4412052
0
ARC
8
DEFAULT_255_1_234
10
18.5662427
20
-0.3094606
40
0.3538406
50
229.4223008
51
256.8556159
0
ARC
8
DEFAULT_255_1_234
10
18.5247819
20
-0.3561264
40
0.2914296
50
181.818294
51
229.6455059
0
ARC
8
DEFAULT_255_1_234
10
18.6287776
20
-0.3430504
40
0.3959084
50
179.9755256
51
183.2323064
0
ARC
8
DEFAULT_255_1_234
10
18.6115521
20
-0.3450963
40
0.2293034
50
179.4465117
51
196.2869258
0
ARC
8
DEFAULT_255_1_234
10
18.5627929
20
-0.3584349
40
0.1787621
50
196.5661473
51
227.705904
0
ARC
8
DEFAULT_255_1_234
10
18.5792024
20
-0.3400845
40
0.2033784
50
227.7652068
51
257.8762805
0
ARC
8
DEFAULT_255_1_234
10
18.6016994
20
-0.2457844
40
0.3003081
50
257.4584385
51
270.426602
0
ARC
8
DEFAULT_255_1_234
10
18.6062561
20
-0.2168004
40
0.329292
50
269.5962073
51
280.8789248
0
ARC
8
DEFAULT_255_1_234
10
18.6292089
20
-0.3314315
40
0.2123908
50
280.6346389
51
299.8595945
0
ARC
8
DEFAULT_255_1_234
10
18.6482996
20
-0.3676788
40
0.171457
50
300.3576302
51
314.5517981
0
ARC
8
DEFAULT_255_1_234
10
18.6400056
20
-0.3616081
40
0.1816095
50
315.0728369
51
345.0431014
0
ARC
8
DEFAULT_255_1_234
10
18.5476871
20
-0.3347159
40
0.2777492
50
344.5986631
51
357.9269593
0
ARC
8
DEFAULT_255_1_234
10
18.4581197
20
-0.3285724
40
0.3674917
50
357.4748886
51
0.0231117
0
ARC
8
DEFAULT_255_1_234
10
18.5604306
20
-0.3261321
40
0.2651907
50
359.5047933
51
13.4239635
0
ARC
8
DEFAULT_255_1_234
10
18.647095
20
-0.3039522
40
0.1757509
50
12.9498199
51
48.7551375
0
ARC
8
DEFAULT_255_1_234
10
18.6288684
20
-0.32886
40
0.2065134
50
49.5088623
51
72.1836453
0
ARC
8
DEFAULT_255_1_234
10
18.5930836
20
-0.4350709
40
0.3185836
50
71.9010081
51
84.3554254
0
ARC
8
DEFAULT_255_1_234
10
18.5769468
20
-0.5711674
40
0.4556151
50
84.0193428
51
89.333121
0
ARC
8
DEFAULT_255_2_778
10
15.2718323
20
26.736689
40
0.3782009
50
0.4397807
51
91.3045231
0
ARC
8
DEFAULT_255_2_778
10
15.2696879
20
26.7344064
40
0.3803695
50
269.0259909
51
0.7811192
0
ARC
8
DEFAULT_255_2_778
10
15.4288293
20
26.7219643
40
0.7639615
50
290.7362057
51
357.8000295
0
ARC
8
DEFAULT_255_2_778
10
15.3436031
20
26.7395235
40
0.8499188
50
356.8376875
51
0.0046095
0
ARC
8
DEFAULT_255_2_778
10
15.3422443
20
26.7395748
40
0.8512778
50
0.0011515
51
85.3589632
0
ARC
8
DEFAULT_255_2_778
10
15.3422371
20
26.7205092
40
0.8702827
50
85.4600549
51
90.0075769
0
ARC
8
DEFAULT_255_2_778
10
20.173385
20
26.7302426
40
0.3845507
50
1.3931151
51
90.158378
0
ARC
8
DEFAULT_255_2_778
10
20.2329096
20
26.7238635
40
0.8684198
50
359.7643557
51
42.1181505
0
ARC
8
DEFAULT_255_2_778
10
20.2353156
20
26.7242931
40
0.866348
50
42.2037872
51
87.9292218
0
ARC
8
DEFAULT_255_2_778
10
20.2305626
20
26.6830097
40
0.9077821
50
87.7235759
51
90.0025578
0
ARC
8
DEFAULT_255_2_778
10
12.9264947
20
26.7371344
40
0.3777354
50
0.3727528
51
91.1638813
0
ARC
8
DEFAULT_255_2_778
10
12.9805692
20
26.7238595
40
0.8684602
50
359.7646302
51
42.1161032
0
ARC
8
DEFAULT_255_2_778
10
12.9830774
20
26.7244127
40
0.8662296
50
42.2002176
51
87.9268901
0
ARC
8
DEFAULT_255_2_778
10
12.9783626
20
26.6833749
40
0.9074169
50
87.7231194
51
90.002558
0
ARC
8
DEFAULT_255_2_778
10
17.559042
20
26.3320858
40
1.2841942
50
233.3100129
51
270.0348017
0
ARC
8
DEFAULT_255_2_778
10
17.5711133
20
26.3524622
40
1.3077482
50
187.7860459
51
233.4193197
0
ARC
8
DEFAULT_255_2_778
10
17.5893588
20
26.3540185
40
1.3260368
50
179.9838663
51
187.7458681
0
ARC
8
DEFAULT_255_2_778
10
17.5478523
20
26.3546375
40
1.2845303
50
143.7084173
51
180.0109545
0
ARC
8
DEFAULT_255_2_778
10
17.5629238
20
26.3495899
40
1.2996747
50
94.9692901
51
143.9223324
0
ARC
8
DEFAULT_255_2_778
10
17.5597032
20
26.3502347
40
1.2987573
50
89.9947559
51
94.8302073
0
ARC
8
DEFAULT_255_2_778
10
17.5619339
20
26.3444304
40
1.3045632
50
58.1407344
51
90.0927508
0
ARC
8
DEFAULT_255_2_778
10
17.5700831
20
26.3500662
40
1.2954809
50
3.5056409
51
58.315291
0
ARC
8
DEFAULT_255_2_778
10
17.5711163
20
26.3541563
40
1.2942058
50
359.9971467
51
3.3277024
0
ARC
8
DEFAULT_255_2_778
10
17.3826088
20
26.3520483
40
1.4827147
50
0.006083
51
0.0789681
0
ARC
8
DEFAULT_255_2_778
10
17.5604187
20
26.3522022
40
1.3049047
50
315.0308293
51
0.0001529
0
ARC
8
DEFAULT_255_2_778
10
17.5609377
20
26.3519521
40
1.3043608
50
270.000667
51
315.0224921
0
LINE
8
DEFAULT_255_2_778
10
17.5609529
20
25.0475914
11
17.5598221
21
25.0475919
0
ARC
8
DEFAULT_255_2_778
10
17.5640812
20
26.3504112
40
0.7580313
50
269.6780691
51
315.5292436
0
ARC
8
DEFAULT_255_2_778
10
17.5610107
20
26.3496878
40
0.7597205
50
315.7303962
51
0.2857903
0
ARC
8
DEFAULT_255_2_778
10
17.8487376
20
26.3539382
40
0.4719845
50
359.944048
51
0.0186519
0
ARC
8
DEFAULT_255_2_778
10
17.5687772
20
26.3529605
40
0.7519457
50
0.086204
51
85.4319233
0
ARC
8
DEFAULT_255_2_778
10
17.5599609
20
26.3105338
40
0.7949581
50
85.0420495
51
90.0100075
0
ARC
8
DEFAULT_255_2_778
10
17.5579396
20
26.3672519
40
0.7382424
50
89.8538973
51
89.9999976
0
ARC
8
DEFAULT_255_2_778
10
17.5580088
20
26.3547109
40
0.7507833
50
90.0052819
51
134.9571409
0
ARC
8
DEFAULT_255_2_778
10
17.5579709
20
26.3541565
40
0.751149
50
134.9252185
51
180.0049334
0
ARC
8
DEFAULT_255_2_778
10
17.5708624
20
26.3501875
40
0.7640503
50
179.7072119
51
222.5790813
0
ARC
8
DEFAULT_255_2_778
10
17.5579296
20
26.3391475
40
0.7470579
50
222.6267201
51
270.1451401
0
ARC
8
DEFAULT_255_2_778
10
9.564442
20
26.3320858
40
1.2841942
50
233.3100129
51
270.0348017
0
ARC
8
DEFAULT_255_2_778
10
9.5765133
20
26.3524622
40
1.3077482
50
187.7860459
51
233.4193197
0
ARC
8
DEFAULT_255_2_778
10
9.5947588
20
26.3540185
40
1.3260368
50
179.9838663
51
187.7458681
0
ARC
8
DEFAULT_255_2_778
10
9.5535129
20
26.3544961
40
1.2847909
50
143.1940819
51
180.0046489
0
ARC
8
DEFAULT_255_2_778
10
9.5683078
20
26.3498006
40
1.2994598
50
94.9233187
51
143.4191345
0
ARC
8
DEFAULT_255_2_778
10
9.5651008
20
26.350512
40
1.2984798
50
89.9946509
51
94.7850278
0
ARC
8
DEFAULT_255_2_778
10
9.5673902
20
26.3443441
40
1.3046496
50
58.1428905
51
90.0952196
0
ARC
8
DEFAULT_255_2_778
10
9.5758177
20
26.3504453
40
1.2950254
50
3.2656058
51
58.3171105
0
ARC
8
DEFAULT_255_2_778
10
9.5763693
20
26.3544485
40
1.2942527
50
359.997494
51
3.0900664
0
ARC
8
DEFAULT_255_2_778
10
9.5936718
20
26.3522448
40
1.276952
50
359.9949307
51
0.0963391
0
ARC
8
DEFAULT_255_2_778
10
9.5659855
20
26.3522925
40
1.3046385
50
315.0321687
51
359.9929412
0
ARC
8
DEFAULT_255_2_778
10
9.5662654
20
26.3524266
40
1.3045353
50
270.0038431
51
315.0193137
0
LINE
8
DEFAULT_255_2_778
10
9.5663529
20
25.0478914
11
9.5652221
21
25.0478919
0
ARC
8
DEFAULT_255_2_778
10
9.5694412
20
26.3504135
40
0.7580334
50
269.6810953
51
315.6152252
0
ARC
8
DEFAULT_255_2_778
10
9.5663839
20
26.3497381
40
0.7597504
50
315.8129036
51
0.3254485
0
ARC
8
DEFAULT_255_2_778
10
9.5738176
20
26.3526565
40
0.7523058
50
0.1093155
51
85.7820321
0
ARC
8
DEFAULT_255_2_778
10
9.5653381
20
26.3111263
40
0.7943655
50
85.3923987
51
90.0083732
0
ARC
8
DEFAULT_255_2_778
10
9.5633385
20
26.3663348
40
0.7391595
50
89.8539942
51
89.9999859
0
ARC
8
DEFAULT_255_2_778
10
9.563405
20
26.3544783
40
0.7510159
50
90.0050654
51
134.9497993
0
ARC
8
DEFAULT_255_2_778
10
9.5632746
20
26.3542963
40
0.7510526
50
134.9329452
51
180.0155944
0
ARC
8
DEFAULT_255_2_778
10
9.5762945
20
26.3501612
40
0.7640826
50
179.7052536
51
222.5741919
0
ARC
8
DEFAULT_255_2_778
10
9.5632805
20
26.3391163
40
0.7470269
50
222.6256588
51
270.1489141
0
LINE
8
DEFAULT_255_2_778
10
14.0768221
20
27.5701919
11
14.0768221
21
25.1073919
0
LINE
8
DEFAULT_255_2_778
10
14.0768221
20
25.1073919
11
14.6203221
21
25.1073919
0
LINE
8
DEFAULT_255_2_778
10
14.6203221
20
25.1073919
11
14.6203221
21
27.1147919
0
LINE
8
DEFAULT_255_2_778
10
14.6203221
20
27.1147919
11
15.2632221
21
27.1147919
0
LINE
8
DEFAULT_255_2_778
10
15.2632221
20
26.3540919
11
14.7986221
21
26.3540919
0
LINE
8
DEFAULT_255_2_778
10
14.7986221
20
26.3540919
11
15.6397221
21
25.1070919
0
LINE
8
DEFAULT_255_2_778
10
15.6397221
20
25.1070919
11
16.3126221
21
25.1070919
0
LINE
8
DEFAULT_255_2_778
10
16.3126221
20
25.1070919
11
15.6993221
21
26.0074919
0
LINE
8
DEFAULT_255_2_778
10
15.3421221
20
27.5907919
11
14.6200221
21
27.5907919
0
LINE
8
DEFAULT_255_2_778
10
14.6200221
20
27.5907919
11
14.0766221
21
27.5701919
0
LINE
8
DEFAULT_255_2_778
10
14.0766221
20
27.5701919
11
14.0768221
21
27.5701919
0
LINE
8
DEFAULT_255_2_778
10
19.0142221
20
27.5701919
11
19.0142221
21
25.1073919
0
LINE
8
DEFAULT_255_2_778
10
19.0142221
20
25.1073919
11
19.5577221
21
25.1073919
0
LINE
8
DEFAULT_255_2_778
10
19.5577221
20
25.1073919
11
19.5577221
21
27.1147919
0
LINE
8
DEFAULT_255_2_778
10
19.5577221
20
27.1147919
11
20.1723221
21
27.1147919
0
LINE
8
DEFAULT_255_2_778
10
20.5578221
20
26.7395919
11
20.5578221
21
25.1073919
0
LINE
8
DEFAULT_255_2_778
10
20.5578221
20
25.1073919
11
21.1013221
21
25.1073919
0
LINE
8
DEFAULT_255_2_778
10
21.1013221
20
25.1073919
11
21.1013221
21
26.7202919
0
LINE
8
DEFAULT_255_2_778
10
20.2305221
20
27.5907919
11
19.5577221
21
27.5907919
0
LINE
8
DEFAULT_255_2_778
10
19.5577221
20
27.5907919
11
19.0142221
21
27.5701919
0
LINE
8
DEFAULT_255_2_778
10
19.0142221
20
27.5701919
11
19.0142221
21
27.5701919
0
LINE
8
DEFAULT_255_2_778
10
11.0196221
20
27.5701919
11
11.0196221
21
25.1073919
0
LINE
8
DEFAULT_255_2_778
10
11.0196221
20
25.1073919
11
11.5628221
21
25.1073919
0
LINE
8
DEFAULT_255_2_778
10
11.5628221
20
25.1073919
11
11.5628221
21
27.1147919
0
LINE
8
DEFAULT_255_2_778
10
11.5628221
20
27.1147919
11
12.1671221
21
27.1147919
0
LINE
8
DEFAULT_255_2_778
10
12.1671221
20
27.1147919
11
12.1671221
21
25.1073919
0
LINE
8
DEFAULT_255_2_778
10
12.1671221
20
25.1073919
11
12.7105221
21
25.1073919
0
LINE
8
DEFAULT_255_2_778
10
12.7105221
20
25.1073919
11
12.7105221
21
27.1147919
0
LINE
8
DEFAULT_255_2_778
10
12.7105221
20
27.1147919
11
12.9188221
21
27.1147919
0
LINE
8
DEFAULT_255_2_778
10
13.3042221
20
26.7395919
11
13.3042221
21
25.1073919
0
LINE
8
DEFAULT_255_2_778
10
13.3042221
20
25.1073919
11
13.8490221
21
25.1073919
0
LINE
8
DEFAULT_255_2_778
10
13.8490221
20
25.1073919
11
13.8490221
21
26.7202919
0
LINE
8
DEFAULT_255_2_778
10
12.9783221
20
27.5907919
11
11.5731221
21
27.5907919
0
LINE
8
DEFAULT_255_2_778
10
11.5731221
20
27.5907919
11
11.0193221
21
27.5701919
0
LINE
8
DEFAULT_255_2_778
10
11.0193221
20
27.5701919
11
11.0196221
21
27.5701919
0
LINE
8
DEFAULT_255_2_778
10
17.5598221
20
25.0475919
11
17.5598221
21
25.0478919
0
LINE
8
DEFAULT_255_2_778
10
9.5652221
20
25.0478919
11
9.5652221
21
25.0478919
0
LINE
8
DEFAULT_255_1_234
10
11.485423
20
22.8707663
11
11.6404355
21
22.8707663
0
LINE
8
DEFAULT_255_1_234
10
10.7400777
20
23.0297947
11
10.7400777
21
23.1422391
0
LINE
8
DEFAULT_255_1_234
10
11.6404355
20
23.2932357
11
11.485423
21
23.2932357
0
LINE
8
DEFAULT_255_1_234
10
10.8950902
20
23.1382232
11
10.8950902
21
23.0249757
0
ARC
8
DEFAULT_255_1_234
10
11.0923742
20
22.9304846
40
0.5513052
50
340.1774281
51
353.7814284
0
ARC
8
DEFAULT_255_1_234
10
11.2495095
20
22.8719582
40
0.3836379
50
311.4558989
51
340.4421614
0
ARC
8
DEFAULT_255_1_234
10
11.2461763
20
22.8830528
40
0.3941894
50
282.4333181
51
310.7513653
0
ARC
8
DEFAULT_255_1_234
10
11.2022502
20
23.0645679
40
0.5809175
50
269.9358511
51
282.809604
0
ARC
8
DEFAULT_255_1_234
10
11.1970568
20
23.2103212
40
0.7266847
50
270.0021091
51
270.3581957
0
ARC
8
DEFAULT_255_1_234
10
11.1917985
20
22.9502585
40
0.4666519
50
250.7884749
51
270.6489167
0
ARC
8
DEFAULT_255_1_234
10
11.174982
20
22.8865319
40
0.4009729
50
219.3627325
51
250.0611886
0
ARC
8
DEFAULT_255_1_234
10
11.2579031
20
22.9570042
40
0.5097822
50
193.5479632
51
219.5756669
0
ARC
8
DEFAULT_255_1_234
10
11.4950652
20
23.0185919
40
0.7547848
50
181.1218675
51
193.87563
0
ARC
8
DEFAULT_255_1_234
10
11.7020833
20
23.029658
40
0.9620055
50
179.9918545
51
181.5394234
0
ARC
8
DEFAULT_255_1_234
10
11.5169935
20
23.1459788
40
0.7769248
50
169.5837241
51
180.2757934
0
ARC
8
DEFAULT_255_1_234
10
11.3332873
20
23.1799229
40
0.590109
50
155.0365899
51
169.6003176
0
ARC
8
DEFAULT_255_1_234
10
11.2197337
20
23.2346677
40
0.4640625
50
136.783148
51
155.2472683
0
ARC
8
DEFAULT_255_1_234
10
11.1807814
20
23.2677562
40
0.4130255
50
121.7633186
51
136.428115
0
ARC
8
DEFAULT_255_1_234
10
11.1942776
20
23.2428227
40
0.4413323
50
95.6459699
51
121.5490577
0
ARC
8
DEFAULT_255_1_234
10
11.2100058
20
23.1319949
40
0.55319
50
89.924208
51
96.1377933
0
ARC
8
DEFAULT_255_1_234
10
11.2150491
20
23.1438542
40
0.5413475
50
76.6779277
51
90.4563316
0
ARC
8
DEFAULT_255_1_234
10
11.2544114
20
23.3029114
40
0.3775041
50
47.485847
51
76.9287264
0
ARC
8
DEFAULT_255_1_234
10
11.2397087
20
23.2929159
40
0.3948286
50
16.5424086
51
46.8933463
0
ARC
8
DEFAULT_255_1_234
10
11.0789244
20
23.2400861
40
0.564021
50
5.4072051
51
17.0365086
0
ARC
8
DEFAULT_255_1_234
10
10.9350261
20
23.2169679
40
0.5556559
50
7.8891745
51
15.9239216
0
ARC
8
DEFAULT_255_1_234
10
11.1337274
20
23.2746631
40
0.3487515
50
15.7653144
51
27.9410532
0
ARC
8
DEFAULT_255_1_234
10
11.2441492
20
23.333779
40
0.2235026
50
27.8166557
51
46.4008329
0
ARC
8
DEFAULT_255_1_234
10
11.2491135
20
23.3332082
40
0.2205286
50
47.4371857
51
75.0698205
0
ARC
8
DEFAULT_255_1_234
10
11.2182529
20
23.2257765
40
0.3322915
50
74.7008593
51
87.8124495
0
ARC
8
DEFAULT_255_1_234
10
11.2109217
20
23.1201844
40
0.4380987
50
87.3814673
51
90.0240855
0
ARC
8
DEFAULT_255_1_234
10
11.207076
20
23.2379291
40
0.3203749
50
89.3451631
51
108.5745436
0
ARC
8
DEFAULT_255_1_234
10
11.1933865
20
23.2892908
40
0.2673494
50
109.2998449
51
143.3037509
0
ARC
8
DEFAULT_255_1_234
10
11.2695938
20
23.2306881
40
0.3634757
50
143.0753173
51
163.1916937
0
ARC
8
DEFAULT_255_1_234
10
11.4647666
20
23.1690967
40
0.5681262
50
162.9373603
51
174.6208611
0
ARC
8
DEFAULT_255_1_234
10
11.7273708
20
23.140301
40
0.8322832
50
174.3419979
51
180.1430411
0
ARC
8
DEFAULT_255_1_234
10
11.6342864
20
23.0208698
40
0.7392076
50
179.6817502
51
189.150529
0
ARC
8
DEFAULT_255_1_234
10
11.3842112
20
22.979219
40
0.4856932
50
188.9910863
51
203.5773039
0
ARC
8
DEFAULT_255_1_234
10
11.2762445
20
22.9344211
40
0.3688271
50
203.9077269
51
215.1312379
0
ARC
8
DEFAULT_255_1_234
10
11.1839539
20
22.8628941
40
0.2522457
50
213.9071664
51
263.8849284
0
ARC
8
DEFAULT_255_1_234
10
11.1964868
20
22.9413518
40
0.3316174
50
263.1758525
51
270.1031083
0
ARC
8
DEFAULT_255_1_234
10
11.199696
20
23.0660365
40
0.4563091
50
269.6719807
51
279.0609165
0
ARC
8
DEFAULT_255_1_234
10
11.2263728
20
22.9047907
40
0.2928759
50
278.8750225
51
293.6346586
0
ARC
8
DEFAULT_255_1_234
10
11.2583936
20
22.82959
40
0.2111472
50
293.8553404
51
310.0518804
0
ARC
8
DEFAULT_255_1_234
10
11.258879
20
22.8233516
40
0.2060917
50
311.0646779
51
332.0108348
0
ARC
8
DEFAULT_255_1_234
10
11.1396517
20
22.8890978
40
0.3422352
50
331.6588543
51
343.2878891
0
ARC
8
DEFAULT_255_1_234
10
10.9334032
20
22.9524798
40
0.5580003
50
343.1446044
51
351.010618
0
ARC
8
DEFAULT_255_1_234
10
10.7792678
20
22.9805871
40
0.7146438
50
350.7157277
51
351.1602153
0
LINE
8
DEFAULT_255_1_234
10
12.626733
20
23.3309849
11
12.4717205
21
23.3309849
0
LINE
8
DEFAULT_255_1_234
10
11.7793846
20
22.8386394
11
11.9343972
21
22.8386394
0
ARC
8
DEFAULT_255_1_234
10
12.5376017
20
24.2256768
40
1.252368
50
248.9199003
51
254.1439814
0
ARC
8
DEFAULT_255_1_234
10
12.3695512
20
23.7930234
40
0.788226
50
241.633709
51
249.0064503
0
ARC
8
DEFAULT_255_1_234
10
12.2166907
20
23.5129317
40
0.4691427
50
230.498225
51
241.8087113
0
ARC
8
DEFAULT_255_1_234
10
12.1382481
20
23.4129906
40
0.3421437
50
227.4064532
51
229.9881192
0
ARC
8
DEFAULT_255_1_234
10
12.0895002
20
23.3654088
40
0.2741476
50
200.6781896
51
228.1763934
0
ARC
8
DEFAULT_255_1_234
10
12.0967312
20
23.3639077
40
0.2804109
50
179.5061581
51
199.8694617
0
ARC
8
DEFAULT_255_1_234
10
12.0958064
20
23.371321
40
0.2795204
50
132.4834203
51
181.0242172
0
ARC
8
DEFAULT_255_1_234
10
12.1553646
20
23.3150704
40
0.3612768
50
129.2532479
51
133.4242687
0
ARC
8
DEFAULT_255_1_234
10
12.1700096
20
23.2930965
40
0.3875675
50
101.98776
51
128.8742646
0
ARC
8
DEFAULT_255_1_234
10
12.2098706
20
23.1209741
40
0.5642249
50
89.5906553
51
102.3169264
0
ARC
8
DEFAULT_255_1_234
10
12.2169199
20
23.1528148
40
0.5323783
50
77.2360837
51
90.3248275
0
ARC
8
DEFAULT_255_1_234
10
12.2376278
20
23.24954
40
0.4334697
50
63.837784
51
77.0809408
0
ARC
8
DEFAULT_255_1_234
10
12.2654039
20
23.3012911
40
0.3747796
50
45.9864267
51
64.1607727
0
ARC
8
DEFAULT_255_1_234
10
12.2914921
20
23.3310866
40
0.3352302
50
32.2747395
51
45.6547121
0
ARC
8
DEFAULT_255_1_234
10
12.2981361
20
23.332988
40
0.328603
50
359.6507365
51
32.6130309
0
ARC
8
DEFAULT_255_1_234
10
12.2038457
20
23.333466
40
0.2678863
50
359.469343
51
14.9832209
0
ARC
8
DEFAULT_255_1_234
10
12.2743519
20
23.3523539
40
0.1948938
50
14.9781179
51
48.2004265
0
ARC
8
DEFAULT_255_1_234
10
12.2579163
20
23.3316983
40
0.2212521
50
48.5927837
51
74.1241538
0
ARC
8
DEFAULT_255_1_234
10
12.2245653
20
23.2216248
40
0.3362561
50
73.7888341
51
86.6652678
0
ARC
8
DEFAULT_255_1_234
10
12.2143218
20
23.1008881
40
0.4573953
50
86.2640471
51
90.0526343
0
ARC
8
DEFAULT_255_1_234
10
12.2114931
20
23.1404192
40
0.4178709
50
89.6697524
51
99.2309573
0
ARC
8
DEFAULT_255_1_234
10
12.1872382
20
23.2848964
40
0.2713749
50
99.069534
51
113.7658566
0
ARC
8
DEFAULT_255_1_234
10
12.1598573
20
23.3494677
40
0.2012469
50
114.0401004
51
127.9850673
0
ARC
8
DEFAULT_255_1_234
10
12.1358137
20
23.379073
40
0.1631167
50
127.7287463
51
176.7105154
0
ARC
8
DEFAULT_255_1_234
10
12.2036854
20
23.3689693
40
0.2315392
50
175.1779447
51
180.0581938
0
ARC
8
DEFAULT_255_1_234
10
12.1193701
20
23.3677428
40
0.1472271
50
179.6142195
51
228.1246017
0
ARC
8
DEFAULT_255_1_234
10
12.163537
20
23.4086308
40
0.2072299
50
226.5779593
51
230.8800004
0
ARC
8
DEFAULT_255_1_234
10
12.2106448
20
23.4711636
40
0.2854818
50
231.4635071
51
241.9260842
0
ARC
8
DEFAULT_255_1_234
10
12.3303626
20
23.69148
40
0.53622
50
241.7178533
51
248.3259551
0
ARC
8
DEFAULT_255_1_234
10
12.4688998
20
24.0347064
40
0.9063478
50
248.2007737
51
252.4528373
0
ARC
8
DEFAULT_255_1_234
10
12.5892723
20
24.4068441
40
1.2974635
50
252.3391078
51
254.3469452
0
ARC
8
DEFAULT_255_1_234
10
11.8350426
20
21.7091148
40
1.5037162
50
71.0197183
51
74.4087047
0
ARC
8
DEFAULT_255_1_234
10
12.0045111
20
22.1983111
40
0.9859993
50
66.1847285
51
71.086374
0
ARC
8
DEFAULT_255_1_234
10
12.1601423
20
22.54872
40
0.6025855
50
59.3536294
51
66.2691831
0
ARC
8
DEFAULT_255_1_234
10
12.2490076
20
22.6990609
40
0.4279449
50
49.1020879
51
59.3293958
0
ARC
8
DEFAULT_255_1_234
10
12.3308816
20
22.7923834
40
0.3038015
50
32.7919921
51
49.2505539
0
ARC
8
DEFAULT_255_1_234
10
12.3629906
20
22.8152191
40
0.264448
50
31.1181161
51
32.4005348
0
ARC
8
DEFAULT_255_1_234
10
12.3541443
20
22.8116779
40
0.2738556
50
8.1116974
51
30.7958831
0
ARC
8
DEFAULT_255_1_234
10
12.2731111
20
22.7978753
40
0.3560327
50
359.8389159
51
8.4706516
0
ARC
8
DEFAULT_255_1_234
10
12.3356903
20
22.7930137
40
0.2934776
50
337.4731098
51
0.7537279
0
ARC
8
DEFAULT_255_1_234
10
12.3535598
20
22.7910387
40
0.2762607
50
307.5917067
51
336.4315538
0
ARC
8
DEFAULT_255_1_234
10
12.3075426
20
22.8423102
40
0.3449979
50
307.6551545
51
308.4529766
0
ARC
8
DEFAULT_255_1_234
10
12.2845145
20
22.877825
40
0.3871988
50
284.3734338
51
307.1424381
0
ARC
8
DEFAULT_255_1_234
10
12.2349975
20
23.0599932
40
0.5759636
50
272.4382747
51
284.646547
0
ARC
8
DEFAULT_255_1_234
10
12.2223184
20
23.2399893
40
0.7563528
50
269.9708387
51
272.8178037
0
ARC
8
DEFAULT_255_1_234
10
12.2180223
20
23.0361716
40
0.5525489
50
248.2707594
51
270.4055579
0
ARC
8
DEFAULT_255_1_234
10
12.2125964
20
23.0171192
40
0.5328452
50
246.1383403
51
248.0542782
0
ARC
8
DEFAULT_255_1_234
10
12.1707343
20
22.9291843
40
0.4355005
50
233.1670131
51
246.4950969
0
ARC
8
DEFAULT_255_1_234
10
12.1153248
20
22.8543812
40
0.3424126
50
215.3403242
51
233.0843104
0
ARC
8
DEFAULT_255_1_234
10
12.0880679
20
22.8345549
40
0.3087104
50
179.2419209
51
215.2648451
0
ARC
8
DEFAULT_255_1_234
10
12.1648273
20
22.8359666
40
0.2304457
50
179.335461
51
199.1045811
0
ARC
8
DEFAULT_255_1_234
10
12.131595
20
22.8272766
40
0.1962176
50
199.8828939
51
232.7063202
0
ARC
8
DEFAULT_255_1_234
10
12.1788218
20
22.8866788
40
0.2720938
50
232.3738199
51
255.5136649
0
ARC
8
DEFAULT_255_1_234
10
12.2129085
20
23.0110835
40
0.4010747
50
255.2446292
51
267.5320849
0
ARC
8
DEFAULT_255_1_234
10
12.2216708
20
23.1343702
40
0.5246356
50
267.1557994
51
270.0286766
0
ARC
8
DEFAULT_255_1_234
10
12.224448
20
23.089995
40
0.4802668
50
269.7000017
51
278.1660162
0
ARC
8
DEFAULT_255_1_234
10
12.2500485
20
22.9169515
40
0.3053425
50
278.0231263
51
290.625471
0
ARC
8
DEFAULT_255_1_234
10
12.2848172
20
22.8242025
40
0.206291
50
290.6619762
51
307.0370976
0
ARC
8
DEFAULT_255_1_234
10
12.3148562
20
22.7873504
40
0.1587906
50
306.3943566
51
355.3030547
0
ARC
8
DEFAULT_255_1_234
10
12.2636493
20
22.7950113
40
0.2104809
50
354.3660432
51
0.0698737
0
ARC
8
DEFAULT_255_1_234
10
12.2778838
20
22.7972617
40
0.1962563
50
359.417946
51
16.1971788
0
ARC
8
DEFAULT_255_1_234
10
12.3234149
20
22.8097418
40
0.149053
50
16.4723299
51
52.6262157
0
ARC
8
DEFAULT_255_1_234
10
12.2413202
20
22.7013433
40
0.2850296
50
52.7386432
51
62.4979148
0
ARC
8
DEFAULT_255_1_234
10
12.1028279
20
22.4407283
40
0.5801521
50
62.2515216
51
68.1220564
0
ARC
8
DEFAULT_255_1_234
10
11.930819
20
22.0179872
40
1.0365451
50
68.0062803
51
71.8053402
0
ARC
8
DEFAULT_255_1_234
10
11.7512562
20
21.4794758
40
1.6042013
50
71.7183119
51
73.9258742
0
LINE
8
DEFAULT_255_1_234
10
13.1126532
20
23.0571026
11
13.1126532
21
22.9358234
0
LINE
8
DEFAULT_255_1_234
10
13.1126532
20
22.9358234
11
12.7207043
21
22.9358234
0
LINE
8
DEFAULT_255_1_234
10
12.7207043
20
22.9358234
11
12.7207043
21
23.0571026
0
LINE
8
DEFAULT_255_1_234
10
12.7207043
20
23.0571026
11
13.1126532
21
23.0571026
0
LINE
8
DEFAULT_255_1_234
10
14.0563824
20
23.3309849
11
13.9013699
21
23.3309849
0
LINE
8
DEFAULT_255_1_234
10
13.209034
20
22.8386394
11
13.3640466
21
22.8386394
0
ARC
8
DEFAULT_255_1_234
10
13.9672512
20
24.2256768
40
1.252368
50
248.9199003
51
254.1439814
0
ARC
8
DEFAULT_255_1_234
10
13.7992006
20
23.7930234
40
0.788226
50
241.633709
51
249.0064503
0
ARC
8
DEFAULT_255_1_234
10
13.6463401
20
23.5129317
40
0.4691427
50
230.498225
51
241.8087113
0
ARC
8
DEFAULT_255_1_234
10
13.5678975
20
23.4129906
40
0.3421437
50
227.4064532
51
229.9881192
0
ARC
8
DEFAULT_255_1_234
10
13.5191496
20
23.3654088
40
0.2741476
50
200.6781896
51
228.1763934
0
ARC
8
DEFAULT_255_1_234
10
13.5263806
20
23.3639077
40
0.2804109
50
179.5061581
51
199.8694617
0
ARC
8
DEFAULT_255_1_234
10
13.5254558
20
23.371321
40
0.2795204
50
132.4834203
51
181.0242172
0
ARC
8
DEFAULT_255_1_234
10
13.585014
20
23.3150704
40
0.3612768
50
129.2532479
51
133.4242687
0
ARC
8
DEFAULT_255_1_234
10
13.599659
20
23.2930965
40
0.3875675
50
101.98776
51
128.8742646
0
ARC
8
DEFAULT_255_1_234
10
13.6395201
20
23.1209741
40
0.5642249
50
89.5906553
51
102.3169264
0
ARC
8
DEFAULT_255_1_234
10
13.6465693
20
23.1528148
40
0.5323783
50
77.2360837
51
90.3248275
0
ARC
8
DEFAULT_255_1_234
10
13.6672772
20
23.24954
40
0.4334697
50
63.837784
51
77.0809408
0
ARC
8
DEFAULT_255_1_234
10
13.6950534
20
23.3012911
40
0.3747796
50
45.9864267
51
64.1607727
0
ARC
8
DEFAULT_255_1_234
10
13.7211415
20
23.3310866
40
0.3352302
50
32.2747395
51
45.6547121
0
ARC
8
DEFAULT_255_1_234
10
13.7277856
20
23.332988
40
0.328603
50
359.6507365
51
32.6130309
0
ARC
8
DEFAULT_255_1_234
10
13.6334951
20
23.333466
40
0.2678863
50
359.469343
51
14.9832209
0
ARC
8
DEFAULT_255_1_234
10
13.7040013
20
23.3523539
40
0.1948938
50
14.9781179
51
48.2004265
0
ARC
8
DEFAULT_255_1_234
10
13.6875657
20
23.3316983
40
0.2212521
50
48.5927837
51
74.1241538
0
ARC
8
DEFAULT_255_1_234
10
13.6542147
20
23.2216248
40
0.3362561
50
73.7888341
51
86.6652678
0
ARC
8
DEFAULT_255_1_234
10
13.6439713
20
23.1008881
40
0.4573953
50
86.2640471
51
90.0526343
0
ARC
8
DEFAULT_255_1_234
10
13.6411425
20
23.1404192
40
0.4178709
50
89.6697524
51
99.2309573
0
ARC
8
DEFAULT_255_1_234
10
13.6168876
20
23.2848964
40
0.2713749
50
99.069534
51
113.7658566
0
ARC
8
DEFAULT_255_1_234
10
13.5895067
20
23.3494677
40
0.2012469
50
114.0401004
51
127.9850673
0
ARC
8
DEFAULT_255_1_234
10
13.5654631
20
23.379073
40
0.1631167
50
127.7287463
51
176.7105154
0
ARC
8
DEFAULT_255_1_234
10
13.6333348
20
23.3689693
40
0.2315392
50
175.1779447
51
180.0581938
0
ARC
8
DEFAULT_255_1_234
10
13.5490195
20
23.3677428
40
0.1472271
50
179.6142195
51
228.1246017
0
ARC
8
DEFAULT_255_1_234
10
13.5931864
20
23.4086308
40
0.2072299
50
226.5779593
51
230.8800004
0
ARC
8
DEFAULT_255_1_234
10
13.6402943
20
23.4711636
40
0.2854818
50
231.4635071
51
241.9260842
0
ARC
8
DEFAULT_255_1_234
10
13.7600121
20
23.69148
40
0.53622
50
241.7178533
51
248.3259551
0
ARC
8
DEFAULT_255_1_234
10
13.8985492
20
24.0347064
40
0.9063478
50
248.2007737
51
252.4528373
0
ARC
8
DEFAULT_255_1_234
10
14.0189217
20
24.4068441
40
1.2974635
50
252.3391078
51
254.3469452
0
ARC
8
DEFAULT_255_1_234
10
13.264692
20
21.7091148
40
1.5037162
50
71.0197183
51
74.4087047
0
ARC
8
DEFAULT_255_1_234
10
13.4341605
20
22.1983111
40
0.9859993
50
66.1847285
51
71.086374
0
ARC
8
DEFAULT_255_1_234
10
13.5897918
20
22.54872
40
0.6025855
50
59.3536294
51
66.2691831
0
ARC
8
DEFAULT_255_1_234
10
13.678657
20
22.6990609
40
0.4279449
50
49.1020879
51
59.3293958
0
ARC
8
DEFAULT_255_1_234
10
13.760531
20
22.7923834
40
0.3038015
50
32.7919921
51
49.2505539
0
ARC
8
DEFAULT_255_1_234
10
13.79264
20
22.8152191
40
0.264448
50
31.1181161
51
32.4005348
0
ARC
8
DEFAULT_255_1_234
10
13.7837938
20
22.8116779
40
0.2738556
50
8.1116974
51
30.7958831
0
ARC
8
DEFAULT_255_1_234
10
13.7027606
20
22.7978753
40
0.3560327
50
359.8389159
51
8.4706516
0
ARC
8
DEFAULT_255_1_234
10
13.7653397
20
22.7930137
40
0.2934776
50
337.4731098
51
0.7537279
0
ARC
8
DEFAULT_255_1_234
10
13.7832092
20
22.7910387
40
0.2762607
50
307.5917067
51
336.4315538
0
ARC
8
DEFAULT_255_1_234
10
13.737192
20
22.8423102
40
0.3449979
50
307.6551545
51
308.4529766
0
ARC
8
DEFAULT_255_1_234
10
13.7141639
20
22.877825
40
0.3871988
50
284.3734338
51
307.1424381
0
ARC
8
DEFAULT_255_1_234
10
13.6646469
20
23.0599932
40
0.5759636
50
272.4382747
51
284.646547
0
ARC
8
DEFAULT_255_1_234
10
13.6519678
20
23.2399893
40
0.7563528
50
269.9708387
51
272.8178037
0
ARC
8
DEFAULT_255_1_234
10
13.6476717
20
23.0361716
40
0.5525489
50
248.2707594
51
270.4055579
0
ARC
8
DEFAULT_255_1_234
10
13.6422458
20
23.0171192
40
0.5328452
50
246.1383403
51
248.0542782
0
ARC
8
DEFAULT_255_1_234
10
13.6003837
20
22.9291843
40
0.4355005
50
233.1670131
51
246.4950969
0
ARC
8
DEFAULT_255_1_234
10
13.5449742
20
22.8543812
40
0.3424126
50
215.3403242
51
233.0843104
0
ARC
8
DEFAULT_255_1_234
10
13.5177174
20
22.8345549
40
0.3087104
50
179.2419209
51
215.2648451
0
ARC
8
DEFAULT_255_1_234
10
13.5944767
20
22.8359666
40
0.2304457
50
179.335461
51
199.1045811
0
ARC
8
DEFAULT_255_1_234
10
13.5612444
20
22.8272766
40
0.1962176
50
199.8828939
51
232.7063202
0
ARC
8
DEFAULT_255_1_234
10
13.6084712
20
22.8866788
40
0.2720938
50
232.3738199
51
255.5136649
0
ARC
8
DEFAULT_255_1_234
10
13.6425579
20
23.0110835
40
0.4010747
50
255.2446292
51
267.5320849
0
ARC
8
DEFAULT_255_1_234
10
13.6513202
20
23.1343702
40
0.5246356
50
267.1557994
51
270.0286766
0
ARC
8
DEFAULT_255_1_234
10
13.6540975
20
23.089995
40
0.4802668
50
269.7000017
51
278.1660162
0
ARC
8
DEFAULT_255_1_234
10
13.6796979
20
22.9169515
40
0.3053425
50
278.0231263
51
290.625471
0
ARC
8
DEFAULT_255_1_234
10
13.7144666
20
22.8242025
40
0.206291
50
290.6619762
51
307.0370976
0
ARC
8
DEFAULT_255_1_234
10
13.7445056
20
22.7873504
40
0.1587906
50
306.3943566
51
355.3030547
0
ARC
8
DEFAULT_255_1_234
10
13.6932987
20
22.7950113
40
0.2104809
50
354.3660432
51
0.0698737
0
ARC
8
DEFAULT_255_1_234
10
13.7075332
20
22.7972617
40
0.1962563
50
359.417946
51
16.1971788
0
ARC
8
DEFAULT_255_1_234
10
13.7530643
20
22.8097418
40
0.149053
50
16.4723299
51
52.6262157
0
ARC
8
DEFAULT_255_1_234
10
13.6709697
20
22.7013433
40
0.2850296
50
52.7386432
51
62.4979148
0
ARC
8
DEFAULT_255_1_234
10
13.5324773
20
22.4407283
40
0.5801521
50
62.2515216
51
68.1220564
0
ARC
8
DEFAULT_255_1_234
10
13.3604684
20
22.0179872
40
1.0365451
50
68.0062803
51
71.8053402
0
ARC
8
DEFAULT_255_1_234
10
13.1809056
20
21.4794758
40
1.6042013
50
71.7183119
51
73.9258742
0
LINE
8
DEFAULT_255_1_234
10
14.1953315
20
22.9101218
11
14.1953315
21
22.9374297
0
LINE
8
DEFAULT_255_1_234
10
14.9326451
20
22.9534932
11
14.9326451
21
22.8916488
0
LINE
8
DEFAULT_255_1_234
10
14.9326451
20
22.8916488
11
14.3439187
21
22.8916488
0
LINE
8
DEFAULT_255_1_234
10
14.830642
20
22.7221792
11
14.9214006
21
22.6514999
0
LINE
8
DEFAULT_255_1_234
10
14.3487377
20
23.0137313
11
14.7840579
21
23.0137313
0
LINE
8
DEFAULT_255_1_234
10
14.7840579
20
23.0137313
11
14.7840579
21
23.0249757
0
ARC
8
DEFAULT_255_1_234
10
14.589268
20
22.9212332
40
0.4376191
50
252.3266134
51
270.5810217
0
ARC
8
DEFAULT_255_1_234
10
14.5687769
20
22.8471644
40
0.3608374
50
223.3000567
51
251.8561855
0
ARC
8
DEFAULT_255_1_234
10
14.589913
20
22.8676937
40
0.3902993
50
190.9374509
51
223.3654032
0
ARC
8
DEFAULT_255_1_234
10
14.7624102
20
22.9066885
40
0.5670891
50
179.6531105
51
191.4989439
0
ARC
8
DEFAULT_255_1_234
10
14.7746114
20
22.9406417
40
0.5792888
50
167.4007466
51
180.3176909
0
ARC
8
DEFAULT_255_1_234
10
14.6694176
20
22.9628885
40
0.471777
50
154.1835823
51
167.250763
0
ARC
8
DEFAULT_255_1_234
10
14.6062643
20
22.9961417
40
0.4004528
50
134.3149965
51
154.5315275
0
ARC
8
DEFAULT_255_1_234
10
14.5845138
20
23.0152228
40
0.371612
50
122.8616532
51
133.9707695
0
ARC
8
DEFAULT_255_1_234
10
14.5741713
20
23.0374703
40
0.3473289
50
89.8249009
51
123.4199222
0
ARC
8
DEFAULT_255_1_234
10
14.5791754
20
22.9727967
40
0.4120197
50
74.7876118
51
90.5482747
0
ARC
8
DEFAULT_255_1_234
10
14.6085497
20
23.081303
40
0.2996077
50
39.8178249
51
74.7633718
0
ARC
8
DEFAULT_255_1_234
10
14.5572817
20
23.0413351
40
0.3645855
50
16.8990863
51
39.4829761
0
ARC
8
DEFAULT_255_1_234
10
14.3678113
20
22.9806526
40
0.5635218
50
4.9636328
51
17.2026414
0
ARC
8
DEFAULT_255_1_234
10
14.1260184
20
22.955134
40
0.8066286
50
359.8834553
51
5.2834307
0
ARC
8
DEFAULT_255_1_234
10
14.7297708
20
22.8982803
40
0.3859091
50
180.9846213
51
194.9401313
0
ARC
8
DEFAULT_255_1_234
10
14.6247986
20
22.8695849
40
0.2770883
50
194.80314
51
222.0412631
0
ARC
8
DEFAULT_255_1_234
10
14.5943868
20
22.8394116
40
0.2343055
50
221.5417084
51
268.8614402
0
ARC
8
DEFAULT_255_1_234
10
14.6016862
20
22.9070686
40
0.3021528
50
267.732405
51
270.0097136
0
ARC
8
DEFAULT_255_1_234
10
14.6034672
20
22.9272105
40
0.3222994
50
269.6924892
51
280.4117579
0
ARC
8
DEFAULT_255_1_234
10
14.6211079
20
22.8353193
40
0.2287344
50
280.2255091
51
298.6338936
0
ARC
8
DEFAULT_255_1_234
10
14.6327871
20
22.8109223
40
0.2017294
50
299.0430333
51
300.4643464
0
ARC
8
DEFAULT_255_1_234
10
14.5647877
20
22.9243038
40
0.3339357
50
300.6577328
51
322.0378878
0
ARC
8
DEFAULT_255_1_234
10
14.5297416
20
22.9547021
40
0.3802736
50
321.6750233
51
322.3046845
0
ARC
8
DEFAULT_255_1_234
10
14.6228377
20
22.838037
40
0.3520454
50
276.9728461
51
328.0035423
0
ARC
8
DEFAULT_255_1_234
10
14.595143
20
22.9860841
40
0.5024498
50
269.8361028
51
278.0581756
0
ARC
8
DEFAULT_255_1_234
10
14.5724167
20
23.0605757
40
0.202159
50
89.2018686
51
117.2851756
0
ARC
8
DEFAULT_255_1_234
10
14.5777336
20
23.0563752
40
0.2083484
50
118.0551165
51
137.4540413
0
ARC
8
DEFAULT_255_1_234
10
14.6152076
20
23.0223304
40
0.2589774
50
137.5109581
51
158.8516286
0
ARC
8
DEFAULT_255_1_234
10
14.7289912
20
22.9764074
40
0.38167
50
158.5845963
51
170.1721436
0
ARC
8
DEFAULT_255_1_234
10
14.8459301
20
22.9531823
40
0.5008657
50
169.8376422
51
173.0566086
0
ARC
8
DEFAULT_255_1_234
10
14.3762375
20
23.0042509
40
0.4083467
50
2.9091802
51
12.8847116
0
ARC
8
DEFAULT_255_1_234
10
14.5133052
20
23.0365101
40
0.2675383
50
12.6957781
51
28.6404489
0
ARC
8
DEFAULT_255_1_234
10
14.5674722
20
23.0645458
40
0.2065654
50
29.0169854
51
41.1487595
0
ARC
8
DEFAULT_255_1_234
10
14.5877508
20
23.0822003
40
0.1796786
50
41.1646065
51
85.0013516
0
ARC
8
DEFAULT_255_1_234
10
14.5756604
20
23.0087431
40
0.2539726
50
83.7280015
51
90.0964893
0
LINE
8
DEFAULT_255_1_234
10
15.5245842
20
23.3735531
11
15.5245842
21
23.2354072
0
LINE
8
DEFAULT_255_1_234
10
15.2531114
20
23.1165375
11
15.2531114
21
22.4997
0
LINE
8
DEFAULT_255_1_234
10
15.2531114
20
22.4997
11
15.1045243
21
22.4997
0
LINE
8
DEFAULT_255_1_234
10
15.1045243
20
22.4997
11
15.1045243
21
23.3687341
0
LINE
8
DEFAULT_255_1_234
10
15.1045243
20
23.3687341
11
15.2490956
21
23.3687341
0
LINE
8
DEFAULT_255_1_234
10
15.2490956
20
23.3687341
11
15.2515051
21
23.2683374
0
ARC
8
DEFAULT_255_1_234
10
15.4579247
20
22.8294342
40
0.4114092
50
80.6754243
51
86.8932892
0
ARC
8
DEFAULT_255_1_234
10
15.4518782
20
22.73267
40
0.5083596
50
86.8038578
51
90.0431435
0
ARC
8
DEFAULT_255_1_234
10
15.4481762
20
22.9783866
40
0.2626638
50
89.2759698
51
106.6213787
0
ARC
8
DEFAULT_255_1_234
10
15.4277326
20
23.052683
40
0.1856317
50
107.1346045
51
157.6458115
0
ARC
8
DEFAULT_255_1_234
10
15.4968928
20
23.0143311
40
0.2643398
50
155.6586782
51
157.2539184
0
ARC
8
DEFAULT_255_1_234
10
15.476413
20
23.1312157
40
0.2634121
50
127.8165941
51
148.6302098
0
ARC
8
DEFAULT_255_1_234
10
15.4510599
20
23.1572218
40
0.2273596
50
91.3329982
51
126.7875809
0
ARC
8
DEFAULT_255_1_234
10
15.4586539
20
23.0857195
40
0.299078
50
89.986594
51
92.4688449
0
ARC
8
DEFAULT_255_1_234
10
15.4594934
20
23.1132078
40
0.2715908
50
85.3589899
51
90.1623399
0
ARC
8
DEFAULT_255_1_234
10
15.467945
20
23.2136164
40
0.1708278
50
78.401942
51
85.4594656
0
ARC
8
DEFAULT_255_1_234
10
15.4824334
20
23.2827236
40
0.1002194
50
67.7858312
51
78.5728455
0
ARC
8
DEFAULT_255_1_234
10
15.4932187
20
23.3106887
40
0.0702548
50
63.4835954
51
67.3062642
0
LINE
8
DEFAULT_255_1_234
10
15.8225617
20
23.3687341
11
15.8225617
21
22.4997
0
LINE
8
DEFAULT_255_1_234
10
15.8225617
20
22.4997
11
15.6739745
21
22.4997
0
LINE
8
DEFAULT_255_1_234
10
15.6739745
20
22.4997
11
15.6739745
21
23.3687341
0
LINE
8
DEFAULT_255_1_234
10
15.6739745
20
23.3687341
11
15.8225617
21
23.3687341
0
ARC
8
DEFAULT_255_1_234
10
15.7597894
20
23.6001889
40
0.097867
50
161.415052
51
180.5526306
0
ARC
8
DEFAULT_255_1_234
10
15.7473672
20
23.6036077
40
0.0850062
50
138.1827368
51
160.9307106
0
ARC
8
DEFAULT_255_1_234
10
15.7363618
20
23.6131588
40
0.0704362
50
104.6368899
51
138.0039868
0
ARC
8
DEFAULT_255_1_234
10
15.7470772
20
23.5764963
40
0.1086221
50
92.0600725
51
105.2189128
0
ARC
8
DEFAULT_255_1_234
10
15.7494121
20
23.5422117
40
0.1429728
50
89.9756393
51
92.5012496
0
ARC
8
DEFAULT_255_1_234
10
15.750414
20
23.5647731
40
0.1204151
50
78.0235316
51
90.4478182
0
ARC
8
DEFAULT_255_1_234
10
15.7596232
20
23.6061295
40
0.0780493
50
55.051506
51
78.3369085
0
ARC
8
DEFAULT_255_1_234
10
15.7646506
20
23.6145711
40
0.0682538
50
42.0501187
51
54.4513741
0
ARC
8
DEFAULT_255_1_234
10
15.7511373
20
23.6021798
40
0.0865878
50
1.7497075
51
42.1496013
0
ARC
8
DEFAULT_255_1_234
10
15.7256706
20
23.5992738
40
0.1121515
50
359.9852656
51
2.8364544
0
ARC
8
DEFAULT_255_1_234
10
15.7422699
20
23.5983229
40
0.0955566
50
342.1070653
51
0.552888
0
ARC
8
DEFAULT_255_1_234
10
15.7565396
20
23.5943904
40
0.0807713
50
316.7107116
51
341.6516965
0
ARC
8
DEFAULT_255_1_234
10
15.7632433
20
23.5883823
40
0.0717724
50
285.4397031
51
316.5324284
0
ARC
8
DEFAULT_255_1_234
10
15.752235
20
23.6249554
40
0.1099597
50
272.3547054
51
285.8953117
0
ARC
8
DEFAULT_255_1_234
10
15.7495508
20
23.6615048
40
0.1465932
50
269.9695369
51
272.8160237
0
ARC
8
DEFAULT_255_1_234
10
15.7485689
20
23.6395863
40
0.1246779
50
258.8431134
51
270.4153935
0
ARC
8
DEFAULT_255_1_234
10
15.7395732
20
23.5960414
40
0.0802162
50
238.5431189
51
259.1288175
0
ARC
8
DEFAULT_255_1_234
10
15.7327617
20
23.5836856
40
0.0661247
50
222.5062634
51
237.9906969
0
ARC
8
DEFAULT_255_1_234
10
15.7455204
20
23.5952889
40
0.0833707
50
184.1069131
51
222.460413
0
ARC
8
DEFAULT_255_1_234
10
15.7724445
20
23.5991349
40
0.1105176
50
179.9429482
51
185.0960898
0
LINE
8
DEFAULT_255_1_234
10
16.022552
20
22.9101218
11
16.022552
21
22.9374297
0
LINE
8
DEFAULT_255_1_234
10
16.7598655
20
22.9534932
11
16.7598655
21
22.8916488
0
LINE
8
DEFAULT_255_1_234
10
16.7598655
20
22.8916488
11
16.1711391
21
22.8916488
0
LINE
8
DEFAULT_255_1_234
10
16.6578625
20
22.7221792
11
16.7486211
21
22.6514999
0
LINE
8
DEFAULT_255_1_234
10
16.1759582
20
23.0137313
11
16.6112784
21
23.0137313
0
LINE
8
DEFAULT_255_1_234
10
16.6112784
20
23.0137313
11
16.6112784
21
23.0249757
0
ARC
8
DEFAULT_255_1_234
10
16.4164885
20
22.9212332
40
0.4376191
50
252.3266134
51
270.5810217
0
ARC
8
DEFAULT_255_1_234
10
16.3959974
20
22.8471644
40
0.3608374
50
223.3000567
51
251.8561855
0
ARC
8
DEFAULT_255_1_234
10
16.4171334
20
22.8676937
40
0.3902993
50
190.9374509
51
223.3654032
0
ARC
8
DEFAULT_255_1_234
10
16.5896307
20
22.9066885
40
0.5670891
50
179.6531105
51
191.4989439
0
ARC
8
DEFAULT_255_1_234
10
16.6018319
20
22.9406417
40
0.5792888
50
167.4007466
51
180.3176909
0
ARC
8
DEFAULT_255_1_234
10
16.496638
20
22.9628885
40
0.471777
50
154.1835823
51
167.250763
0
ARC
8
DEFAULT_255_1_234
10
16.4334848
20
22.9961417
40
0.4004528
50
134.3149965
51
154.5315275
0
ARC
8
DEFAULT_255_1_234
10
16.4117343
20
23.0152228
40
0.371612
50
122.8616532
51
133.9707695
0
ARC
8
DEFAULT_255_1_234
10
16.4013917
20
23.0374703
40
0.3473289
50
89.8249009
51
123.4199222
0
ARC
8
DEFAULT_255_1_234
10
16.4063958
20
22.9727967
40
0.4120197
50
74.7876118
51
90.5482747
0
ARC
8
DEFAULT_255_1_234
10
16.4357701
20
23.081303
40
0.2996077
50
39.8178249
51
74.7633718
0
ARC
8
DEFAULT_255_1_234
10
16.3845022
20
23.0413351
40
0.3645855
50
16.8990863
51
39.4829761
0
ARC
8
DEFAULT_255_1_234
10
16.1950318
20
22.9806526
40
0.5635218
50
4.9636328
51
17.2026414
0
ARC
8
DEFAULT_255_1_234
10
15.9532388
20
22.955134
40
0.8066286
50
359.8834553
51
5.2834307
0
ARC
8
DEFAULT_255_1_234
10
16.5569913
20
22.8982803
40
0.3859091
50
180.9846213
51
194.9401313
0
ARC
8
DEFAULT_255_1_234
10
16.452019
20
22.8695849
40
0.2770883
50
194.80314
51
222.0412631
0
ARC
8
DEFAULT_255_1_234
10
16.4216072
20
22.8394116
40
0.2343055
50
221.5417084
51
268.8614402
0
ARC
8
DEFAULT_255_1_234
10
16.4289067
20
22.9070686
40
0.3021528
50
267.732405
51
270.0097136
0
ARC
8
DEFAULT_255_1_234
10
16.4306877
20
22.9272105
40
0.3222994
50
269.6924892
51
280.4117579
0
ARC
8
DEFAULT_255_1_234
10
16.4483284
20
22.8353193
40
0.2287344
50
280.2255091
51
298.6338936
0
ARC
8
DEFAULT_255_1_234
10
16.4600076
20
22.8109223
40
0.2017294
50
299.0430333
51
300.4643464
0
ARC
8
DEFAULT_255_1_234
10
16.3920081
20
22.9243038
40
0.3339357
50
300.6577328
51
322.0378878
0
ARC
8
DEFAULT_255_1_234
10
16.356962
20
22.9547021
40
0.3802736
50
321.6750233
51
322.3046845
0
ARC
8
DEFAULT_255_1_234
10
16.4500582
20
22.838037
40
0.3520454
50
276.9728461
51
328.0035423
0
ARC
8
DEFAULT_255_1_234
10
16.4223635
20
22.9860841
40
0.5024498
50
269.8361028
51
278.0581756
0
ARC
8
DEFAULT_255_1_234
10
16.3996372
20
23.0605757
40
0.202159
50
89.2018686
51
117.2851756
0
ARC
8
DEFAULT_255_1_234
10
16.4049541
20
23.0563752
40
0.2083484
50
118.0551165
51
137.4540413
0
ARC
8
DEFAULT_255_1_234
10
16.4424281
20
23.0223304
40
0.2589774
50
137.5109581
51
158.8516286
0
ARC
8
DEFAULT_255_1_234
10
16.5562116
20
22.9764074
40
0.38167
50
158.5845963
51
170.1721436
0
ARC
8
DEFAULT_255_1_234
10
16.6731506
20
22.9531823
40
0.5008657
50
169.8376422
51
173.0566086
0
ARC
8
DEFAULT_255_1_234
10
16.203458
20
23.0042509
40
0.4083467
50
2.9091802
51
12.8847116
0
ARC
8
DEFAULT_255_1_234
10
16.3405256
20
23.0365101
40
0.2675383
50
12.6957781
51
28.6404489
0
ARC
8
DEFAULT_255_1_234
10
16.3946927
20
23.0645458
40
0.2065654
50
29.0169854
51
41.1487595
0
ARC
8
DEFAULT_255_1_234
10
16.4149712
20
23.0822003
40
0.1796786
50
41.1646065
51
85.0013516
0
ARC
8
DEFAULT_255_1_234
10
16.4028809
20
23.0087431
40
0.2539726
50
83.7280015
51
90.0964893
0
LINE
8
DEFAULT_255_1_234
10
17.5782997
20
23.1133248
11
17.4289093
21
23.1133248
0
LINE
8
DEFAULT_255_1_234
10
16.8956019
20
22.7671569
11
17.0441891
21
22.7671569
0
ARC
8
DEFAULT_255_1_234
10
17.3100912
20
22.7316959
40
0.1276617
50
359.3334982
51
18.5871358
0
ARC
8
DEFAULT_255_1_234
10
17.3309549
20
22.7372133
40
0.1061371
50
19.3540742
51
54.6485071
0
ARC
8
DEFAULT_255_1_234
10
17.2805451
20
22.6676919
40
0.1920087
50
54.3827097
51
65.0622807
0
ARC
8
DEFAULT_255_1_234
10
17.2036847
20
22.50599
40
0.3710447
50
64.8282493
51
71.4200025
0
ARC
8
DEFAULT_255_1_234
10
17.1134723
20
22.2413107
40
0.6506741
50
71.3164301
51
75.8006402
0
ARC
8
DEFAULT_255_1_234
10
17.0293543
20
21.9172561
40
0.9854641
50
75.6809531
51
78.0061883
0
ARC
8
DEFAULT_255_1_234
10
17.4742076
20
24.015177
40
1.1591028
50
254.6901892
51
258.0466452
0
ARC
8
DEFAULT_255_1_234
10
17.3703984
20
23.6392781
40
0.7691345
50
249.9010773
51
254.755261
0
ARC
8
DEFAULT_255_1_234
10
17.2700326
20
23.3666982
40
0.478665
50
243.3097214
51
249.9709442
0
ARC
8
DEFAULT_255_1_234
10
17.2071348
20
23.2412778
40
0.3383568
50
234.4047477
51
243.2862168
0
ARC
8
DEFAULT_255_1_234
10
17.1448871
20
23.1553232
40
0.2322322
50
220.8667099
51
234.5493881
0
ARC
8
DEFAULT_255_1_234
10
17.1106812
20
23.1241817
40
0.1859923
50
214.3062465
51
220.5065136
0
ARC
8
DEFAULT_255_1_234
10
17.1080891
20
23.121088
40
0.1821108
50
186.912965
51
213.9618616
0
ARC
8
DEFAULT_255_1_234
10
17.1612986
20
23.1297009
40
0.2359799
50
179.8808832
51
187.4339886
0
ARC
8
DEFAULT_255_1_234
10
17.145812
20
23.1317088
40
0.2204978
50
132.005434
51
180.3942919
0
ARC
8
DEFAULT_255_1_234
10
17.2114733
20
23.0711083
40
0.3095791
50
129.2319861
51
133.5302299
0
ARC
8
DEFAULT_255_1_234
10
17.2168241
20
23.0616928
40
0.3202615
50
100.4410011
51
128.9081242
0
ARC
8
DEFAULT_255_1_234
10
17.2442125
20
22.9331455
40
0.4516583
50
89.6985377
51
100.9026564
0
ARC
8
DEFAULT_255_1_234
10
17.2499167
20
22.9171166
40
0.4676928
50
77.6965325
51
90.4076836
0
ARC
8
DEFAULT_255_1_234
10
17.2830151
20
23.0598413
40
0.3211988
50
50.7276602
51
78.0399361
0
ARC
8
DEFAULT_255_1_234
10
17.3274609
20
23.1116296
40
0.2529778
50
25.7545084
51
51.0957453
0
ARC
8
DEFAULT_255_1_234
10
17.3275834
20
23.1166206
40
0.250738
50
359.2468627
51
24.7394243
0
ARC
8
DEFAULT_255_1_234
10
17.2991286
20
23.1137664
40
0.1297815
50
359.8050318
51
45.1544908
0
ARC
8
DEFAULT_255_1_234
10
17.2584428
20
23.0789794
40
0.1831883
50
43.8047702
51
49.6271585
0
ARC
8
DEFAULT_255_1_234
10
17.2592329
20
23.0790678
40
0.18261
50
49.7980766
51
82.1218353
0
ARC
8
DEFAULT_255_1_234
10
17.2473301
20
23.0143998
40
0.2483163
50
81.4465357
51
90.1710293
0
ARC
8
DEFAULT_255_1_234
10
17.2448904
20
22.961788
40
0.300932
50
89.6766211
51
99.1264602
0
ARC
8
DEFAULT_255_1_234
10
17.2277366
20
23.0651537
40
0.1961547
50
98.968313
51
113.4570237
0
ARC
8
DEFAULT_255_1_234
10
17.2081451
20
23.1119965
40
0.1453859
50
113.722589
51
127.4763106
0
ARC
8
DEFAULT_255_1_234
10
17.1913097
20
23.1320124
40
0.1192639
50
126.9083309
51
150.3165862
0
ARC
8
DEFAULT_255_1_234
10
17.186543
20
23.1370981
40
0.112623
50
151.3635175
51
180.0701457
0
ARC
8
DEFAULT_255_1_234
10
17.2174214
20
23.134999
40
0.1435149
50
179.2169974
51
179.9954013
0
ARC
8
DEFAULT_255_1_234
10
17.1813272
20
23.1337056
40
0.1074286
50
179.3040112
51
198.4225446
0
ARC
8
DEFAULT_255_1_234
10
17.1621405
20
23.1287127
40
0.0876573
50
199.2895851
51
238.6034594
0
ARC
8
DEFAULT_255_1_234
10
17.2224252
20
23.223345
40
0.1998512
50
237.9846301
51
246.8744712
0
ARC
8
DEFAULT_255_1_234
10
17.3082197
20
23.4196205
40
0.4140547
50
246.6234531
51
251.8168941
0
ARC
8
DEFAULT_255_1_234
10
17.411274
20
23.7290905
40
0.7402308
50
251.713434
51
255.0778414
0
ARC
8
DEFAULT_255_1_234
10
17.5312003
20
24.1757563
40
1.2027155
50
255.0367487
51
257.4705983
0
ARC
8
DEFAULT_255_1_234
10
17.0204013
20
21.8743863
40
1.1546601
50
73.6837552
51
77.5016755
0
ARC
8
DEFAULT_255_1_234
10
17.1292788
20
22.2443581
40
0.7690009
50
68.7044154
51
73.7249639
0
ARC
8
DEFAULT_255_1_234
10
17.2195809
20
22.4770654
40
0.5193873
50
63.590599
51
68.6626804
0
ARC
8
DEFAULT_255_1_234
10
17.2966827
20
22.6308123
40
0.3473927
50
54.7106439
51
63.7013633
0
ARC
8
DEFAULT_255_1_234
10
17.3591282
20
22.71804
40
0.2401192
50
41.0622434
51
54.8487496
0
ARC
8
DEFAULT_255_1_234
10
17.3932668
20
22.7493592
40
0.1938094
50
34.4950568
51
40.7105546
0
ARC
8
DEFAULT_255_1_234
10
17.3979476
20
22.7542078
40
0.1872106
50
9.3763373
51
34.0833615
0
ARC
8
DEFAULT_255_1_234
10
17.3326346
20
22.7416728
40
0.2536988
50
359.7694872
51
9.7663171
0
ARC
8
DEFAULT_255_1_234
10
17.3523847
20
22.7373764
40
0.2339696
50
335.8654732
51
0.8022045
0
ARC
8
DEFAULT_255_1_234
10
17.3598891
20
22.7387197
40
0.2277108
50
307.7357725
51
334.7849066
0
ARC
8
DEFAULT_255_1_234
10
17.3198067
20
22.7837645
40
0.2878951
50
307.0241536
51
308.5578354
0
ARC
8
DEFAULT_255_1_234
10
17.2940398
20
22.8223801
40
0.3342515
50
282.9362969
51
306.5646424
0
ARC
8
DEFAULT_255_1_234
10
17.2578696
20
22.9691108
40
0.4853615
50
271.1026298
51
283.2200835
0
ARC
8
DEFAULT_255_1_234
10
17.251494
20
23.0932418
40
0.6096052
50
269.9919117
51
271.4772449
0
ARC
8
DEFAULT_255_1_234
10
17.2488695
20
22.9854436
40
0.5018135
50
259.0723564
51
270.289833
0
ARC
8
DEFAULT_255_1_234
10
17.2276427
20
22.8737271
40
0.388099
50
245.4963068
51
259.0227342
0
ARC
8
DEFAULT_255_1_234
10
17.1998383
20
22.8155615
40
0.3236422
50
228.9684658
51
245.7044727
0
ARC
8
DEFAULT_255_1_234
10
17.1732827
20
22.7828575
40
0.2815426
50
214.4011705
51
228.6759915
0
ARC
8
DEFAULT_255_1_234
10
17.1443568
20
22.767029
40
0.2487548
50
179.9705531
51
215.1572795
0
ARC
8
DEFAULT_255_1_234
10
17.2144167
20
22.7743806
40
0.1703809
50
182.4299387
51
203.0329699
0
ARC
8
DEFAULT_255_1_234
10
17.1959825
20
22.7687396
40
0.1512226
50
203.798802
51
232.548466
0
ARC
8
DEFAULT_255_1_234
10
17.2236346
20
22.8038826
40
0.1959374
50
232.3782728
51
256.3934612
0
ARC
8
DEFAULT_255_1_234
10
17.2466708
20
22.8928842
40
0.2878639
50
256.104506
51
268.4626716
0
ARC
8
DEFAULT_255_1_234
10
17.2513192
20
22.9725487
40
0.3676329
50
268.0715632
51
270.0138206
0
ARC
8
DEFAULT_255_1_234
10
17.2531717
20
22.9453083
40
0.3403971
50
269.7031147
51
278.8341955
0
ARC
8
DEFAULT_255_1_234
10
17.271381
20
22.8322876
40
0.2259217
50
278.6728789
51
292.8232582
0
ARC
8
DEFAULT_255_1_234
10
17.2914348
20
22.7821449
40
0.171929
50
293.1452328
51
303.6655899
0
ARC
8
DEFAULT_255_1_234
10
17.3179227
20
22.7445204
40
0.1259367
50
303.1248165
51
321.742847
0
ARC
8
DEFAULT_255_1_234
10
17.3365108
20
22.7282156
40
0.1012531
50
322.4748573
51
1.1291126
0
LINE
8
DEFAULT_255_1_234
10
4.9274119
20
20.6366792
11
4.9274119
21
20.5154
0
LINE
8
DEFAULT_255_1_234
10
4.9274119
20
20.5154
11
4.161184
21
20.5154
0
LINE
8
DEFAULT_255_1_234
10
4.161184
20
20.5154
11
4.161184
21
20.6222221
0
LINE
8
DEFAULT_255_1_234
10
4.161184
20
20.6222221
11
4.5659836
21
21.0719995
0
LINE
8
DEFAULT_255_1_234
10
4.2872823
20
21.3402595
11
4.1386952
21
21.3402595
0
LINE
8
DEFAULT_255_1_234
10
4.6535296
20
20.9764218
11
4.3402918
21
20.6366792
0
LINE
8
DEFAULT_255_1_234
10
4.3402918
20
20.6366792
11
4.9274119
21
20.6366792
0
ARC
8
DEFAULT_255_1_234
10
3.216967
20
22.2649527
40
1.8008286
50
318.5132453
51
320.7828378
0
ARC
8
DEFAULT_255_1_234
10
3.7456644
20
21.8346426
40
1.1191493
50
320.7372736
51
323.9737074
0
ARC
8
DEFAULT_255_1_234
10
4.1376501
20
21.5506361
40
0.6350923
50
323.8961724
51
328.6421089
0
ARC
8
DEFAULT_255_1_234
10
4.3423096
20
21.4244031
40
0.3946393
50
328.8299013
51
331.789948
0
ARC
8
DEFAULT_255_1_234
10
4.4420274
20
21.3729509
40
0.2824501
50
331.4255242
51
352.9364833
0
ARC
8
DEFAULT_255_1_234
10
4.4556775
20
21.3698976
40
0.2685315
50
353.2248685
51
0.0169286
0
ARC
8
DEFAULT_255_1_234
10
4.4766652
20
21.372195
40
0.2475536
50
359.4866256
51
15.9339782
0
ARC
8
DEFAULT_255_1_234
10
4.5273637
20
21.3858286
40
0.1950618
50
16.1714718
51
43.5284424
0
ARC
8
DEFAULT_255_1_234
10
4.5350946
20
21.3935573
40
0.184134
50
43.4415429
51
83.1661404
0
ARC
8
DEFAULT_255_1_234
10
4.5216864
20
21.3198771
40
0.258926
50
82.160215
51
90.1505798
0
ARC
8
DEFAULT_255_1_234
10
4.5185291
20
21.2661865
40
0.3126255
50
89.5460705
51
102.5418777
0
ARC
8
DEFAULT_255_1_234
10
4.4942377
20
21.3692665
40
0.2067346
50
102.1739365
51
129.2061916
0
ARC
8
DEFAULT_255_1_234
10
4.4863449
20
21.3817094
40
0.1921118
50
129.7279328
51
135.7542026
0
ARC
8
DEFAULT_255_1_234
10
4.4984977
20
21.3720045
40
0.2075944
50
136.175737
51
166.3674722
0
ARC
8
DEFAULT_255_1_234
10
4.5991896
20
21.3450182
40
0.3118201
50
165.9092917
51
178.8683903
0
ARC
8
DEFAULT_255_1_234
10
4.6856757
20
21.3403179
40
0.3983935
50
178.438168
51
180.0083905
0
ARC
8
DEFAULT_255_1_234
10
4.5455359
20
21.3442231
40
0.4068601
50
163.2878735
51
180.5581814
0
ARC
8
DEFAULT_255_1_234
10
4.4653621
20
21.366284
40
0.3237344
50
133.454115
51
162.9470031
0
ARC
8
DEFAULT_255_1_234
10
4.4832162
20
21.3473
40
0.349795
50
100.7869394
51
133.4384016
0
ARC
8
DEFAULT_255_1_234
10
4.5179934
20
21.1924319
40
0.5084616
50
89.6605301
51
101.3704185
0
ARC
8
DEFAULT_255_1_234
10
4.5246273
20
21.1985496
40
0.502348
50
78.2171172
51
90.4130393
0
ARC
8
DEFAULT_255_1_234
10
4.5601351
20
21.3609637
40
0.3361092
50
55.9268222
51
78.4888551
0
ARC
8
DEFAULT_255_1_234
10
4.5797791
20
21.3948324
40
0.2970617
50
47.9292255
51
55.4054003
0
ARC
8
DEFAULT_255_1_234
10
4.5899352
20
21.4051502
40
0.2825983
50
4.3347696
51
48.0560701
0
ARC
8
DEFAULT_255_1_234
10
4.4803745
20
21.3881601
40
0.393225
50
359.925209
51
5.5967654
0
ARC
8
DEFAULT_255_1_234
10
4.5232637
20
21.3937816
40
0.3503892
50
337.8914096
51
358.9967724
0
ARC
8
DEFAULT_255_1_234
10
4.2519049
20
21.4984706
40
0.6412172
50
326.9135351
51
338.3505194
0
ARC
8
DEFAULT_255_1_234
10
3.8533353
20
21.7539284
40
1.1146189
50
319.6472867
51
327.095818
0
ARC
8
DEFAULT_255_1_234
10
3.4700356
20
22.0701
40
1.6114559
50
317.2586784
51
319.9046139
0
LINE
8
DEFAULT_255_1_234
10
5.7121127
20
21.6848211
11
5.7121127
21
20.908152
0
LINE
8
DEFAULT_255_1_234
10
5.7121127
20
20.908152
11
5.8743538
21
20.908152
0
LINE
8
DEFAULT_255_1_234
10
5.8743538
20
20.908152
11
5.8743538
21
20.7868728
0
LINE
8
DEFAULT_255_1_234
10
5.8743538
20
20.7868728
11
5.7121127
21
20.7868728
0
LINE
8
DEFAULT_255_1_234
10
5.7121127
20
20.7868728
11
5.7121127
21
20.5154
0
LINE
8
DEFAULT_255_1_234
10
5.7121127
20
20.5154
11
5.5627224
21
20.5154
0
LINE
8
DEFAULT_255_1_234
10
5.5627224
20
20.5154
11
5.5627224
21
20.7868728
0
LINE
8
DEFAULT_255_1_234
10
5.5627224
20
20.7868728
11
5.0302181
21
20.7868728
0
LINE
8
DEFAULT_255_1_234
10
5.0302181
20
20.7868728
11
5.0302181
21
20.8744187
0
LINE
8
DEFAULT_255_1_234
10
5.0302181
20
20.8744187
11
5.5538875
21
21.6848211
0
LINE
8
DEFAULT_255_1_234
10
5.5538875
20
21.6848211
11
5.7121127
21
21.6848211
0
LINE
8
DEFAULT_255_1_234
10
5.5450525
20
21.4494912
11
5.1988846
21
20.908152
0
LINE
8
DEFAULT_255_1_234
10
5.1988846
20
20.908152
11
5.5627224
21
20.908152
0
LINE
8
DEFAULT_255_1_234
10
5.5627224
20
20.908152
11
5.5627224
21
21.4816181
0
LINE
8
DEFAULT_255_1_234
10
5.5627224
20
21.4816181
11
5.5450525
21
21.4494912
0
LINE
8
DEFAULT_255_1_234
10
6.101652
20
21.6848211
11
6.434166
21
20.7202093
0
LINE
8
DEFAULT_255_1_234
10
6.434166
20
20.7202093
11
6.7682863
21
21.6848211
0
LINE
8
DEFAULT_255_1_234
10
6.7682863
20
21.6848211
11
6.9369528
21
21.6848211
0
LINE
8
DEFAULT_255_1_234
10
6.9369528
20
21.6848211
11
6.5032389
21
20.5154
0
LINE
8
DEFAULT_255_1_234
10
6.5032389
20
20.5154
11
6.3666994
21
20.5154
0
LINE
8
DEFAULT_255_1_234
10
6.3666994
20
20.5154
11
5.9337887
21
21.6848211
0
LINE
8
DEFAULT_255_1_234
10
5.9337887
20
21.6848211
11
6.101652
21
21.6848211
0
LINE
8
DEFAULT_255_1_234
10
4.885323
20
5.0114663
11
5.0403355
21
5.0114663
0
LINE
8
DEFAULT_255_1_234
10
4.1399777
20
5.1704947
11
4.1399777
21
5.2829391
0
LINE
8
DEFAULT_255_1_234
10
5.0403355
20
5.4339357
11
4.885323
21
5.4339357
0
LINE
8
DEFAULT_255_1_234
10
4.2949902
20
5.2789232
11
4.2949902
21
5.1656757
0
ARC
8
DEFAULT_255_1_234
10
4.4922742
20
5.0711846
40
0.5513052
50
340.1774281
51
353.7814284
0
ARC
8
DEFAULT_255_1_234
10
4.6494095
20
5.0126582
40
0.3836379
50
311.4558989
51
340.4421614
0
ARC
8
DEFAULT_255_1_234
10
4.6460763
20
5.0237528
40
0.3941894
50
282.4333181
51
310.7513653
0
ARC
8
DEFAULT_255_1_234
10
4.6021502
20
5.2052679
40
0.5809175
50
269.9358511
51
282.809604
0
ARC
8
DEFAULT_255_1_234
10
4.5969568
20
5.3510212
40
0.7266847
50
270.0021091
51
270.3581957
0
ARC
8
DEFAULT_255_1_234
10
4.5916985
20
5.0909585
40
0.4666519
50
250.7884749
51
270.6489167
0
ARC
8
DEFAULT_255_1_234
10
4.574882
20
5.0272319
40
0.4009729
50
219.3627325
51
250.0611886
0
ARC
8
DEFAULT_255_1_234
10
4.6578031
20
5.0977042
40
0.5097822
50
193.5479632
51
219.5756669
0
ARC
8
DEFAULT_255_1_234
10
4.8949652
20
5.1592919
40
0.7547848
50
181.1218675
51
193.87563
0
ARC
8
DEFAULT_255_1_234
10
5.1019833
20
5.170358
40
0.9620055
50
179.9918545
51
181.5394234
0
ARC
8
DEFAULT_255_1_234
10
4.9168935
20
5.2866788
40
0.7769248
50
169.5837241
51
180.2757934
0
ARC
8
DEFAULT_255_1_234
10
4.7331873
20
5.3206229
40
0.590109
50
155.0365899
51
169.6003176
0
ARC
8
DEFAULT_255_1_234
10
4.6196337
20
5.3753677
40
0.4640625
50
136.783148
51
155.2472683
0
ARC
8
DEFAULT_255_1_234
10
4.5806814
20
5.4084562
40
0.4130255
50
121.7633186
51
136.428115
0
ARC
8
DEFAULT_255_1_234
10
4.5941776
20
5.3835227
40
0.4413323
50
95.6459699
51
121.5490577
0
ARC
8
DEFAULT_255_1_234
10
4.6099058
20
5.2726949
40
0.55319
50
89.924208
51
96.1377933
0
ARC
8
DEFAULT_255_1_234
10
4.6149491
20
5.2845542
40
0.5413475
50
76.6779277
51
90.4563316
0
ARC
8
DEFAULT_255_1_234
10
4.6543114
20
5.4436114
40
0.3775041
50
47.485847
51
76.9287264
0
ARC
8
DEFAULT_255_1_234
10
4.6396087
20
5.4336159
40
0.3948286
50
16.5424086
51
46.8933463
0
ARC
8
DEFAULT_255_1_234
10
4.4788244
20
5.3807861
40
0.564021
50
5.4072051
51
17.0365086
0
ARC
8
DEFAULT_255_1_234
10
4.3349261
20
5.3576679
40
0.5556559
50
7.8891745
51
15.9239216
0
ARC
8
DEFAULT_255_1_234
10
4.5336274
20
5.4153631
40
0.3487515
50
15.7653144
51
27.9410532
0
ARC
8
DEFAULT_255_1_234
10
4.6440492
20
5.474479
40
0.2235026
50
27.8166557
51
46.4008329
0
ARC
8
DEFAULT_255_1_234
10
4.6490135
20
5.4739082
40
0.2205286
50
47.4371857
51
75.0698205
0
ARC
8
DEFAULT_255_1_234
10
4.6181529
20
5.3664765
40
0.3322915
50
74.7008593
51
87.8124495
0
ARC
8
DEFAULT_255_1_234
10
4.6108217
20
5.2608844
40
0.4380987
50
87.3814673
51
90.0240855
0
ARC
8
DEFAULT_255_1_234
10
4.606976
20
5.3786291
40
0.3203749
50
89.3451631
51
108.5745436
0
ARC
8
DEFAULT_255_1_234
10
4.5932865
20
5.4299908
40
0.2673494
50
109.2998449
51
143.3037509
0
ARC
8
DEFAULT_255_1_234
10
4.6694938
20
5.3713881
40
0.3634757
50
143.0753173
51
163.1916937
0
ARC
8
DEFAULT_255_1_234
10
4.8646666
20
5.3097967
40
0.5681262
50
162.9373603
51
174.6208611
0
ARC
8
DEFAULT_255_1_234
10
5.1272708
20
5.281001
40
0.8322832
50
174.3419979
51
180.1430411
0
ARC
8
DEFAULT_255_1_234
10
5.0341864
20
5.1615698
40
0.7392076
50
179.6817502
51
189.150529
0
ARC
8
DEFAULT_255_1_234
10
4.7841112
20
5.119919
40
0.4856932
50
188.9910863
51
203.5773039
0
ARC
8
DEFAULT_255_1_234
10
4.6761445
20
5.0751211
40
0.3688271
50
203.9077269
51
215.1312379
0
ARC
8
DEFAULT_255_1_234
10
4.5838539
20
5.0035941
40
0.2522457
50
213.9071664
51
263.8849284
0
ARC
8
DEFAULT_255_1_234
10
4.5963868
20
5.0820518
40
0.3316174
50
263.1758525
51
270.1031083
0
ARC
8
DEFAULT_255_1_234
10
4.599596
20
5.2067365
40
0.4563091
50
269.6719807
51
279.0609165
0
ARC
8
DEFAULT_255_1_234
10
4.6262728
20
5.0454907
40
0.2928759
50
278.8750225
51
293.6346586
0
ARC
8
DEFAULT_255_1_234
10
4.6582936
20
4.97029
40
0.2111472
50
293.8553404
51
310.0518804
0
ARC
8
DEFAULT_255_1_234
10
4.658779
20
4.9640516
40
0.2060917
50
311.0646779
51
332.0108348
0
ARC
8
DEFAULT_255_1_234
10
4.5395517
20
5.0297978
40
0.3422352
50
331.6588543
51
343.2878891
0
ARC
8
DEFAULT_255_1_234
10
4.3333032
20
5.0931798
40
0.5580003
50
343.1446044
51
351.010618
0
ARC
8
DEFAULT_255_1_234
10
4.1791678
20
5.1212871
40
0.7146438
50
350.7157277
51
351.1602153
0
LINE
8
DEFAULT_255_1_234
10
6.1495186
20
5.8098211
11
6.1495186
21
4.6404
0
LINE
8
DEFAULT_255_1_234
10
6.1495186
20
4.6404
11
5.9945061
21
4.6404
0
LINE
8
DEFAULT_255_1_234
10
5.9945061
20
4.6404
11
5.4057796
21
5.541561
0
LINE
8
DEFAULT_255_1_234
10
5.4057796
20
5.541561
11
5.4057796
21
4.6404
0
LINE
8
DEFAULT_255_1_234
10
5.4057796
20
4.6404
11
5.2507671
21
4.6404
0
LINE
8
DEFAULT_255_1_234
10
5.2507671
20
4.6404
11
5.2507671
21
5.8098211
0
LINE
8
DEFAULT_255_1_234
10
5.2507671
20
5.8098211
11
5.4057796
21
5.8098211
0
LINE
8
DEFAULT_255_1_234
10
5.4057796
20
5.8098211
11
5.9961124
21
4.9046442
0
LINE
8
DEFAULT_255_1_234
10
5.9961124
20
4.9046442
11
5.9961124
21
5.8098211
0
LINE
8
DEFAULT_255_1_234
10
5.9961124
20
5.8098211
11
6.1495186
21
5.8098211
0
LINE
8
DEFAULT_255_1_234
10
7.1510764
20
4.7616792
11
7.1510764
21
4.6404
0
LINE
8
DEFAULT_255_1_234
10
7.1510764
20
4.6404
11
6.3848485
21
4.6404
0
LINE
8
DEFAULT_255_1_234
10
6.3848485
20
4.6404
11
6.3848485
21
4.7472221
0
LINE
8
DEFAULT_255_1_234
10
6.3848485
20
4.7472221
11
6.7896481
21
5.1969995
0
LINE
8
DEFAULT_255_1_234
10
6.5109468
20
5.4652595
11
6.3623597
21
5.4652595
0
LINE
8
DEFAULT_255_1_234
10
6.8771941
20
5.1014218
11
6.5639563
21
4.7616792
0
LINE
8
DEFAULT_255_1_234
10
6.5639563
20
4.7616792
11
7.1510764
21
4.7616792
0
ARC
8
DEFAULT_255_1_234
10
5.4406315
20
6.3899527
40
1.8008286
50
318.5132453
51
320.7828378
0
ARC
8
DEFAULT_255_1_234
10
5.9693289
20
5.9596426
40
1.1191493
50
320.7372736
51
323.9737074
0
ARC
8
DEFAULT_255_1_234
10
6.3613146
20
5.6756361
40
0.6350923
50
323.8961724
51
328.6421089
0
ARC
8
DEFAULT_255_1_234
10
6.5659741
20
5.5494031
40
0.3946393
50
328.8299013
51
331.789948
0
ARC
8
DEFAULT_255_1_234
10
6.6656919
20
5.4979509
40
0.2824501
50
331.4255242
51
352.9364833
0
ARC
8
DEFAULT_255_1_234
10
6.679342
20
5.4948976
40
0.2685315
50
353.2248685
51
0.0169286
0
ARC
8
DEFAULT_255_1_234
10
6.7003297
20
5.497195
40
0.2475536
50
359.4866256
51
15.9339782
0
ARC
8
DEFAULT_255_1_234
10
6.7510282
20
5.5108286
40
0.1950618
50
16.1714718
51
43.5284424
0
ARC
8
DEFAULT_255_1_234
10
6.7587591
20
5.5185573
40
0.184134
50
43.4415429
51
83.1661404
0
ARC
8
DEFAULT_255_1_234
10
6.7453509
20
5.4448771
40
0.258926
50
82.160215
51
90.1505798
0
ARC
8
DEFAULT_255_1_234
10
6.7421936
20
5.3911865
40
0.3126255
50
89.5460705
51
102.5418777
0
ARC
8
DEFAULT_255_1_234
10
6.7179022
20
5.4942665
40
0.2067346
50
102.1739365
51
129.2061916
0
ARC
8
DEFAULT_255_1_234
10
6.7100094
20
5.5067094
40
0.1921118
50
129.7279328
51
135.7542026
0
ARC
8
DEFAULT_255_1_234
10
6.7221622
20
5.4970045
40
0.2075944
50
136.175737
51
166.3674722
0
ARC
8
DEFAULT_255_1_234
10
6.8228541
20
5.4700182
40
0.3118201
50
165.9092917
51
178.8683903
0
ARC
8
DEFAULT_255_1_234
10
6.9093402
20
5.4653179
40
0.3983935
50
178.438168
51
180.0083905
0
ARC
8
DEFAULT_255_1_234
10
6.7692005
20
5.4692231
40
0.4068601
50
163.2878735
51
180.5581814
0
ARC
8
DEFAULT_255_1_234
10
6.6890266
20
5.491284
40
0.3237344
50
133.454115
51
162.9470031
0
ARC
8
DEFAULT_255_1_234
10
6.7068807
20
5.4723
40
0.349795
50
100.7869394
51
133.4384016
0
ARC
8
DEFAULT_255_1_234
10
6.7416579
20
5.3174319
40
0.5084616
50
89.6605301
51
101.3704185
0
ARC
8
DEFAULT_255_1_234
10
6.7482918
20
5.3235496
40
0.502348
50
78.2171172
51
90.4130393
0
ARC
8
DEFAULT_255_1_234
10
6.7837996
20
5.4859637
40
0.3361092
50
55.9268222
51
78.4888551
0
ARC
8
DEFAULT_255_1_234
10
6.8034436
20
5.5198324
40
0.2970617
50
47.9292255
51
55.4054003
0
ARC
8
DEFAULT_255_1_234
10
6.8135997
20
5.5301502
40
0.2825983
50
4.3347696
51
48.0560701
0
ARC
8
DEFAULT_255_1_234
10
6.704039
20
5.5131601
40
0.393225
50
359.925209
51
5.5967654
0
ARC
8
DEFAULT_255_1_234
10
6.7469282
20
5.5187816
40
0.3503892
50
337.8914096
51
358.9967724
0
ARC
8
DEFAULT_255_1_234
10
6.4755694
20
5.6234706
40
0.6412172
50
326.9135351
51
338.3505194
0
ARC
8
DEFAULT_255_1_234
10
6.0769998
20
5.8789284
40
1.1146189
50
319.6472867
51
327.095818
0
ARC
8
DEFAULT_255_1_234
10
5.6937001
20
6.1951
40
1.6114559
50
317.2586784
51
319.9046139
0
LINE
8
DEFAULT_255_1_234
10
4.877523
20
12.9489663
11
5.0325355
21
12.9489663
0
LINE
8
DEFAULT_255_1_234
10
4.1321777
20
13.1079947
11
4.1321777
21
13.2204391
0
LINE
8
DEFAULT_255_1_234
10
5.0325355
20
13.3714357
11
4.877523
21
13.3714357
0
LINE
8
DEFAULT_255_1_234
10
4.2871902
20
13.2164232
11
4.2871902
21
13.1031757
0
ARC
8
DEFAULT_255_1_234
10
4.4844742
20
13.0086846
40
0.5513052
50
340.1774281
51
353.7814284
0
ARC
8
DEFAULT_255_1_234
10
4.6416095
20
12.9501582
40
0.3836379
50
311.4558989
51
340.4421614
0
ARC
8
DEFAULT_255_1_234
10
4.6382763
20
12.9612528
40
0.3941894
50
282.4333181
51
310.7513653
0
ARC
8
DEFAULT_255_1_234
10
4.5943502
20
13.1427679
40
0.5809175
50
269.9358511
51
282.809604
0
ARC
8
DEFAULT_255_1_234
10
4.5891568
20
13.2885212
40
0.7266847
50
270.0021091
51
270.3581957
0
ARC
8
DEFAULT_255_1_234
10
4.5838985
20
13.0284585
40
0.4666519
50
250.7884749
51
270.6489167
0
ARC
8
DEFAULT_255_1_234
10
4.567082
20
12.9647319
40
0.4009729
50
219.3627325
51
250.0611886
0
ARC
8
DEFAULT_255_1_234
10
4.6500031
20
13.0352042
40
0.5097822
50
193.5479632
51
219.5756669
0
ARC
8
DEFAULT_255_1_234
10
4.8871652
20
13.0967919
40
0.7547848
50
181.1218675
51
193.87563
0
ARC
8
DEFAULT_255_1_234
10
5.0941833
20
13.107858
40
0.9620055
50
179.9918545
51
181.5394234
0
ARC
8
DEFAULT_255_1_234
10
4.9090935
20
13.2241788
40
0.7769248
50
169.5837241
51
180.2757934
0
ARC
8
DEFAULT_255_1_234
10
4.7253873
20
13.2581229
40
0.590109
50
155.0365899
51
169.6003176
0
ARC
8
DEFAULT_255_1_234
10
4.6118337
20
13.3128677
40
0.4640625
50
136.783148
51
155.2472683
0
ARC
8
DEFAULT_255_1_234
10
4.5728814
20
13.3459562
40
0.4130255
50
121.7633186
51
136.428115
0
ARC
8
DEFAULT_255_1_234
10
4.5863776
20
13.3210227
40
0.4413323
50
95.6459699
51
121.5490577
0
ARC
8
DEFAULT_255_1_234
10
4.6021058
20
13.2101949
40
0.55319
50
89.924208
51
96.1377933
0
ARC
8
DEFAULT_255_1_234
10
4.6071491
20
13.2220542
40
0.5413475
50
76.6779277
51
90.4563316
0
ARC
8
DEFAULT_255_1_234
10
4.6465114
20
13.3811114
40
0.3775041
50
47.485847
51
76.9287264
0
ARC
8
DEFAULT_255_1_234
10
4.6318087
20
13.3711159
40
0.3948286
50
16.5424086
51
46.8933463
0
ARC
8
DEFAULT_255_1_234
10
4.4710244
20
13.3182861
40
0.564021
50
5.4072051
51
17.0365086
0
ARC
8
DEFAULT_255_1_234
10
4.3271261
20
13.2951679
40
0.5556559
50
7.8891745
51
15.9239216
0
ARC
8
DEFAULT_255_1_234
10
4.5258274
20
13.3528631
40
0.3487515
50
15.7653144
51
27.9410532
0
ARC
8
DEFAULT_255_1_234
10
4.6362492
20
13.411979
40
0.2235026
50
27.8166557
51
46.4008329
0
ARC
8
DEFAULT_255_1_234
10
4.6412135
20
13.4114082
40
0.2205286
50
47.4371857
51
75.0698205
0
ARC
8
DEFAULT_255_1_234
10
4.6103529
20
13.3039765
40
0.3322915
50
74.7008593
51
87.8124495
0
ARC
8
DEFAULT_255_1_234
10
4.6030217
20
13.1983844
40
0.4380987
50
87.3814673
51
90.0240855
0
ARC
8
DEFAULT_255_1_234
10
4.599176
20
13.3161291
40
0.3203749
50
89.3451631
51
108.5745436
0
ARC
8
DEFAULT_255_1_234
10
4.5854865
20
13.3674908
40
0.2673494
50
109.2998449
51
143.3037509
0
ARC
8
DEFAULT_255_1_234
10
4.6616938
20
13.3088881
40
0.3634757
50
143.0753173
51
163.1916937
0
ARC
8
DEFAULT_255_1_234
10
4.8568666
20
13.2472967
40
0.5681262
50
162.9373603
51
174.6208611
0
ARC
8
DEFAULT_255_1_234
10
5.1194708
20
13.218501
40
0.8322832
50
174.3419979
51
180.1430411
0
ARC
8
DEFAULT_255_1_234
10
5.0263864
20
13.0990698
40
0.7392076
50
179.6817502
51
189.150529
0
ARC
8
DEFAULT_255_1_234
10
4.7763112
20
13.057419
40
0.4856932
50
188.9910863
51
203.5773039
0
ARC
8
DEFAULT_255_1_234
10
4.6683445
20
13.0126211
40
0.3688271
50
203.9077269
51
215.1312379
0
ARC
8
DEFAULT_255_1_234
10
4.5760539
20
12.9410941
40
0.2522457
50
213.9071664
51
263.8849284
0
ARC
8
DEFAULT_255_1_234
10
4.5885868
20
13.0195518
40
0.3316174
50
263.1758525
51
270.1031083
0
ARC
8
DEFAULT_255_1_234
10
4.591796
20
13.1442365
40
0.4563091
50
269.6719807
51
279.0609165
0
ARC
8
DEFAULT_255_1_234
10
4.6184728
20
12.9829907
40
0.2928759
50
278.8750225
51
293.6346586
0
ARC
8
DEFAULT_255_1_234
10
4.6504936
20
12.90779
40
0.2111472
50
293.8553404
51
310.0518804
0
ARC
8
DEFAULT_255_1_234
10
4.650979
20
12.9015516
40
0.2060917
50
311.0646779
51
332.0108348
0
ARC
8
DEFAULT_255_1_234
10
4.5317517
20
12.9672978
40
0.3422352
50
331.6588543
51
343.2878891
0
ARC
8
DEFAULT_255_1_234
10
4.3255032
20
13.0306798
40
0.5580003
50
343.1446044
51
351.010618
0
ARC
8
DEFAULT_255_1_234
10
4.1713678
20
13.0587871
40
0.7146438
50
350.7157277
51
351.1602153
0
LINE
8
DEFAULT_255_1_234
10
6.1417186
20
13.7473211
11
6.1417186
21
12.5779
0
LINE
8
DEFAULT_255_1_234
10
6.1417186
20
12.5779
11
5.9867061
21
12.5779
0
LINE
8
DEFAULT_255_1_234
10
5.9867061
20
12.5779
11
5.3979796
21
13.479061
0
LINE
8
DEFAULT_255_1_234
10
5.3979796
20
13.479061
11
5.3979796
21
12.5779
0
LINE
8
DEFAULT_255_1_234
10
5.3979796
20
12.5779
11
5.2429671
21
12.5779
0
LINE
8
DEFAULT_255_1_234
10
5.2429671
20
12.5779
11
5.2429671
21
13.7473211
0
LINE
8
DEFAULT_255_1_234
10
5.2429671
20
13.7473211
11
5.3979796
21
13.7473211
0
LINE
8
DEFAULT_255_1_234
10
5.3979796
20
13.7473211
11
5.9883124
21
12.8421442
0
LINE
8
DEFAULT_255_1_234
10
5.9883124
20
12.8421442
11
5.9883124
21
13.7473211
0
LINE
8
DEFAULT_255_1_234
10
5.9883124
20
13.7473211
11
6.1417186
21
13.7473211
0
LINE
8
DEFAULT_255_1_234
10
6.8653782
20
13.7529433
11
6.8653782
21
12.5779
0
LINE
8
DEFAULT_255_1_234
10
6.8653782
20
12.5779
11
6.7159879
21
12.5779
0
LINE
8
DEFAULT_255_1_234
10
6.7159879
20
12.5779
11
6.7159879
21
13.5682133
0
LINE
8
DEFAULT_255_1_234
10
6.7159879
20
13.5682133
11
6.4164041
21
13.4581785
0
LINE
8
DEFAULT_255_1_234
10
6.4164041
20
13.4581785
11
6.4164041
21
13.5931117
0
LINE
8
DEFAULT_255_1_234
10
6.4164041
20
13.5931117
11
6.8420862
21
13.7529433
0
LINE
8
DEFAULT_255_1_234
10
6.8420862
20
13.7529433
11
6.8653782
21
13.7529433
0
LINE
8
DEFAULT_255_1_234
10
23.1659817
20
21.2069327
11
23.1659817
21
21.0141709
0
LINE
8
DEFAULT_255_1_234
10
22.427865
20
20.9940916
11
22.427865
21
21.1924755
0
LINE
8
DEFAULT_255_1_234
10
23.0173946
20
20.9740123
11
23.0173946
21
21.2173739
0
LINE
8
DEFAULT_255_1_234
10
22.5764521
20
21.2286184
11
22.5764521
21
20.9908789
0
ARC
8
DEFAULT_255_1_234
10
21.9412707
20
21.0092805
40
1.2247208
50
353.8441951
51
0.2287902
0
ARC
8
DEFAULT_255_1_234
10
22.4052211
20
20.9574806
40
0.7578929
50
344.4934747
51
353.9765454
0
ARC
8
DEFAULT_255_1_234
10
22.7044801
20
20.8723981
40
0.4467846
50
329.2803592
51
344.7472793
0
ARC
8
DEFAULT_255_1_234
10
22.8037626
20
20.8179018
40
0.3336173
50
324.9352394
51
328.6160465
0
ARC
8
DEFAULT_255_1_234
10
22.8414734
20
20.7915427
40
0.2876076
50
280.580143
51
324.9173126
0
ARC
8
DEFAULT_255_1_234
10
22.8013527
20
20.9586099
40
0.4592847
50
269.5977311
51
281.6734359
0
ARC
8
DEFAULT_255_1_234
10
22.7941433
20
20.9466173
40
0.4472986
50
256.6228859
51
270.51044
0
ARC
8
DEFAULT_255_1_234
10
22.753941
20
20.7917877
40
0.2873874
50
215.8618325
51
257.2788573
0
ARC
8
DEFAULT_255_1_234
10
22.8560442
20
20.8602977
40
0.4102928
50
197.9693508
51
215.2623606
0
ARC
8
DEFAULT_255_1_234
10
23.1045558
20
20.9441709
40
0.6725652
50
187.8816417
51
198.2346507
0
ARC
8
DEFAULT_255_1_234
10
23.5003766
20
21.0013079
40
1.0724845
50
180.8976217
51
188.0055519
0
ARC
8
DEFAULT_255_1_234
10
23.7803954
20
21.0116777
40
1.3526448
50
180.7449369
51
181.1510016
0
ARC
8
DEFAULT_255_1_234
10
23.6226683
20
21.1973042
40
1.1948131
50
173.7675579
51
180.231553
0
ARC
8
DEFAULT_255_1_234
10
23.170883
20
21.2483666
40
0.7401564
50
164.3058563
51
173.9002247
0
ARC
8
DEFAULT_255_1_234
10
22.8796899
20
21.3322656
40
0.4371288
50
148.7922025
51
164.568378
0
ARC
8
DEFAULT_255_1_234
10
22.7845351
20
21.3853929
40
0.3282386
50
144.5883898
51
148.1176286
0
ARC
8
DEFAULT_255_1_234
10
22.7502249
20
21.4093315
40
0.2864044
50
101.6440918
51
144.514236
0
ARC
8
DEFAULT_255_1_234
10
22.7927315
20
21.2404069
40
0.4604934
50
89.5284041
51
102.5819763
0
ARC
8
DEFAULT_255_1_234
10
22.8006403
20
21.2365018
40
0.464401
50
77.0437873
51
90.5081339
0
ARC
8
DEFAULT_255_1_234
10
22.8408405
20
21.4007615
40
0.2953195
50
48.2778575
51
77.4994676
0
ARC
8
DEFAULT_255_1_234
10
22.8481036
20
21.4136746
40
0.2808655
50
36.3142134
51
47.6305865
0
ARC
8
DEFAULT_255_1_234
10
22.7612343
20
21.3551515
40
0.3855453
50
18.2931786
51
35.6769206
0
ARC
8
DEFAULT_255_1_234
10
22.5069102
20
21.2678593
40
0.654423
50
8.024666
51
18.5605216
0
ARC
8
DEFAULT_255_1_234
10
22.0906022
20
21.2063792
40
1.0752407
50
1.1274072
51
8.1718305
0
ARC
8
DEFAULT_255_1_234
10
21.7670213
20
21.1936885
40
1.3990231
50
0.5424119
51
1.3863029
0
ARC
8
DEFAULT_255_1_234
10
21.949159
20
21.2209342
40
1.0682415
50
359.8090433
51
4.9407866
0
ARC
8
DEFAULT_255_1_234
10
22.3701604
20
21.2585113
40
0.6455691
50
4.8362157
51
12.2904523
0
ARC
8
DEFAULT_255_1_234
10
22.6456719
20
21.3198965
40
0.3633074
50
12.0805627
51
23.8173984
0
ARC
8
DEFAULT_255_1_234
10
22.7630425
20
21.3695919
40
0.2358723
50
24.2871213
51
31.3935614
0
ARC
8
DEFAULT_255_1_234
10
22.8155122
20
21.4039233
40
0.1732111
50
30.7407893
51
82.4657128
0
ARC
8
DEFAULT_255_1_234
10
22.7975256
20
21.3155691
40
0.263235
50
81.1060089
51
90.2184952
0
ARC
8
DEFAULT_255_1_234
10
22.7939555
20
21.3413924
40
0.2374236
50
89.3806855
51
105.6762551
0
ARC
8
DEFAULT_255_1_234
10
22.7756186
20
21.4080567
40
0.1682847
50
105.7981136
51
149.7388061
0
ARC
8
DEFAULT_255_1_234
10
22.8820264
20
21.344095
40
0.2924306
50
149.4208916
51
163.6286378
0
ARC
8
DEFAULT_255_1_234
10
23.0911152
20
21.280325
40
0.5110213
50
163.3763315
51
172.1410975
0
ARC
8
DEFAULT_255_1_234
10
23.4211871
20
21.2330518
40
0.8444586
50
172.0259487
51
178.0703232
0
ARC
8
DEFAULT_255_1_234
10
23.724196
20
21.2186906
40
1.1477868
50
177.8631668
51
179.5044149
0
ARC
8
DEFAULT_255_1_234
10
23.6169365
20
20.9872389
40
1.0404907
50
179.7995573
51
185.2460446
0
ARC
8
DEFAULT_255_1_234
10
23.2126404
20
20.9489513
40
0.6343885
50
185.1411642
51
193.0079639
0
ARC
8
DEFAULT_255_1_234
10
22.9482877
20
20.8864641
40
0.3627568
50
192.7897626
51
205.2507664
0
ARC
8
DEFAULT_255_1_234
10
22.8436424
20
20.8397415
40
0.2481908
50
205.8005384
51
211.2537509
0
ARC
8
DEFAULT_255_1_234
10
22.7912864
20
20.804658
40
0.1852521
50
210.3789793
51
238.4008143
0
ARC
8
DEFAULT_255_1_234
10
22.7893386
20
20.8093376
40
0.1882621
50
239.6520629
51
265.9793761
0
ARC
8
DEFAULT_255_1_234
10
22.7978586
20
20.8765427
40
0.2559272
50
265.1315437
51
270.060332
0
ARC
8
DEFAULT_255_1_234
10
22.8007365
20
20.8441534
40
0.2235528
50
269.3314664
51
287.2178029
0
ARC
8
DEFAULT_255_1_234
10
22.8145217
20
20.7938279
40
0.1714108
50
287.7958004
51
329.080874
0
ARC
8
DEFAULT_255_1_234
10
22.7187674
20
20.853593
40
0.2842745
50
328.6634704
51
343.3325132
0
ARC
8
DEFAULT_255_1_234
10
22.5014694
20
20.9212863
40
0.5118644
50
343.0499468
51
351.9393422
0
ARC
8
DEFAULT_255_1_234
10
22.1547994
20
20.9723949
40
0.8622784
50
351.8069023
51
357.7959224
0
ARC
8
DEFAULT_255_1_234
10
21.831255
20
20.9891721
40
1.1862365
50
357.5871873
51
359.2677531
0
LINE
8
DEFAULT_255_1_234
10
23.4495021
20
21.6848211
11
23.7820161
21
20.7202093
0
LINE
8
DEFAULT_255_1_234
10
23.7820161
20
20.7202093
11
24.1161364
21
21.6848211
0
LINE
8
DEFAULT_255_1_234
10
24.1161364
20
21.6848211
11
24.2848029
21
21.6848211
0
LINE
8
DEFAULT_255_1_234
10
24.2848029
20
21.6848211
11
23.851089
21
20.5154
0
LINE
8
DEFAULT_255_1_234
10
23.851089
20
20.5154
11
23.7145495
21
20.5154
0
LINE
8
DEFAULT_255_1_234
10
23.7145495
20
20.5154
11
23.2816388
21
21.6848211
0
LINE
8
DEFAULT_255_1_234
10
23.2816388
20
21.6848211
11
23.4495021
21
21.6848211
0
ENDSEC
0
EOF