0
SECTION
2
HEADER
9
$MEASUREMENT
70
1
0
ENDSEC
0
SECTION
2
TABLES
0
TABLE
2
LTYPE
0
LTYPE
72
65
70
64
2
CONTINUOUS
3
______
73
0
40
0
0
ENDTAB
0
TABLE
2
LAYER
0
LAYER
2
DEFAULT_255_2_778
70
0
62
255
6
CONTINUOUS
0
LAYER
2
DEFAULT_255_2_778_1
70
0
62
255
6
CONTINUOUS
0
LAYER
2
DEFAULT_255_1_234
70
0
62
255
6
CONTINUOUS
0
ENDTAB
0
ENDSEC
0
SECTION
2
ENTITIES
0
ARC
8
DEFAULT_255_2_778
10
3.5700693
20
171.0552017
40
0.7914215
50
129.1312896
51
180.1450914
0
ARC
8
DEFAULT_255_2_778
10
3.5703345
20
171.0556888
40
0.7912112
50
89.854026
51
129.1684493
0
ARC
8
DEFAULT_255_2_778
10
25.7993937
20
171.0553754
40
0.7915249
50
39.4792447
51
90.147911
0
ARC
8
DEFAULT_255_2_778
10
25.7999935
20
171.055222
40
0.7911595
50
359.8533901
51
39.5154338
0
ARC
8
DEFAULT_255_2_778
10
25.7996693
20
-1.9863506
40
0.7914836
50
309.4761667
51
0.1482649
0
ARC
8
DEFAULT_255_2_778
10
25.799398
20
-1.9867816
40
0.7913235
50
269.8517415
51
309.511178
0
ARC
8
DEFAULT_255_2_778
10
3.570342
20
-1.9867235
40
0.7913815
50
219.1282118
51
270.1454017
0
ARC
8
DEFAULT_255_2_778
10
3.5700247
20
-1.986341
40
0.7913769
50
179.8524075
51
219.1641908
0
LINE
8
DEFAULT_255_2_778
10
3.5723503
20
171.8468976
11
25.7973503
21
171.8468976
0
LINE
8
DEFAULT_255_2_778
10
26.5911503
20
171.0531976
11
26.5911503
21
-1.9843024
0
LINE
8
DEFAULT_255_2_778
10
25.7973503
20
-2.7781024
11
3.5723503
21
-2.7781024
0
LINE
8
DEFAULT_255_2_778
10
2.7786503
20
-1.9843024
11
2.7786503
21
171.0531976
0
ARC
8
DEFAULT_255_2_778
10
15.2718323
20
169.611689
40
0.3782009
50
0.4397807
51
91.3045231
0
ARC
8
DEFAULT_255_2_778
10
15.2696879
20
169.6094064
40
0.3803695
50
269.0259909
51
0.7811192
0
ARC
8
DEFAULT_255_2_778
10
15.4288293
20
169.5969643
40
0.7639615
50
290.7362057
51
357.8000295
0
ARC
8
DEFAULT_255_2_778
10
15.3436031
20
169.6145235
40
0.8499188
50
356.8376875
51
0.0046095
0
ARC
8
DEFAULT_255_2_778
10
15.3422443
20
169.6145748
40
0.8512778
50
0.0011515
51
85.3589632
0
ARC
8
DEFAULT_255_2_778
10
15.3422371
20
169.5955092
40
0.8702827
50
85.4600549
51
90.0075769
0
ARC
8
DEFAULT_255_2_778
10
20.173385
20
169.6052426
40
0.3845507
50
1.3931151
51
90.158378
0
ARC
8
DEFAULT_255_2_778
10
20.2329096
20
169.5988635
40
0.8684198
50
359.7643557
51
42.1181505
0
ARC
8
DEFAULT_255_2_778
10
20.2353156
20
169.5992931
40
0.866348
50
42.2037872
51
87.9292218
0
ARC
8
DEFAULT_255_2_778
10
20.2305626
20
169.5580097
40
0.9077821
50
87.7235759
51
90.0025578
0
ARC
8
DEFAULT_255_2_778
10
12.9264947
20
169.6121344
40
0.3777354
50
0.3727528
51
91.1638813
0
ARC
8
DEFAULT_255_2_778
10
12.9805692
20
169.5988595
40
0.8684602
50
359.7646302
51
42.1161032
0
ARC
8
DEFAULT_255_2_778
10
12.9830774
20
169.5994127
40
0.8662296
50
42.2002176
51
87.9268901
0
ARC
8
DEFAULT_255_2_778
10
12.9783626
20
169.5583749
40
0.9074169
50
87.7231194
51
90.002558
0
ARC
8
DEFAULT_255_2_778
10
17.559042
20
169.2070858
40
1.2841942
50
233.3100129
51
270.0348017
0
ARC
8
DEFAULT_255_2_778
10
17.5711133
20
169.2274622
40
1.3077482
50
187.7860459
51
233.4193197
0
ARC
8
DEFAULT_255_2_778
10
17.5893588
20
169.2290185
40
1.3260368
50
179.9838663
51
187.7458681
0
ARC
8
DEFAULT_255_2_778
10
17.5478523
20
169.2296375
40
1.2845303
50
143.7084173
51
180.0109545
0
ARC
8
DEFAULT_255_2_778
10
17.5629238
20
169.2245899
40
1.2996747
50
94.9692901
51
143.9223324
0
ARC
8
DEFAULT_255_2_778
10
17.5597032
20
169.2252347
40
1.2987573
50
89.9947559
51
94.8302073
0
ARC
8
DEFAULT_255_2_778
10
17.5619339
20
169.2194304
40
1.3045632
50
58.1407344
51
90.0927508
0
ARC
8
DEFAULT_255_2_778
10
17.5700831
20
169.2250662
40
1.2954809
50
3.5056409
51
58.315291
0
ARC
8
DEFAULT_255_2_778
10
17.5711163
20
169.2291563
40
1.2942058
50
359.9971467
51
3.3277024
0
ARC
8
DEFAULT_255_2_778
10
17.3826088
20
169.2270483
40
1.4827147
50
0.006083
51
0.0789681
0
ARC
8
DEFAULT_255_2_778
10
17.5604187
20
169.2272022
40
1.3049047
50
315.0308293
51
0.0001529
0
ARC
8
DEFAULT_255_2_778
10
17.5609377
20
169.2269521
40
1.3043608
50
270.000667
51
315.0224921
0
LINE
8
DEFAULT_255_2_778
10
17.5609529
20
167.9225914
11
17.5598221
21
167.9225919
0
ARC
8
DEFAULT_255_2_778
10
17.5640812
20
169.2254112
40
0.7580313
50
269.6780691
51
315.5292436
0
ARC
8
DEFAULT_255_2_778
10
17.5610107
20
169.2246878
40
0.7597205
50
315.7303962
51
0.2857903
0
ARC
8
DEFAULT_255_2_778
10
17.8487376
20
169.2289382
40
0.4719845
50
359.944048
51
0.0186519
0
ARC
8
DEFAULT_255_2_778
10
17.5687772
20
169.2279605
40
0.7519457
50
0.086204
51
85.4319233
0
ARC
8
DEFAULT_255_2_778
10
17.5599609
20
169.1855338
40
0.7949581
50
85.0420495
51
90.0100075
0
ARC
8
DEFAULT_255_2_778
10
17.5579396
20
169.2422519
40
0.7382424
50
89.8538973
51
89.9999976
0
ARC
8
DEFAULT_255_2_778
10
17.558077
20
169.2293044
40
0.7511899
50
90.01048
51
134.9443097
0
ARC
8
DEFAULT_255_2_778
10
17.5582947
20
169.2291222
40
0.7514726
50
134.9462486
51
180.0023145
0
ARC
8
DEFAULT_255_2_778
10
17.5708624
20
169.2251875
40
0.7640503
50
179.7072119
51
222.5790813
0
ARC
8
DEFAULT_255_2_778
10
17.5579296
20
169.2141475
40
0.7470579
50
222.6267201
51
270.1451401
0
ARC
8
DEFAULT_255_2_778
10
9.564442
20
169.2070858
40
1.2841942
50
233.3100129
51
270.0348017
0
ARC
8
DEFAULT_255_2_778
10
9.5765133
20
169.2274622
40
1.3077482
50
187.7860459
51
233.4193197
0
ARC
8
DEFAULT_255_2_778
10
9.5947588
20
169.2290185
40
1.3260368
50
179.9838663
51
187.7458681
0
ARC
8
DEFAULT_255_2_778
10
9.5535129
20
169.2294961
40
1.2847909
50
143.1940819
51
180.0046489
0
ARC
8
DEFAULT_255_2_778
10
9.5683078
20
169.2248006
40
1.2994598
50
94.9233187
51
143.4191345
0
ARC
8
DEFAULT_255_2_778
10
9.5651008
20
169.225512
40
1.2984798
50
89.9946509
51
94.7850278
0
ARC
8
DEFAULT_255_2_778
10
9.5673902
20
169.2193441
40
1.3046496
50
58.1428905
51
90.0952196
0
ARC
8
DEFAULT_255_2_778
10
9.5758177
20
169.2254453
40
1.2950254
50
3.2656058
51
58.3171105
0
ARC
8
DEFAULT_255_2_778
10
9.5763693
20
169.2294485
40
1.2942527
50
359.997494
51
3.0900664
0
ARC
8
DEFAULT_255_2_778
10
9.5936718
20
169.2272448
40
1.276952
50
359.9949307
51
0.0963391
0
ARC
8
DEFAULT_255_2_778
10
9.5663093
20
169.2272585
40
1.3043147
50
315.0200668
51
359.994431
0
ARC
8
DEFAULT_255_2_778
10
9.5663338
20
169.22702
40
1.3041287
50
270.0008363
51
315.026719
0
LINE
8
DEFAULT_255_2_778
10
9.5663529
20
167.9228914
11
9.5652221
21
167.9228919
0
ARC
8
DEFAULT_255_2_778
10
9.5694412
20
169.2254135
40
0.7580334
50
269.6810953
51
315.6152252
0
ARC
8
DEFAULT_255_2_778
10
9.5663839
20
169.2247381
40
0.7597504
50
315.8129036
51
0.3254485
0
ARC
8
DEFAULT_255_2_778
10
9.5738176
20
169.2276565
40
0.7523058
50
0.1093155
51
85.7820321
0
ARC
8
DEFAULT_255_2_778
10
9.5653381
20
169.1861263
40
0.7943655
50
85.3923987
51
90.0083732
0
ARC
8
DEFAULT_255_2_778
10
9.5633385
20
169.2413348
40
0.7391595
50
89.8539942
51
89.9999859
0
ARC
8
DEFAULT_255_2_778
10
9.563405
20
169.2294783
40
0.7510159
50
90.0050654
51
134.9497993
0
ARC
8
DEFAULT_255_2_778
10
9.5632746
20
169.2292963
40
0.7510526
50
134.9329452
51
180.0155944
0
ARC
8
DEFAULT_255_2_778
10
9.5762945
20
169.2251612
40
0.7640826
50
179.7052536
51
222.5741919
0
ARC
8
DEFAULT_255_2_778
10
9.5632805
20
169.2141163
40
0.7470269
50
222.6256588
51
270.1489141
0
LINE
8
DEFAULT_255_2_778
10
14.0768221
20
170.4451919
11
14.0768221
21
167.9823919
0
LINE
8
DEFAULT_255_2_778
10
14.0768221
20
167.9823919
11
14.6203221
21
167.9823919
0
LINE
8
DEFAULT_255_2_778
10
14.6203221
20
167.9823919
11
14.6203221
21
169.9897919
0
LINE
8
DEFAULT_255_2_778
10
14.6203221
20
169.9897919
11
15.2632221
21
169.9897919
0
LINE
8
DEFAULT_255_2_778
10
15.2632221
20
169.2290919
11
14.7986221
21
169.2290919
0
LINE
8
DEFAULT_255_2_778
10
14.7986221
20
169.2290919
11
15.6397221
21
167.9820919
0
LINE
8
DEFAULT_255_2_778
10
15.6397221
20
167.9820919
11
16.3126221
21
167.9820919
0
LINE
8
DEFAULT_255_2_778
10
16.3126221
20
167.9820919
11
15.6993221
21
168.8824919
0
LINE
8
DEFAULT_255_2_778
10
15.3421221
20
170.4657919
11
14.6200221
21
170.4657919
0
LINE
8
DEFAULT_255_2_778
10
14.6200221
20
170.4657919
11
14.0766221
21
170.4451919
0
LINE
8
DEFAULT_255_2_778
10
14.0766221
20
170.4451919
11
14.0768221
21
170.4451919
0
LINE
8
DEFAULT_255_2_778
10
19.0142221
20
170.4451919
11
19.0142221
21
167.9823919
0
LINE
8
DEFAULT_255_2_778
10
19.0142221
20
167.9823919
11
19.5577221
21
167.9823919
0
LINE
8
DEFAULT_255_2_778
10
19.5577221
20
167.9823919
11
19.5577221
21
169.9897919
0
LINE
8
DEFAULT_255_2_778
10
19.5577221
20
169.9897919
11
20.1723221
21
169.9897919
0
LINE
8
DEFAULT_255_2_778
10
20.5578221
20
169.6145919
11
20.5578221
21
167.9823919
0
LINE
8
DEFAULT_255_2_778
10
20.5578221
20
167.9823919
11
21.1013221
21
167.9823919
0
LINE
8
DEFAULT_255_2_778
10
21.1013221
20
167.9823919
11
21.1013221
21
169.5952919
0
LINE
8
DEFAULT_255_2_778
10
20.2305221
20
170.4657919
11
19.5577221
21
170.4657919
0
LINE
8
DEFAULT_255_2_778
10
19.5577221
20
170.4657919
11
19.0142221
21
170.4451919
0
LINE
8
DEFAULT_255_2_778
10
19.0142221
20
170.4451919
11
19.0142221
21
170.4451919
0
LINE
8
DEFAULT_255_2_778
10
11.0196221
20
170.4451919
11
11.0196221
21
167.9823919
0
LINE
8
DEFAULT_255_2_778
10
11.0196221
20
167.9823919
11
11.5628221
21
167.9823919
0
LINE
8
DEFAULT_255_2_778
10
11.5628221
20
167.9823919
11
11.5628221
21
169.9897919
0
LINE
8
DEFAULT_255_2_778
10
11.5628221
20
169.9897919
11
12.1671221
21
169.9897919
0
LINE
8
DEFAULT_255_2_778
10
12.1671221
20
169.9897919
11
12.1671221
21
167.9823919
0
LINE
8
DEFAULT_255_2_778
10
12.1671221
20
167.9823919
11
12.7105221
21
167.9823919
0
LINE
8
DEFAULT_255_2_778
10
12.7105221
20
167.9823919
11
12.7105221
21
169.9897919
0
LINE
8
DEFAULT_255_2_778
10
12.7105221
20
169.9897919
11
12.9188221
21
169.9897919
0
LINE
8
DEFAULT_255_2_778
10
13.3042221
20
169.6145919
11
13.3042221
21
167.9823919
0
LINE
8
DEFAULT_255_2_778
10
13.3042221
20
167.9823919
11
13.8490221
21
167.9823919
0
LINE
8
DEFAULT_255_2_778
10
13.8490221
20
167.9823919
11
13.8490221
21
169.5952919
0
LINE
8
DEFAULT_255_2_778
10
12.9783221
20
170.4657919
11
11.5731221
21
170.4657919
0
LINE
8
DEFAULT_255_2_778
10
11.5731221
20
170.4657919
11
11.0193221
21
170.4451919
0
LINE
8
DEFAULT_255_2_778
10
11.0193221
20
170.4451919
11
11.0196221
21
170.4451919
0
LINE
8
DEFAULT_255_2_778
10
17.5598221
20
167.9225919
11
17.5598221
21
167.9228919
0
LINE
8
DEFAULT_255_2_778
10
9.5652221
20
167.9228919
11
9.5652221
21
167.9228919
0
LINE
8
DEFAULT_255_2_778
10
9.3932417
20
155.9719075
11
10.7161417
21
155.9719075
0
LINE
8
DEFAULT_255_2_778
10
10.7161417
20
155.9719075
11
10.7161417
21
99.0865075
0
LINE
8
DEFAULT_255_2_778
10
9.3932834
20
99.0864333
11
12.0390834
21
99.0864333
0
LINE
8
DEFAULT_255_2_778
10
12.0390834
20
99.0864333
11
12.0390834
21
93.7947333
0
LINE
8
DEFAULT_255_2_778
10
12.0390834
20
93.7947333
11
9.3932834
21
93.7947333
0
LINE
8
DEFAULT_255_2_778
10
9.3932834
20
93.7947333
11
9.3932834
21
99.0864333
0
ARC
8
DEFAULT_255_2_778_1
10
13.1928591
20
93.897177
40
4.816461
50
120.9442904
51
122.351755
0
ARC
8
DEFAULT_255_2_778_1
10
12.7462523
20
94.6008039
40
3.9830657
50
122.3407904
51
124.1946752
0
ARC
8
DEFAULT_255_2_778_1
10
12.3063464
20
95.2473306
40
3.2010724
50
124.1855758
51
126.4338849
0
ARC
8
DEFAULT_255_2_778_1
10
11.9204129
20
95.7700611
40
2.5513094
50
126.4326926
51
128.8877368
0
ARC
8
DEFAULT_255_2_778_1
10
11.5855968
20
96.1844658
40
2.0185498
50
128.8749205
51
131.8726567
0
ARC
8
DEFAULT_255_2_778_1
10
11.2884677
20
96.5154854
40
1.5737356
50
131.8616166
51
135.4168838
0
ARC
8
DEFAULT_255_2_778_1
10
11.025668
20
96.7736765
40
1.2053256
50
135.3893975
51
139.9687014
0
ARC
8
DEFAULT_255_2_778_1
10
10.7927889
20
96.9685102
40
0.9016937
50
139.9301659
51
145.9260426
0
ARC
8
DEFAULT_255_2_778_1
10
10.596654
20
97.1005104
40
0.6652776
50
145.8787362
51
153.8146208
0
ARC
8
DEFAULT_255_2_778_1
10
10.4445553
20
97.1748797
40
0.4959714
50
153.770634
51
164.3484794
0
ARC
8
DEFAULT_255_2_778_1
10
10.3432387
20
97.2030786
40
0.3908039
50
164.3220276
51
179.8083066
0
ARC
8
DEFAULT_255_2_778_1
10
10.3642789
20
97.211215
40
0.4118985
50
180.9499449
51
213.8111542
0
ARC
8
DEFAULT_255_2_778_1
10
10.6401828
20
97.3807896
40
0.73561
50
212.8271214
51
224.258472
0
ARC
8
DEFAULT_255_2_778_1
10
11.0230335
20
97.7501236
40
1.267567
50
224.1376218
51
231.4508261
0
ARC
8
DEFAULT_255_2_778_1
10
11.6657195
20
98.5531168
40
2.2960809
50
231.3955893
51
236.1256478
0
ARC
8
DEFAULT_255_2_778_1
10
13.4980223
20
101.2996293
40
5.5976905
50
236.2233172
51
239.1314682
0
ARC
8
DEFAULT_255_2_778_1
10
25.447927
20
121.0273568
40
28.6623793
50
238.8606853
51
239.0711101
0
ARC
8
DEFAULT_255_2_778_1
10
6.2757281
20
88.9302653
40
8.7248518
50
57.2420924
51
59.4062964
0
ARC
8
DEFAULT_255_2_778_1
10
9.5034241
20
93.9612102
40
2.747542
50
52.8289294
51
57.079028
0
ARC
8
DEFAULT_255_2_778_1
10
10.2780783
20
94.9815488
40
1.466457
50
46.3041868
51
52.8596521
0
ARC
8
DEFAULT_255_2_778_1
10
10.7103073
20
95.4316842
40
0.8424061
50
36.2174211
51
46.4090895
0
ARC
8
DEFAULT_255_2_778_1
10
10.9948088
20
95.6365128
40
0.4918609
50
17.400375
51
36.5489745
0
ARC
8
DEFAULT_255_2_778_1
10
11.1088994
20
95.6763754
40
0.3710912
50
0.0676858
51
16.7951297
0
ARC
8
DEFAULT_255_2_778_1
10
11.0878613
20
95.6782428
40
0.3921317
50
343.8035191
51
359.7912046
0
ARC
8
DEFAULT_255_2_778_1
10
10.9815912
20
95.7087167
40
0.5026844
50
333.2506233
51
343.8465691
0
ARC
8
DEFAULT_255_2_778_1
10
10.8277757
20
95.7854313
40
0.6745679
50
325.6600948
51
333.3122657
0
ARC
8
DEFAULT_255_2_778_1
10
10.6323344
20
95.9182296
40
0.9108568
50
319.7560915
51
325.6976089
0
ARC
8
DEFAULT_255_2_778_1
10
10.404199
20
96.1100002
40
1.2088854
50
315.4577584
51
319.8037947
0
ARC
8
DEFAULT_255_2_778_1
10
10.1408127
20
96.3688507
40
1.5781764
50
311.7298824
51
315.4670864
0
ARC
8
DEFAULT_255_2_778_1
10
9.8317879
20
96.7144074
40
2.0417554
50
308.723055
51
311.7470879
0
ARC
8
DEFAULT_255_2_778_1
10
9.477589
20
97.1556492
40
2.6075745
50
306.1165163
51
308.7300151
0
ARC
8
DEFAULT_255_2_778_1
10
9.0746091
20
97.7069523
40
3.2904564
50
303.9559446
51
306.1266333
0
ARC
8
DEFAULT_255_2_778_1
10
8.6630432
20
98.316215
40
4.0257023
50
302.3733397
51
303.9712246
0
ARC
8
DEFAULT_255_2_778_1
10
8.2434347
20
98.9777058
40
4.8090549
50
300.9434827
51
302.3758078
0
LINE
8
DEFAULT_255_2_778
10
10.7161417
20
93.7948075
11
10.7161417
21
36.9094075
0
LINE
8
DEFAULT_255_2_778
10
10.7161417
20
36.9094075
11
9.3932417
21
36.9094075
0
LINE
8
DEFAULT_255_1_234
10
10.165223
20
-0.2802337
11
10.3202355
21
-0.2802337
0
LINE
8
DEFAULT_255_1_234
10
9.4198777
20
-0.1212053
11
9.4198777
21
-0.0087609
0
LINE
8
DEFAULT_255_1_234
10
10.3202355
20
0.1422357
11
10.165223
21
0.1422357
0
LINE
8
DEFAULT_255_1_234
10
9.5748902
20
-0.0127768
11
9.5748902
21
-0.1260243
0
ARC
8
DEFAULT_255_1_234
10
9.7721742
20
-0.2205154
40
0.5513052
50
340.1774281
51
353.7814284
0
ARC
8
DEFAULT_255_1_234
10
9.9293095
20
-0.2790418
40
0.3836379
50
311.4558989
51
340.4421614
0
ARC
8
DEFAULT_255_1_234
10
9.9259763
20
-0.2679472
40
0.3941894
50
282.4333181
51
310.7513653
0
ARC
8
DEFAULT_255_1_234
10
9.8820502
20
-0.0864321
40
0.5809175
50
269.9358511
51
282.809604
0
ARC
8
DEFAULT_255_1_234
10
9.8768568
20
0.0593212
40
0.7266847
50
270.0021091
51
270.3581957
0
ARC
8
DEFAULT_255_1_234
10
9.8715985
20
-0.2007415
40
0.4666519
50
250.7884749
51
270.6489167
0
ARC
8
DEFAULT_255_1_234
10
9.854782
20
-0.2644681
40
0.4009729
50
219.3627325
51
250.0611886
0
ARC
8
DEFAULT_255_1_234
10
9.9377031
20
-0.1939958
40
0.5097822
50
193.5479632
51
219.5756669
0
ARC
8
DEFAULT_255_1_234
10
10.1748652
20
-0.1324081
40
0.7547848
50
181.1218675
51
193.87563
0
ARC
8
DEFAULT_255_1_234
10
10.3818833
20
-0.121342
40
0.9620055
50
179.9918545
51
181.5394234
0
ARC
8
DEFAULT_255_1_234
10
10.1967935
20
-0.0050212
40
0.7769248
50
169.5837241
51
180.2757934
0
ARC
8
DEFAULT_255_1_234
10
10.0130873
20
0.0289229
40
0.590109
50
155.0365899
51
169.6003176
0
ARC
8
DEFAULT_255_1_234
10
9.8995337
20
0.0836677
40
0.4640625
50
136.783148
51
155.2472683
0
ARC
8
DEFAULT_255_1_234
10
9.8605814
20
0.1167562
40
0.4130255
50
121.7633186
51
136.428115
0
ARC
8
DEFAULT_255_1_234
10
9.8740776
20
0.0918227
40
0.4413323
50
95.6459699
51
121.5490577
0
ARC
8
DEFAULT_255_1_234
10
9.8898058
20
-0.0190051
40
0.55319
50
89.924208
51
96.1377933
0
ARC
8
DEFAULT_255_1_234
10
9.8948491
20
-0.0071458
40
0.5413475
50
76.6779277
51
90.4563316
0
ARC
8
DEFAULT_255_1_234
10
9.9342114
20
0.1519114
40
0.3775041
50
47.485847
51
76.9287264
0
ARC
8
DEFAULT_255_1_234
10
9.9195087
20
0.1419159
40
0.3948286
50
16.5424086
51
46.8933463
0
ARC
8
DEFAULT_255_1_234
10
9.7587244
20
0.0890861
40
0.564021
50
5.4072051
51
17.0365086
0
ARC
8
DEFAULT_255_1_234
10
9.6148261
20
0.0659679
40
0.5556559
50
7.8891745
51
15.9239216
0
ARC
8
DEFAULT_255_1_234
10
9.8135274
20
0.1236631
40
0.3487515
50
15.7653144
51
27.9410532
0
ARC
8
DEFAULT_255_1_234
10
9.9239492
20
0.182779
40
0.2235026
50
27.8166557
51
46.4008329
0
ARC
8
DEFAULT_255_1_234
10
9.9289135
20
0.1822082
40
0.2205286
50
47.4371857
51
75.0698205
0
ARC
8
DEFAULT_255_1_234
10
9.8980529
20
0.0747765
40
0.3322915
50
74.7008593
51
87.8124495
0
ARC
8
DEFAULT_255_1_234
10
9.8907217
20
-0.0308156
40
0.4380987
50
87.3814673
51
90.0240855
0
ARC
8
DEFAULT_255_1_234
10
9.886876
20
0.0869291
40
0.3203749
50
89.3451631
51
108.5745436
0
ARC
8
DEFAULT_255_1_234
10
9.8731865
20
0.1382908
40
0.2673494
50
109.2998449
51
143.3037509
0
ARC
8
DEFAULT_255_1_234
10
9.9493938
20
0.0796881
40
0.3634757
50
143.0753173
51
163.1916937
0
ARC
8
DEFAULT_255_1_234
10
10.1445666
20
0.0180967
40
0.5681262
50
162.9373603
51
174.6208611
0
ARC
8
DEFAULT_255_1_234
10
10.4071708
20
-0.010699
40
0.8322832
50
174.3419979
51
180.1430411
0
ARC
8
DEFAULT_255_1_234
10
10.3140864
20
-0.1301302
40
0.7392076
50
179.6817502
51
189.150529
0
ARC
8
DEFAULT_255_1_234
10
10.0640112
20
-0.171781
40
0.4856932
50
188.9910863
51
203.5773039
0
ARC
8
DEFAULT_255_1_234
10
9.9560445
20
-0.2165789
40
0.3688271
50
203.9077269
51
215.1312379
0
ARC
8
DEFAULT_255_1_234
10
9.8637539
20
-0.2881059
40
0.2522457
50
213.9071664
51
263.8849284
0
ARC
8
DEFAULT_255_1_234
10
9.8762868
20
-0.2096482
40
0.3316174
50
263.1758525
51
270.1031083
0
ARC
8
DEFAULT_255_1_234
10
9.879496
20
-0.0849635
40
0.4563091
50
269.6719807
51
279.0609165
0
ARC
8
DEFAULT_255_1_234
10
9.9061728
20
-0.2462093
40
0.2928759
50
278.8750225
51
293.6346586
0
ARC
8
DEFAULT_255_1_234
10
9.9381936
20
-0.32141
40
0.2111472
50
293.8553404
51
310.0518804
0
ARC
8
DEFAULT_255_1_234
10
9.938679
20
-0.3276484
40
0.2060917
50
311.0646779
51
332.0108348
0
ARC
8
DEFAULT_255_1_234
10
9.8194517
20
-0.2619022
40
0.3422352
50
331.6588543
51
343.2878891
0
ARC
8
DEFAULT_255_1_234
10
9.6132032
20
-0.1985202
40
0.5580003
50
343.1446044
51
351.010618
0
ARC
8
DEFAULT_255_1_234
10
9.4590678
20
-0.1704129
40
0.7146438
50
350.7157277
51
351.1602153
0
LINE
8
DEFAULT_255_1_234
10
11.306533
20
0.1799849
11
11.1515205
21
0.1799849
0
LINE
8
DEFAULT_255_1_234
10
10.4591846
20
-0.3123606
11
10.6141972
21
-0.3123606
0
ARC
8
DEFAULT_255_1_234
10
11.2174017
20
1.0746768
40
1.252368
50
248.9199003
51
254.1439814
0
ARC
8
DEFAULT_255_1_234
10
11.0493512
20
0.6420234
40
0.788226
50
241.633709
51
249.0064503
0
ARC
8
DEFAULT_255_1_234
10
10.8964907
20
0.3619317
40
0.4691427
50
230.498225
51
241.8087113
0
ARC
8
DEFAULT_255_1_234
10
10.8180481
20
0.2619906
40
0.3421437
50
227.4064532
51
229.9881192
0
ARC
8
DEFAULT_255_1_234
10
10.7693002
20
0.2144088
40
0.2741476
50
200.6781896
51
228.1763934
0
ARC
8
DEFAULT_255_1_234
10
10.7765312
20
0.2129077
40
0.2804109
50
179.5061581
51
199.8694617
0
ARC
8
DEFAULT_255_1_234
10
10.7756064
20
0.220321
40
0.2795204
50
132.4834203
51
181.0242172
0
ARC
8
DEFAULT_255_1_234
10
10.8351646
20
0.1640704
40
0.3612768
50
129.2532479
51
133.4242687
0
ARC
8
DEFAULT_255_1_234
10
10.8498096
20
0.1420965
40
0.3875675
50
101.98776
51
128.8742646
0
ARC
8
DEFAULT_255_1_234
10
10.8896706
20
-0.0300259
40
0.5642249
50
89.5906553
51
102.3169264
0
ARC
8
DEFAULT_255_1_234
10
10.8967199
20
0.0018148
40
0.5323783
50
77.2360837
51
90.3248275
0
ARC
8
DEFAULT_255_1_234
10
10.9174278
20
0.09854
40
0.4334697
50
63.837784
51
77.0809408
0
ARC
8
DEFAULT_255_1_234
10
10.9452039
20
0.1502911
40
0.3747796
50
45.9864267
51
64.1607727
0
ARC
8
DEFAULT_255_1_234
10
10.9712921
20
0.1800866
40
0.3352302
50
32.2747395
51
45.6547121
0
ARC
8
DEFAULT_255_1_234
10
10.9779361
20
0.181988
40
0.328603
50
359.6507365
51
32.6130309
0
ARC
8
DEFAULT_255_1_234
10
10.8836457
20
0.182466
40
0.2678863
50
359.469343
51
14.9832209
0
ARC
8
DEFAULT_255_1_234
10
10.9541519
20
0.2013539
40
0.1948938
50
14.9781179
51
48.2004265
0
ARC
8
DEFAULT_255_1_234
10
10.9377163
20
0.1806983
40
0.2212521
50
48.5927837
51
74.1241538
0
ARC
8
DEFAULT_255_1_234
10
10.9043653
20
0.0706248
40
0.3362561
50
73.7888341
51
86.6652678
0
ARC
8
DEFAULT_255_1_234
10
10.8941218
20
-0.0501119
40
0.4573953
50
86.2640471
51
90.0526343
0
ARC
8
DEFAULT_255_1_234
10
10.8912931
20
-0.0105808
40
0.4178709
50
89.6697524
51
99.2309573
0
ARC
8
DEFAULT_255_1_234
10
10.8670382
20
0.1338964
40
0.2713749
50
99.069534
51
113.7658566
0
ARC
8
DEFAULT_255_1_234
10
10.8396573
20
0.1984677
40
0.2012469
50
114.0401004
51
127.9850673
0
ARC
8
DEFAULT_255_1_234
10
10.8156137
20
0.228073
40
0.1631167
50
127.7287463
51
176.7105154
0
ARC
8
DEFAULT_255_1_234
10
10.8834854
20
0.2179693
40
0.2315392
50
175.1779447
51
180.0581938
0
ARC
8
DEFAULT_255_1_234
10
10.7991701
20
0.2167428
40
0.1472271
50
179.6142195
51
228.1246017
0
ARC
8
DEFAULT_255_1_234
10
10.843337
20
0.2576308
40
0.2072299
50
226.5779593
51
230.8800004
0
ARC
8
DEFAULT_255_1_234
10
10.8904448
20
0.3201636
40
0.2854818
50
231.4635071
51
241.9260842
0
ARC
8
DEFAULT_255_1_234
10
11.0101626
20
0.54048
40
0.53622
50
241.7178533
51
248.3259551
0
ARC
8
DEFAULT_255_1_234
10
11.1486998
20
0.8837064
40
0.9063478
50
248.2007737
51
252.4528373
0
ARC
8
DEFAULT_255_1_234
10
11.2690723
20
1.2558441
40
1.2974635
50
252.3391078
51
254.3469452
0
ARC
8
DEFAULT_255_1_234
10
10.5148426
20
-1.4418852
40
1.5037162
50
71.0197183
51
74.4087047
0
ARC
8
DEFAULT_255_1_234
10
10.6843111
20
-0.9526889
40
0.9859993
50
66.1847285
51
71.086374
0
ARC
8
DEFAULT_255_1_234
10
10.8399423
20
-0.60228
40
0.6025855
50
59.3536294
51
66.2691831
0
ARC
8
DEFAULT_255_1_234
10
10.9288076
20
-0.4519391
40
0.4279449
50
49.1020879
51
59.3293958
0
ARC
8
DEFAULT_255_1_234
10
11.0106816
20
-0.3586166
40
0.3038015
50
32.7919921
51
49.2505539
0
ARC
8
DEFAULT_255_1_234
10
11.0427906
20
-0.3357809
40
0.264448
50
31.1181161
51
32.4005348
0
ARC
8
DEFAULT_255_1_234
10
11.0339443
20
-0.3393221
40
0.2738556
50
8.1116974
51
30.7958831
0
ARC
8
DEFAULT_255_1_234
10
10.9529111
20
-0.3531247
40
0.3560327
50
359.8389159
51
8.4706516
0
ARC
8
DEFAULT_255_1_234
10
11.0154903
20
-0.3579863
40
0.2934776
50
337.4731098
51
0.7537279
0
ARC
8
DEFAULT_255_1_234
10
11.0333598
20
-0.3599613
40
0.2762607
50
307.5917067
51
336.4315538
0
ARC
8
DEFAULT_255_1_234
10
10.9873426
20
-0.3086898
40
0.3449979
50
307.6551545
51
308.4529766
0
ARC
8
DEFAULT_255_1_234
10
10.9643145
20
-0.273175
40
0.3871988
50
284.3734338
51
307.1424381
0
ARC
8
DEFAULT_255_1_234
10
10.9147975
20
-0.0910068
40
0.5759636
50
272.4382747
51
284.646547
0
ARC
8
DEFAULT_255_1_234
10
10.9021184
20
0.0889893
40
0.7563528
50
269.9708387
51
272.8178037
0
ARC
8
DEFAULT_255_1_234
10
10.8978223
20
-0.1148284
40
0.5525489
50
248.2707594
51
270.4055579
0
ARC
8
DEFAULT_255_1_234
10
10.8923964
20
-0.1338808
40
0.5328452
50
246.1383403
51
248.0542782
0
ARC
8
DEFAULT_255_1_234
10
10.8505343
20
-0.2218157
40
0.4355005
50
233.1670131
51
246.4950969
0
ARC
8
DEFAULT_255_1_234
10
10.7951248
20
-0.2966188
40
0.3424126
50
215.3403242
51
233.0843104
0
ARC
8
DEFAULT_255_1_234
10
10.7678679
20
-0.3164451
40
0.3087104
50
179.2419209
51
215.2648451
0
ARC
8
DEFAULT_255_1_234
10
10.8446273
20
-0.3150334
40
0.2304457
50
179.335461
51
199.1045811
0
ARC
8
DEFAULT_255_1_234
10
10.811395
20
-0.3237234
40
0.1962176
50
199.8828939
51
232.7063202
0
ARC
8
DEFAULT_255_1_234
10
10.8586218
20
-0.2643212
40
0.2720938
50
232.3738199
51
255.5136649
0
ARC
8
DEFAULT_255_1_234
10
10.8927085
20
-0.1399165
40
0.4010747
50
255.2446292
51
267.5320849
0
ARC
8
DEFAULT_255_1_234
10
10.9014708
20
-0.0166298
40
0.5246356
50
267.1557994
51
270.0286766
0
ARC
8
DEFAULT_255_1_234
10
10.904248
20
-0.061005
40
0.4802668
50
269.7000017
51
278.1660162
0
ARC
8
DEFAULT_255_1_234
10
10.9298485
20
-0.2340485
40
0.3053425
50
278.0231263
51
290.625471
0
ARC
8
DEFAULT_255_1_234
10
10.9646172
20
-0.3267975
40
0.206291
50
290.6619762
51
307.0370976
0
ARC
8
DEFAULT_255_1_234
10
10.9946562
20
-0.3636496
40
0.1587906
50
306.3943566
51
355.3030547
0
ARC
8
DEFAULT_255_1_234
10
10.9434493
20
-0.3559887
40
0.2104809
50
354.3660432
51
0.0698737
0
ARC
8
DEFAULT_255_1_234
10
10.9576838
20
-0.3537383
40
0.1962563
50
359.417946
51
16.1971788
0
ARC
8
DEFAULT_255_1_234
10
11.0032149
20
-0.3412582
40
0.149053
50
16.4723299
51
52.6262157
0
ARC
8
DEFAULT_255_1_234
10
10.9211202
20
-0.4496567
40
0.2850296
50
52.7386432
51
62.4979148
0
ARC
8
DEFAULT_255_1_234
10
10.7826279
20
-0.7102717
40
0.5801521
50
62.2515216
51
68.1220564
0
ARC
8
DEFAULT_255_1_234
10
10.610619
20
-1.1330128
40
1.0365451
50
68.0062803
51
71.8053402
0
ARC
8
DEFAULT_255_1_234
10
10.4310562
20
-1.6715242
40
1.6042013
50
71.7183119
51
73.9258742
0
LINE
8
DEFAULT_255_1_234
10
11.9563006
20
0.5237433
11
11.9563006
21
-0.6513
0
LINE
8
DEFAULT_255_1_234
10
11.9563006
20
-0.6513
11
11.8069103
21
-0.6513
0
LINE
8
DEFAULT_255_1_234
10
11.8069103
20
-0.6513
11
11.8069103
21
0.3390133
0
LINE
8
DEFAULT_255_1_234
10
11.8069103
20
0.3390133
11
11.5073265
21
0.2289785
0
LINE
8
DEFAULT_255_1_234
10
11.5073265
20
0.2289785
11
11.5073265
21
0.3639117
0
LINE
8
DEFAULT_255_1_234
10
11.5073265
20
0.3639117
11
11.9330086
21
0.5237433
0
LINE
8
DEFAULT_255_1_234
10
11.9330086
20
0.5237433
11
11.9563006
21
0.5237433
0
LINE
8
DEFAULT_255_1_234
10
12.4976398
20
0.5181211
11
12.6823698
21
-0.2826432
0
LINE
8
DEFAULT_255_1_234
10
12.6823698
20
-0.2826432
11
12.7048586
21
-0.4368526
0
LINE
8
DEFAULT_255_1_234
10
12.7048586
20
-0.4368526
11
12.7377888
21
-0.2979035
0
LINE
8
DEFAULT_255_1_234
10
12.7377888
20
-0.2979035
11
12.9691028
21
0.5181211
0
LINE
8
DEFAULT_255_1_234
10
12.9691028
20
0.5181211
11
13.099217
21
0.5181211
0
LINE
8
DEFAULT_255_1_234
10
13.099217
20
0.5181211
11
13.3249088
21
-0.2979035
0
LINE
8
DEFAULT_255_1_234
10
13.3249088
20
-0.2979035
11
13.3570358
21
-0.4392621
0
LINE
8
DEFAULT_255_1_234
10
13.3570358
20
-0.4392621
11
13.3819342
21
-0.28184
0
LINE
8
DEFAULT_255_1_234
10
13.3819342
20
-0.28184
11
13.5634515
21
0.5181211
0
LINE
8
DEFAULT_255_1_234
10
13.5634515
20
0.5181211
11
13.718464
21
0.5181211
0
LINE
8
DEFAULT_255_1_234
10
13.718464
20
0.5181211
11
13.4349437
21
-0.6513
0
LINE
8
DEFAULT_255_1_234
10
13.4349437
20
-0.6513
11
13.2943882
21
-0.6513
0
LINE
8
DEFAULT_255_1_234
10
13.2943882
20
-0.6513
11
13.0534361
21
0.2008674
0
LINE
8
DEFAULT_255_1_234
10
13.0534361
20
0.2008674
11
13.0349631
21
0.2900197
0
LINE
8
DEFAULT_255_1_234
10
13.0349631
20
0.2900197
11
13.0164901
21
0.2008674
0
LINE
8
DEFAULT_255_1_234
10
13.0164901
20
0.2008674
11
12.766703
21
-0.6513
0
LINE
8
DEFAULT_255_1_234
10
12.766703
20
-0.6513
11
12.6261476
21
-0.6513
0
LINE
8
DEFAULT_255_1_234
10
12.6261476
20
-0.6513
11
12.3434304
21
0.5181211
0
LINE
8
DEFAULT_255_1_234
10
12.3434304
20
0.5181211
11
12.4976398
21
0.5181211
0
LINE
8
DEFAULT_255_1_234
10
14.1272795
20
-0.0938974
11
14.1272795
21
-0.2151766
0
LINE
8
DEFAULT_255_1_234
10
14.1272795
20
-0.2151766
11
13.7353307
21
-0.2151766
0
LINE
8
DEFAULT_255_1_234
10
13.7353307
20
-0.2151766
11
13.7353307
21
-0.0938974
0
LINE
8
DEFAULT_255_1_234
10
13.7353307
20
-0.0938974
11
14.1272795
21
-0.0938974
0
LINE
8
DEFAULT_255_1_234
10
14.7248408
20
-0.1934909
11
14.4493522
21
-0.1934909
0
LINE
8
DEFAULT_255_1_234
10
14.4493522
20
-0.1934909
11
14.4493522
21
-0.6513
0
LINE
8
DEFAULT_255_1_234
10
14.4493522
20
-0.6513
11
14.2951428
21
-0.6513
0
LINE
8
DEFAULT_255_1_234
10
14.2951428
20
-0.6513
11
14.2951428
21
0.5181211
0
LINE
8
DEFAULT_255_1_234
10
14.2951428
20
0.5181211
11
14.7264472
21
0.5181211
0
LINE
8
DEFAULT_255_1_234
10
14.4493522
20
0.3912196
11
14.4493522
21
-0.0673926
0
LINE
8
DEFAULT_255_1_234
10
14.4493522
20
-0.0673926
11
14.7264472
21
-0.0673926
0
LINE
8
DEFAULT_255_1_234
10
14.7352821
20
0.3912196
11
14.4493522
21
0.3912196
0
ARC
8
DEFAULT_255_1_234
10
14.7306599
20
-0.0877805
40
0.6059162
50
78.8378113
51
90.3983573
0
ARC
8
DEFAULT_255_1_234
10
14.7722612
20
0.1142879
40
0.3996205
50
58.9632738
51
79.0810598
0
ARC
8
DEFAULT_255_1_234
10
14.8024154
20
0.1702721
40
0.3361177
50
48.0197965
51
58.447194
0
ARC
8
DEFAULT_255_1_234
10
14.8113015
20
0.1788225
40
0.3238191
50
3.3375044
51
48.1766626
0
ARC
8
DEFAULT_255_1_234
10
14.6882855
20
0.1611171
40
0.4477806
50
359.9477528
51
4.6829065
0
ARC
8
DEFAULT_255_1_234
10
14.7006172
20
0.1568628
40
0.4354656
50
346.1877825
51
0.5060252
0
ARC
8
DEFAULT_255_1_234
10
14.8365039
20
0.1215731
40
0.295089
50
310.8831995
51
346.5426355
0
ARC
8
DEFAULT_255_1_234
10
14.8056459
20
0.1632695
40
0.3468331
50
286.6925341
51
310.2288297
0
ARC
8
DEFAULT_255_1_234
10
14.748729
20
0.3422882
40
0.5346654
50
274.6850312
51
287.0245141
0
ARC
8
DEFAULT_255_1_234
10
14.7262013
20
0.5631932
40
0.7566852
50
269.8969846
51
275.018904
0
ARC
8
DEFAULT_255_1_234
10
14.7289604
20
0.3552707
40
0.4226708
50
269.6593078
51
279.4153575
0
ARC
8
DEFAULT_255_1_234
10
14.754688
20
0.2062133
40
0.2714146
50
279.2049762
51
294.9900808
0
ARC
8
DEFAULT_255_1_234
10
14.7837205
20
0.1414508
40
0.2004525
50
295.2888114
51
311.2911209
0
ARC
8
DEFAULT_255_1_234
10
14.79081
20
0.130922
40
0.1878703
50
311.7854996
51
347.2861051
0
ARC
8
DEFAULT_255_1_234
10
14.6924258
20
0.1562092
40
0.2894234
50
346.6893224
51
0.1059443
0
ARC
8
DEFAULT_255_1_234
10
14.6169153
20
0.1590685
40
0.3649409
50
359.6350983
51
0.0053152
0
ARC
8
DEFAULT_255_1_234
10
14.7139482
20
0.1615937
40
0.2679199
50
359.4672059
51
15.5933957
0
ARC
8
DEFAULT_255_1_234
10
14.776437
20
0.1784779
40
0.2031932
50
15.7442113
51
46.6203375
0
ARC
8
DEFAULT_255_1_234
10
14.7616591
20
0.1614484
40
0.2257226
50
46.8628658
51
75.6676503
0
ARC
8
DEFAULT_255_1_234
10
14.7322412
20
0.0555718
40
0.3355939
50
75.276167
51
88.2915297
0
ARC
8
DEFAULT_255_1_234
10
14.7264118
20
-0.0322476
40
0.4235602
50
87.8575022
51
88.8000139
0
LINE
8
DEFAULT_255_1_234
10
16.1408363
20
0.5181211
11
16.1408363
21
0.3912196
0
LINE
8
DEFAULT_255_1_234
10
16.1408363
20
0.3912196
11
15.7649509
21
0.3912196
0
LINE
8
DEFAULT_255_1_234
10
15.7649509
20
0.3912196
11
15.7649509
21
-0.6513
0
LINE
8
DEFAULT_255_1_234
10
15.7649509
20
-0.6513
11
15.6115447
21
-0.6513
0
LINE
8
DEFAULT_255_1_234
10
15.6115447
20
-0.6513
11
15.6115447
21
0.3912196
0
LINE
8
DEFAULT_255_1_234
10
15.6115447
20
0.3912196
11
15.2364625
21
0.3912196
0
LINE
8
DEFAULT_255_1_234
10
15.2364625
20
0.3912196
11
15.2364625
21
0.5181211
0
LINE
8
DEFAULT_255_1_234
10
15.2364625
20
0.5181211
11
16.1408363
21
0.5181211
0
LINE
8
DEFAULT_255_1_234
10
17.077337
20
0.1799849
11
16.9223244
21
0.1799849
0
LINE
8
DEFAULT_255_1_234
10
16.2299886
20
-0.3123606
11
16.3850011
21
-0.3123606
0
ARC
8
DEFAULT_255_1_234
10
16.9882057
20
1.0746768
40
1.252368
50
248.9199003
51
254.1439814
0
ARC
8
DEFAULT_255_1_234
10
16.8201552
20
0.6420234
40
0.788226
50
241.633709
51
249.0064503
0
ARC
8
DEFAULT_255_1_234
10
16.6672946
20
0.3619317
40
0.4691427
50
230.498225
51
241.8087113
0
ARC
8
DEFAULT_255_1_234
10
16.588852
20
0.2619906
40
0.3421437
50
227.4064532
51
229.9881192
0
ARC
8
DEFAULT_255_1_234
10
16.5401041
20
0.2144088
40
0.2741476
50
200.6781896
51
228.1763934
0
ARC
8
DEFAULT_255_1_234
10
16.5473352
20
0.2129077
40
0.2804109
50
179.5061581
51
199.8694617
0
ARC
8
DEFAULT_255_1_234
10
16.5464103
20
0.220321
40
0.2795204
50
132.4834203
51
181.0242172
0
ARC
8
DEFAULT_255_1_234
10
16.6059686
20
0.1640704
40
0.3612768
50
129.2532479
51
133.4242687
0
ARC
8
DEFAULT_255_1_234
10
16.6206135
20
0.1420965
40
0.3875675
50
101.98776
51
128.8742646
0
ARC
8
DEFAULT_255_1_234
10
16.6604746
20
-0.0300259
40
0.5642249
50
89.5906553
51
102.3169264
0
ARC
8
DEFAULT_255_1_234
10
16.6675238
20
0.0018148
40
0.5323783
50
77.2360837
51
90.3248275
0
ARC
8
DEFAULT_255_1_234
10
16.6882317
20
0.09854
40
0.4334697
50
63.837784
51
77.0809408
0
ARC
8
DEFAULT_255_1_234
10
16.7160079
20
0.1502911
40
0.3747796
50
45.9864267
51
64.1607727
0
ARC
8
DEFAULT_255_1_234
10
16.742096
20
0.1800866
40
0.3352302
50
32.2747395
51
45.6547121
0
ARC
8
DEFAULT_255_1_234
10
16.7487401
20
0.181988
40
0.328603
50
359.6507365
51
32.6130309
0
ARC
8
DEFAULT_255_1_234
10
16.6544496
20
0.182466
40
0.2678863
50
359.469343
51
14.9832209
0
ARC
8
DEFAULT_255_1_234
10
16.7249559
20
0.2013539
40
0.1948938
50
14.9781179
51
48.2004265
0
ARC
8
DEFAULT_255_1_234
10
16.7085203
20
0.1806983
40
0.2212521
50
48.5927837
51
74.1241538
0
ARC
8
DEFAULT_255_1_234
10
16.6751692
20
0.0706248
40
0.3362561
50
73.7888341
51
86.6652678
0
ARC
8
DEFAULT_255_1_234
10
16.6649258
20
-0.0501119
40
0.4573953
50
86.2640471
51
90.0526343
0
ARC
8
DEFAULT_255_1_234
10
16.6620971
20
-0.0105808
40
0.4178709
50
89.6697524
51
99.2309573
0
ARC
8
DEFAULT_255_1_234
10
16.6378421
20
0.1338964
40
0.2713749
50
99.069534
51
113.7658566
0
ARC
8
DEFAULT_255_1_234
10
16.6104613
20
0.1984677
40
0.2012469
50
114.0401004
51
127.9850673
0
ARC
8
DEFAULT_255_1_234
10
16.5864177
20
0.228073
40
0.1631167
50
127.7287463
51
176.7105154
0
ARC
8
DEFAULT_255_1_234
10
16.6542894
20
0.2179693
40
0.2315392
50
175.1779447
51
180.0581938
0
ARC
8
DEFAULT_255_1_234
10
16.5699741
20
0.2167428
40
0.1472271
50
179.6142195
51
228.1246017
0
ARC
8
DEFAULT_255_1_234
10
16.6141409
20
0.2576308
40
0.2072299
50
226.5779593
51
230.8800004
0
ARC
8
DEFAULT_255_1_234
10
16.6612488
20
0.3201636
40
0.2854818
50
231.4635071
51
241.9260842
0
ARC
8
DEFAULT_255_1_234
10
16.7809666
20
0.54048
40
0.53622
50
241.7178533
51
248.3259551
0
ARC
8
DEFAULT_255_1_234
10
16.9195038
20
0.8837064
40
0.9063478
50
248.2007737
51
252.4528373
0
ARC
8
DEFAULT_255_1_234
10
17.0398763
20
1.2558441
40
1.2974635
50
252.3391078
51
254.3469452
0
ARC
8
DEFAULT_255_1_234
10
16.2856465
20
-1.4418852
40
1.5037162
50
71.0197183
51
74.4087047
0
ARC
8
DEFAULT_255_1_234
10
16.4551151
20
-0.9526889
40
0.9859993
50
66.1847285
51
71.086374
0
ARC
8
DEFAULT_255_1_234
10
16.6107463
20
-0.60228
40
0.6025855
50
59.3536294
51
66.2691831
0
ARC
8
DEFAULT_255_1_234
10
16.6996115
20
-0.4519391
40
0.4279449
50
49.1020879
51
59.3293958
0
ARC
8
DEFAULT_255_1_234
10
16.7814855
20
-0.3586166
40
0.3038015
50
32.7919921
51
49.2505539
0
ARC
8
DEFAULT_255_1_234
10
16.8135945
20
-0.3357809
40
0.264448
50
31.1181161
51
32.4005348
0
ARC
8
DEFAULT_255_1_234
10
16.8047483
20
-0.3393221
40
0.2738556
50
8.1116974
51
30.7958831
0
ARC
8
DEFAULT_255_1_234
10
16.7237151
20
-0.3531247
40
0.3560327
50
359.8389159
51
8.4706516
0
ARC
8
DEFAULT_255_1_234
10
16.7862943
20
-0.3579863
40
0.2934776
50
337.4731098
51
0.7537279
0
ARC
8
DEFAULT_255_1_234
10
16.8041637
20
-0.3599613
40
0.2762607
50
307.5917067
51
336.4315538
0
ARC
8
DEFAULT_255_1_234
10
16.7581465
20
-0.3086898
40
0.3449979
50
307.6551545
51
308.4529766
0
ARC
8
DEFAULT_255_1_234
10
16.7351184
20
-0.273175
40
0.3871988
50
284.3734338
51
307.1424381
0
ARC
8
DEFAULT_255_1_234
10
16.6856014
20
-0.0910068
40
0.5759636
50
272.4382747
51
284.646547
0
ARC
8
DEFAULT_255_1_234
10
16.6729223
20
0.0889893
40
0.7563528
50
269.9708387
51
272.8178037
0
ARC
8
DEFAULT_255_1_234
10
16.6686263
20
-0.1148284
40
0.5525489
50
248.2707594
51
270.4055579
0
ARC
8
DEFAULT_255_1_234
10
16.6632004
20
-0.1338808
40
0.5328452
50
246.1383403
51
248.0542782
0
ARC
8
DEFAULT_255_1_234
10
16.6213383
20
-0.2218157
40
0.4355005
50
233.1670131
51
246.4950969
0
ARC
8
DEFAULT_255_1_234
10
16.5659288
20
-0.2966188
40
0.3424126
50
215.3403242
51
233.0843104
0
ARC
8
DEFAULT_255_1_234
10
16.5386719
20
-0.3164451
40
0.3087104
50
179.2419209
51
215.2648451
0
ARC
8
DEFAULT_255_1_234
10
16.6154313
20
-0.3150334
40
0.2304457
50
179.335461
51
199.1045811
0
ARC
8
DEFAULT_255_1_234
10
16.5821989
20
-0.3237234
40
0.1962176
50
199.8828939
51
232.7063202
0
ARC
8
DEFAULT_255_1_234
10
16.6294258
20
-0.2643212
40
0.2720938
50
232.3738199
51
255.5136649
0
ARC
8
DEFAULT_255_1_234
10
16.6635124
20
-0.1399165
40
0.4010747
50
255.2446292
51
267.5320849
0
ARC
8
DEFAULT_255_1_234
10
16.6722748
20
-0.0166298
40
0.5246356
50
267.1557994
51
270.0286766
0
ARC
8
DEFAULT_255_1_234
10
16.675052
20
-0.061005
40
0.4802668
50
269.7000017
51
278.1660162
0
ARC
8
DEFAULT_255_1_234
10
16.7006525
20
-0.2340485
40
0.3053425
50
278.0231263
51
290.625471
0
ARC
8
DEFAULT_255_1_234
10
16.7354212
20
-0.3267975
40
0.206291
50
290.6619762
51
307.0370976
0
ARC
8
DEFAULT_255_1_234
10
16.7654601
20
-0.3636496
40
0.1587906
50
306.3943566
51
355.3030547
0
ARC
8
DEFAULT_255_1_234
10
16.7142533
20
-0.3559887
40
0.2104809
50
354.3660432
51
0.0698737
0
ARC
8
DEFAULT_255_1_234
10
16.7284878
20
-0.3537383
40
0.1962563
50
359.417946
51
16.1971788
0
ARC
8
DEFAULT_255_1_234
10
16.7740188
20
-0.3412582
40
0.149053
50
16.4723299
51
52.6262157
0
ARC
8
DEFAULT_255_1_234
10
16.6919242
20
-0.4496567
40
0.2850296
50
52.7386432
51
62.4979148
0
ARC
8
DEFAULT_255_1_234
10
16.5534319
20
-0.7102717
40
0.5801521
50
62.2515216
51
68.1220564
0
ARC
8
DEFAULT_255_1_234
10
16.381423
20
-1.1330128
40
1.0365451
50
68.0062803
51
71.8053402
0
ARC
8
DEFAULT_255_1_234
10
16.2018601
20
-1.6715242
40
1.6042013
50
71.7183119
51
73.9258742
0
LINE
8
DEFAULT_255_1_234
10
17.4259144
20
-0.0955037
11
17.3070447
21
-0.0649831
0
LINE
8
DEFAULT_255_1_234
10
17.3070447
20
-0.0649831
11
17.3664795
21
0.5181211
0
LINE
8
DEFAULT_255_1_234
10
17.3664795
20
0.5181211
11
17.9656472
21
0.5181211
0
LINE
8
DEFAULT_255_1_234
10
17.9656472
20
0.5181211
11
17.9656472
21
0.3807784
0
LINE
8
DEFAULT_255_1_234
10
17.9656472
20
0.3807784
11
17.4925778
21
0.3807784
0
LINE
8
DEFAULT_255_1_234
10
17.4925778
20
0.3807784
11
17.4572382
21
0.0619184
0
LINE
8
DEFAULT_255_1_234
10
17.2652796
20
-0.3436844
11
17.4058351
21
-0.3436844
0
LINE
8
DEFAULT_255_1_234
10
17.4652699
20
-0.0633768
11
17.4259144
21
-0.0955037
0
ARC
8
DEFAULT_255_1_234
10
17.6427166
20
-0.256077
40
0.3681349
50
93.7182161
51
120.2538958
0
ARC
8
DEFAULT_255_1_234
10
17.6521429
20
-0.3368606
40
0.449379
50
89.9660152
51
94.2496022
0
ARC
8
DEFAULT_255_1_234
10
17.6562163
20
-0.2779451
40
0.390482
50
73.8043271
51
90.5585896
0
ARC
8
DEFAULT_255_1_234
10
17.679706
20
-0.1921398
40
0.3015334
50
41.3071453
51
73.5430202
0
ARC
8
DEFAULT_255_1_234
10
17.6380887
20
-0.2279676
40
0.3564457
50
13.5075983
51
41.2174222
0
ARC
8
DEFAULT_255_1_234
10
17.4739091
20
-0.2709514
40
0.5261351
50
1.1331335
51
13.8829381
0
ARC
8
DEFAULT_255_1_234
10
17.332746
20
-0.2785335
40
0.6674378
50
359.9919444
51
1.544251
0
ARC
8
DEFAULT_255_1_234
10
17.4604286
20
-0.282672
40
0.5397702
50
347.8572367
51
0.4293338
0
ARC
8
DEFAULT_255_1_234
10
17.6354604
20
-0.3223264
40
0.3603188
50
323.673004
51
348.1672506
0
ARC
8
DEFAULT_255_1_234
10
17.6649112
20
-0.3402832
40
0.3259678
50
316.8171152
51
323.1492751
0
ARC
8
DEFAULT_255_1_234
10
17.6710301
20
-0.343954
40
0.3189975
50
281.8396411
51
316.5457803
0
ARC
8
DEFAULT_255_1_234
10
17.6334564
20
-0.1884238
40
0.4789527
50
269.5770101
51
282.4214771
0
ARC
8
DEFAULT_255_1_234
10
17.6263376
20
-0.2097875
40
0.45759
50
256.2427136
51
270.4486331
0
ARC
8
DEFAULT_255_1_234
10
17.5964278
20
-0.3297771
40
0.3339303
50
228.9023911
51
256.3314342
0
ARC
8
DEFAULT_255_1_234
10
17.5890511
20
-0.3414254
40
0.32031
50
193.753695
51
228.5271154
0
ARC
8
DEFAULT_255_1_234
10
17.7128465
20
-0.30512
40
0.4492253
50
184.924711
51
194.497588
0
ARC
8
DEFAULT_255_1_234
10
17.7321032
20
-0.3015409
40
0.3289787
50
187.3600538
51
198.6732863
0
ARC
8
DEFAULT_255_1_234
10
17.6271326
20
-0.3379326
40
0.217884
50
198.4451669
51
217.794479
0
ARC
8
DEFAULT_255_1_234
10
17.5975501
20
-0.3588915
40
0.1816698
50
218.2887171
51
228.5612368
0
ARC
8
DEFAULT_255_1_234
10
17.6073288
20
-0.3457037
40
0.1980329
50
228.9654866
51
258.1234728
0
ARC
8
DEFAULT_255_1_234
10
17.6278998
20
-0.2576167
40
0.2884748
50
257.7258293
51
270.401361
0
ARC
8
DEFAULT_255_1_234
10
17.6323884
20
-0.3021179
40
0.2439788
50
269.4204404
51
286.4209037
0
ARC
8
DEFAULT_255_1_234
10
17.6472372
20
-0.3560343
40
0.1880666
50
286.7251356
51
320.600362
0
ARC
8
DEFAULT_255_1_234
10
17.6089197
20
-0.3249405
40
0.2374121
50
320.6712579
51
344.5441685
0
ARC
8
DEFAULT_255_1_234
10
17.4932523
20
-0.2909955
40
0.3579479
50
344.2412205
51
356.7357071
0
ARC
8
DEFAULT_255_1_234
10
17.3683671
20
-0.2806556
40
0.4832297
50
356.3548756
51
0.0500261
0
ARC
8
DEFAULT_255_1_234
10
17.5020181
20
-0.277535
40
0.3495889
50
359.5576869
51
12.953486
0
ARC
8
DEFAULT_255_1_234
10
17.6075078
20
-0.2519566
40
0.2410532
50
12.6490276
51
41.6081334
0
ARC
8
DEFAULT_255_1_234
10
17.6305449
20
-0.2323679
40
0.2108218
50
41.7850273
51
85.9892764
0
ARC
8
DEFAULT_255_1_234
10
17.6182186
20
-0.3136538
40
0.2928454
50
84.6957577
51
90.0676183
0
ARC
8
DEFAULT_255_1_234
10
17.615867
20
-0.3805284
40
0.3597255
50
89.6804936
51
99.1614436
0
ARC
8
DEFAULT_255_1_234
10
17.5953301
20
-0.2577869
40
0.235281
50
98.9830931
51
113.8908934
0
ARC
8
DEFAULT_255_1_234
10
17.5723711
20
-0.2036413
40
0.176479
50
114.1950727
51
127.3641004
0
LINE
8
DEFAULT_255_1_234
10
18.3495643
20
-0.0955037
11
18.2306946
21
-0.0649831
0
LINE
8
DEFAULT_255_1_234
10
18.2306946
20
-0.0649831
11
18.2901294
21
0.5181211
0
LINE
8
DEFAULT_255_1_234
10
18.2901294
20
0.5181211
11
18.8892971
21
0.5181211
0
LINE
8
DEFAULT_255_1_234
10
18.8892971
20
0.5181211
11
18.8892971
21
0.3807784
0
LINE
8
DEFAULT_255_1_234
10
18.8892971
20
0.3807784
11
18.4162277
21
0.3807784
0
LINE
8
DEFAULT_255_1_234
10
18.4162277
20
0.3807784
11
18.3808881
21
0.0619184
0
LINE
8
DEFAULT_255_1_234
10
18.1889295
20
-0.3436844
11
18.329485
21
-0.3436844
0
LINE
8
DEFAULT_255_1_234
10
18.3889198
20
-0.0633768
11
18.3495643
21
-0.0955037
0
ARC
8
DEFAULT_255_1_234
10
18.5663665
20
-0.256077
40
0.3681349
50
93.7182161
51
120.2538958
0
ARC
8
DEFAULT_255_1_234
10
18.5757928
20
-0.3368606
40
0.449379
50
89.9660152
51
94.2496022
0
ARC
8
DEFAULT_255_1_234
10
18.5798662
20
-0.2779451
40
0.390482
50
73.8043271
51
90.5585896
0
ARC
8
DEFAULT_255_1_234
10
18.6033559
20
-0.1921398
40
0.3015334
50
41.3071453
51
73.5430202
0
ARC
8
DEFAULT_255_1_234
10
18.5617386
20
-0.2279676
40
0.3564457
50
13.5075983
51
41.2174222
0
ARC
8
DEFAULT_255_1_234
10
18.397559
20
-0.2709514
40
0.5261351
50
1.1331335
51
13.8829381
0
ARC
8
DEFAULT_255_1_234
10
18.2563959
20
-0.2785335
40
0.6674378
50
359.9919444
51
1.544251
0
ARC
8
DEFAULT_255_1_234
10
18.3840785
20
-0.282672
40
0.5397702
50
347.8572367
51
0.4293338
0
ARC
8
DEFAULT_255_1_234
10
18.5591103
20
-0.3223264
40
0.3603188
50
323.673004
51
348.1672506
0
ARC
8
DEFAULT_255_1_234
10
18.5885611
20
-0.3402832
40
0.3259678
50
316.8171152
51
323.1492751
0
ARC
8
DEFAULT_255_1_234
10
18.59468
20
-0.343954
40
0.3189975
50
281.8396411
51
316.5457803
0
ARC
8
DEFAULT_255_1_234
10
18.5571063
20
-0.1884238
40
0.4789527
50
269.5770101
51
282.4214771
0
ARC
8
DEFAULT_255_1_234
10
18.5499875
20
-0.2097875
40
0.45759
50
256.2427136
51
270.4486331
0
ARC
8
DEFAULT_255_1_234
10
18.5200777
20
-0.3297771
40
0.3339303
50
228.9023911
51
256.3314342
0
ARC
8
DEFAULT_255_1_234
10
18.512701
20
-0.3414254
40
0.32031
50
193.753695
51
228.5271154
0
ARC
8
DEFAULT_255_1_234
10
18.6364964
20
-0.30512
40
0.4492253
50
184.924711
51
194.497588
0
ARC
8
DEFAULT_255_1_234
10
18.6557531
20
-0.3015409
40
0.3289787
50
187.3600538
51
198.6732863
0
ARC
8
DEFAULT_255_1_234
10
18.5507825
20
-0.3379326
40
0.217884
50
198.4451669
51
217.794479
0
ARC
8
DEFAULT_255_1_234
10
18.5212
20
-0.3588915
40
0.1816698
50
218.2887171
51
228.5612368
0
ARC
8
DEFAULT_255_1_234
10
18.5309787
20
-0.3457037
40
0.1980329
50
228.9654866
51
258.1234728
0
ARC
8
DEFAULT_255_1_234
10
18.5515497
20
-0.2576167
40
0.2884748
50
257.7258293
51
270.401361
0
ARC
8
DEFAULT_255_1_234
10
18.5560383
20
-0.3021179
40
0.2439788
50
269.4204404
51
286.4209037
0
ARC
8
DEFAULT_255_1_234
10
18.5708871
20
-0.3560343
40
0.1880666
50
286.7251356
51
320.600362
0
ARC
8
DEFAULT_255_1_234
10
18.5325696
20
-0.3249405
40
0.2374121
50
320.6712579
51
344.5441685
0
ARC
8
DEFAULT_255_1_234
10
18.4169022
20
-0.2909955
40
0.3579479
50
344.2412205
51
356.7357071
0
ARC
8
DEFAULT_255_1_234
10
18.292017
20
-0.2806556
40
0.4832297
50
356.3548756
51
0.0500261
0
ARC
8
DEFAULT_255_1_234
10
18.425668
20
-0.277535
40
0.3495889
50
359.5576869
51
12.953486
0
ARC
8
DEFAULT_255_1_234
10
18.5311577
20
-0.2519566
40
0.2410532
50
12.6490276
51
41.6081334
0
ARC
8
DEFAULT_255_1_234
10
18.5541948
20
-0.2323679
40
0.2108218
50
41.7850273
51
85.9892764
0
ARC
8
DEFAULT_255_1_234
10
18.5418685
20
-0.3136538
40
0.2928454
50
84.6957577
51
90.0676183
0
ARC
8
DEFAULT_255_1_234
10
18.5395169
20
-0.3805284
40
0.3597255
50
89.6804936
51
99.1614436
0
ARC
8
DEFAULT_255_1_234
10
18.51898
20
-0.2577869
40
0.235281
50
98.9830931
51
113.8908934
0
ARC
8
DEFAULT_255_1_234
10
18.496021
20
-0.2036413
40
0.176479
50
114.1950727
51
127.3641004
0
LINE
8
DEFAULT_255_1_234
10
11.485423
20
165.7457663
11
11.6404355
21
165.7457663
0
LINE
8
DEFAULT_255_1_234
10
10.7400777
20
165.9047947
11
10.7400777
21
166.0172391
0
LINE
8
DEFAULT_255_1_234
10
11.6404355
20
166.1682357
11
11.485423
21
166.1682357
0
LINE
8
DEFAULT_255_1_234
10
10.8950902
20
166.0132232
11
10.8950902
21
165.8999757
0
ARC
8
DEFAULT_255_1_234
10
11.0923742
20
165.8054846
40
0.5513052
50
340.1774281
51
353.7814284
0
ARC
8
DEFAULT_255_1_234
10
11.2495095
20
165.7469582
40
0.3836379
50
311.4558989
51
340.4421614
0
ARC
8
DEFAULT_255_1_234
10
11.2461763
20
165.7580528
40
0.3941894
50
282.4333181
51
310.7513653
0
ARC
8
DEFAULT_255_1_234
10
11.2022502
20
165.9395679
40
0.5809175
50
269.9358511
51
282.809604
0
ARC
8
DEFAULT_255_1_234
10
11.1970568
20
166.0853212
40
0.7266847
50
270.0021091
51
270.3581957
0
ARC
8
DEFAULT_255_1_234
10
11.1917985
20
165.8252585
40
0.4666519
50
250.7884749
51
270.6489167
0
ARC
8
DEFAULT_255_1_234
10
11.174982
20
165.7615319
40
0.4009729
50
219.3627325
51
250.0611886
0
ARC
8
DEFAULT_255_1_234
10
11.2579031
20
165.8320042
40
0.5097822
50
193.5479632
51
219.5756669
0
ARC
8
DEFAULT_255_1_234
10
11.4950652
20
165.8935919
40
0.7547848
50
181.1218675
51
193.87563
0
ARC
8
DEFAULT_255_1_234
10
11.7020833
20
165.904658
40
0.9620055
50
179.9918545
51
181.5394234
0
ARC
8
DEFAULT_255_1_234
10
11.5169935
20
166.0209788
40
0.7769248
50
169.5837241
51
180.2757934
0
ARC
8
DEFAULT_255_1_234
10
11.3332873
20
166.0549229
40
0.590109
50
155.0365899
51
169.6003176
0
ARC
8
DEFAULT_255_1_234
10
11.2197337
20
166.1096677
40
0.4640625
50
136.783148
51
155.2472683
0
ARC
8
DEFAULT_255_1_234
10
11.1807814
20
166.1427562
40
0.4130255
50
121.7633186
51
136.428115
0
ARC
8
DEFAULT_255_1_234
10
11.1942776
20
166.1178227
40
0.4413323
50
95.6459699
51
121.5490577
0
ARC
8
DEFAULT_255_1_234
10
11.2100058
20
166.0069949
40
0.55319
50
89.924208
51
96.1377933
0
ARC
8
DEFAULT_255_1_234
10
11.2150491
20
166.0188542
40
0.5413475
50
76.6779277
51
90.4563316
0
ARC
8
DEFAULT_255_1_234
10
11.2544114
20
166.1779114
40
0.3775041
50
47.485847
51
76.9287264
0
ARC
8
DEFAULT_255_1_234
10
11.2397087
20
166.1679159
40
0.3948286
50
16.5424086
51
46.8933463
0
ARC
8
DEFAULT_255_1_234
10
11.0789244
20
166.1150861
40
0.564021
50
5.4072051
51
17.0365086
0
ARC
8
DEFAULT_255_1_234
10
10.9350261
20
166.0919679
40
0.5556559
50
7.8891745
51
15.9239216
0
ARC
8
DEFAULT_255_1_234
10
11.1337274
20
166.1496631
40
0.3487515
50
15.7653144
51
27.9410532
0
ARC
8
DEFAULT_255_1_234
10
11.2441492
20
166.208779
40
0.2235026
50
27.8166557
51
46.4008329
0
ARC
8
DEFAULT_255_1_234
10
11.2491135
20
166.2082082
40
0.2205286
50
47.4371857
51
75.0698205
0
ARC
8
DEFAULT_255_1_234
10
11.2182529
20
166.1007765
40
0.3322915
50
74.7008593
51
87.8124495
0
ARC
8
DEFAULT_255_1_234
10
11.2109217
20
165.9951844
40
0.4380987
50
87.3814673
51
90.0240855
0
ARC
8
DEFAULT_255_1_234
10
11.207076
20
166.1129291
40
0.3203749
50
89.3451631
51
108.5745436
0
ARC
8
DEFAULT_255_1_234
10
11.1933865
20
166.1642908
40
0.2673494
50
109.2998449
51
143.3037509
0
ARC
8
DEFAULT_255_1_234
10
11.2695938
20
166.1056881
40
0.3634757
50
143.0753173
51
163.1916937
0
ARC
8
DEFAULT_255_1_234
10
11.4647666
20
166.0440967
40
0.5681262
50
162.9373603
51
174.6208611
0
ARC
8
DEFAULT_255_1_234
10
11.7273708
20
166.015301
40
0.8322832
50
174.3419979
51
180.1430411
0
ARC
8
DEFAULT_255_1_234
10
11.6342864
20
165.8958698
40
0.7392076
50
179.6817502
51
189.150529
0
ARC
8
DEFAULT_255_1_234
10
11.3842112
20
165.854219
40
0.4856932
50
188.9910863
51
203.5773039
0
ARC
8
DEFAULT_255_1_234
10
11.2762445
20
165.8094211
40
0.3688271
50
203.9077269
51
215.1312379
0
ARC
8
DEFAULT_255_1_234
10
11.1839539
20
165.7378941
40
0.2522457
50
213.9071664
51
263.8849284
0
ARC
8
DEFAULT_255_1_234
10
11.1964868
20
165.8163518
40
0.3316174
50
263.1758525
51
270.1031083
0
ARC
8
DEFAULT_255_1_234
10
11.199696
20
165.9410365
40
0.4563091
50
269.6719807
51
279.0609165
0
ARC
8
DEFAULT_255_1_234
10
11.2263728
20
165.7797907
40
0.2928759
50
278.8750225
51
293.6346586
0
ARC
8
DEFAULT_255_1_234
10
11.2583936
20
165.70459
40
0.2111472
50
293.8553404
51
310.0518804
0
ARC
8
DEFAULT_255_1_234
10
11.258879
20
165.6983516
40
0.2060917
50
311.0646779
51
332.0108348
0
ARC
8
DEFAULT_255_1_234
10
11.1396517
20
165.7640978
40
0.3422352
50
331.6588543
51
343.2878891
0
ARC
8
DEFAULT_255_1_234
10
10.9334032
20
165.8274798
40
0.5580003
50
343.1446044
51
351.010618
0
ARC
8
DEFAULT_255_1_234
10
10.7792678
20
165.8555871
40
0.7146438
50
350.7157277
51
351.1602153
0
LINE
8
DEFAULT_255_1_234
10
12.626733
20
166.2059849
11
12.4717205
21
166.2059849
0
LINE
8
DEFAULT_255_1_234
10
11.7793846
20
165.7136394
11
11.9343972
21
165.7136394
0
ARC
8
DEFAULT_255_1_234
10
12.5376017
20
167.1006768
40
1.252368
50
248.9199003
51
254.1439814
0
ARC
8
DEFAULT_255_1_234
10
12.3695512
20
166.6680234
40
0.788226
50
241.633709
51
249.0064503
0
ARC
8
DEFAULT_255_1_234
10
12.2166907
20
166.3879317
40
0.4691427
50
230.498225
51
241.8087113
0
ARC
8
DEFAULT_255_1_234
10
12.1382481
20
166.2879906
40
0.3421437
50
227.4064532
51
229.9881192
0
ARC
8
DEFAULT_255_1_234
10
12.0895002
20
166.2404088
40
0.2741476
50
200.6781896
51
228.1763934
0
ARC
8
DEFAULT_255_1_234
10
12.0967312
20
166.2389077
40
0.2804109
50
179.5061581
51
199.8694617
0
ARC
8
DEFAULT_255_1_234
10
12.0958064
20
166.246321
40
0.2795204
50
132.4834203
51
181.0242172
0
ARC
8
DEFAULT_255_1_234
10
12.1553646
20
166.1900704
40
0.3612768
50
129.2532479
51
133.4242687
0
ARC
8
DEFAULT_255_1_234
10
12.1700096
20
166.1680965
40
0.3875675
50
101.98776
51
128.8742646
0
ARC
8
DEFAULT_255_1_234
10
12.2098706
20
165.9959741
40
0.5642249
50
89.5906553
51
102.3169264
0
ARC
8
DEFAULT_255_1_234
10
12.2169199
20
166.0278148
40
0.5323783
50
77.2360837
51
90.3248275
0
ARC
8
DEFAULT_255_1_234
10
12.2376278
20
166.12454
40
0.4334697
50
63.837784
51
77.0809408
0
ARC
8
DEFAULT_255_1_234
10
12.2654039
20
166.1762911
40
0.3747796
50
45.9864267
51
64.1607727
0
ARC
8
DEFAULT_255_1_234
10
12.2914921
20
166.2060866
40
0.3352302
50
32.2747395
51
45.6547121
0
ARC
8
DEFAULT_255_1_234
10
12.2981361
20
166.207988
40
0.328603
50
359.6507365
51
32.6130309
0
ARC
8
DEFAULT_255_1_234
10
12.2038457
20
166.208466
40
0.2678863
50
359.469343
51
14.9832209
0
ARC
8
DEFAULT_255_1_234
10
12.2743519
20
166.2273539
40
0.1948938
50
14.9781179
51
48.2004265
0
ARC
8
DEFAULT_255_1_234
10
12.2579163
20
166.2066983
40
0.2212521
50
48.5927837
51
74.1241538
0
ARC
8
DEFAULT_255_1_234
10
12.2245653
20
166.0966248
40
0.3362561
50
73.7888341
51
86.6652678
0
ARC
8
DEFAULT_255_1_234
10
12.2143218
20
165.9758881
40
0.4573953
50
86.2640471
51
90.0526343
0
ARC
8
DEFAULT_255_1_234
10
12.2114931
20
166.0154192
40
0.4178709
50
89.6697524
51
99.2309573
0
ARC
8
DEFAULT_255_1_234
10
12.1872382
20
166.1598964
40
0.2713749
50
99.069534
51
113.7658566
0
ARC
8
DEFAULT_255_1_234
10
12.1598573
20
166.2244677
40
0.2012469
50
114.0401004
51
127.9850673
0
ARC
8
DEFAULT_255_1_234
10
12.1358137
20
166.254073
40
0.1631167
50
127.7287463
51
176.7105154
0
ARC
8
DEFAULT_255_1_234
10
12.2036854
20
166.2439693
40
0.2315392
50
175.1779447
51
180.0581938
0
ARC
8
DEFAULT_255_1_234
10
12.1193701
20
166.2427428
40
0.1472271
50
179.6142195
51
228.1246017
0
ARC
8
DEFAULT_255_1_234
10
12.163537
20
166.2836308
40
0.2072299
50
226.5779593
51
230.8800004
0
ARC
8
DEFAULT_255_1_234
10
12.2106448
20
166.3461636
40
0.2854818
50
231.4635071
51
241.9260842
0
ARC
8
DEFAULT_255_1_234
10
12.3303626
20
166.56648
40
0.53622
50
241.7178533
51
248.3259551
0
ARC
8
DEFAULT_255_1_234
10
12.4688998
20
166.9097064
40
0.9063478
50
248.2007737
51
252.4528373
0
ARC
8
DEFAULT_255_1_234
10
12.5892723
20
167.2818441
40
1.2974635
50
252.3391078
51
254.3469452
0
ARC
8
DEFAULT_255_1_234
10
11.8350426
20
164.5841148
40
1.5037162
50
71.0197183
51
74.4087047
0
ARC
8
DEFAULT_255_1_234
10
12.0045111
20
165.0733111
40
0.9859993
50
66.1847285
51
71.086374
0
ARC
8
DEFAULT_255_1_234
10
12.1601423
20
165.42372
40
0.6025855
50
59.3536294
51
66.2691831
0
ARC
8
DEFAULT_255_1_234
10
12.2490076
20
165.5740609
40
0.4279449
50
49.1020879
51
59.3293958
0
ARC
8
DEFAULT_255_1_234
10
12.3308816
20
165.6673834
40
0.3038015
50
32.7919921
51
49.2505539
0
ARC
8
DEFAULT_255_1_234
10
12.3629906
20
165.6902191
40
0.264448
50
31.1181161
51
32.4005348
0
ARC
8
DEFAULT_255_1_234
10
12.3541443
20
165.6866779
40
0.2738556
50
8.1116974
51
30.7958831
0
ARC
8
DEFAULT_255_1_234
10
12.2731111
20
165.6728753
40
0.3560327
50
359.8389159
51
8.4706516
0
ARC
8
DEFAULT_255_1_234
10
12.3356903
20
165.6680137
40
0.2934776
50
337.4731098
51
0.7537279
0
ARC
8
DEFAULT_255_1_234
10
12.3535598
20
165.6660387
40
0.2762607
50
307.5917067
51
336.4315538
0
ARC
8
DEFAULT_255_1_234
10
12.3075426
20
165.7173102
40
0.3449979
50
307.6551545
51
308.4529766
0
ARC
8
DEFAULT_255_1_234
10
12.2845145
20
165.752825
40
0.3871988
50
284.3734338
51
307.1424381
0
ARC
8
DEFAULT_255_1_234
10
12.2349975
20
165.9349932
40
0.5759636
50
272.4382747
51
284.646547
0
ARC
8
DEFAULT_255_1_234
10
12.2223184
20
166.1149893
40
0.7563528
50
269.9708387
51
272.8178037
0
ARC
8
DEFAULT_255_1_234
10
12.2180223
20
165.9111716
40
0.5525489
50
248.2707594
51
270.4055579
0
ARC
8
DEFAULT_255_1_234
10
12.2125964
20
165.8921192
40
0.5328452
50
246.1383403
51
248.0542782
0
ARC
8
DEFAULT_255_1_234
10
12.1707343
20
165.8041843
40
0.4355005
50
233.1670131
51
246.4950969
0
ARC
8
DEFAULT_255_1_234
10
12.1153248
20
165.7293812
40
0.3424126
50
215.3403242
51
233.0843104
0
ARC
8
DEFAULT_255_1_234
10
12.0880679
20
165.7095549
40
0.3087104
50
179.2419209
51
215.2648451
0
ARC
8
DEFAULT_255_1_234
10
12.1648273
20
165.7109666
40
0.2304457
50
179.335461
51
199.1045811
0
ARC
8
DEFAULT_255_1_234
10
12.131595
20
165.7022766
40
0.1962176
50
199.8828939
51
232.7063202
0
ARC
8
DEFAULT_255_1_234
10
12.1788218
20
165.7616788
40
0.2720938
50
232.3738199
51
255.5136649
0
ARC
8
DEFAULT_255_1_234
10
12.2129085
20
165.8860835
40
0.4010747
50
255.2446292
51
267.5320849
0
ARC
8
DEFAULT_255_1_234
10
12.2216708
20
166.0093702
40
0.5246356
50
267.1557994
51
270.0286766
0
ARC
8
DEFAULT_255_1_234
10
12.224448
20
165.964995
40
0.4802668
50
269.7000017
51
278.1660162
0
ARC
8
DEFAULT_255_1_234
10
12.2500485
20
165.7919515
40
0.3053425
50
278.0231263
51
290.625471
0
ARC
8
DEFAULT_255_1_234
10
12.2848172
20
165.6992025
40
0.206291
50
290.6619762
51
307.0370976
0
ARC
8
DEFAULT_255_1_234
10
12.3148562
20
165.6623504
40
0.1587906
50
306.3943566
51
355.3030547
0
ARC
8
DEFAULT_255_1_234
10
12.2636493
20
165.6700113
40
0.2104809
50
354.3660432
51
0.0698737
0
ARC
8
DEFAULT_255_1_234
10
12.2778838
20
165.6722617
40
0.1962563
50
359.417946
51
16.1971788
0
ARC
8
DEFAULT_255_1_234
10
12.3234149
20
165.6847418
40
0.149053
50
16.4723299
51
52.6262157
0
ARC
8
DEFAULT_255_1_234
10
12.2413202
20
165.5763433
40
0.2850296
50
52.7386432
51
62.4979148
0
ARC
8
DEFAULT_255_1_234
10
12.1028279
20
165.3157283
40
0.5801521
50
62.2515216
51
68.1220564
0
ARC
8
DEFAULT_255_1_234
10
11.930819
20
164.8929872
40
1.0365451
50
68.0062803
51
71.8053402
0
ARC
8
DEFAULT_255_1_234
10
11.7512562
20
164.3544758
40
1.6042013
50
71.7183119
51
73.9258742
0
LINE
8
DEFAULT_255_1_234
10
13.1126532
20
165.9321026
11
13.1126532
21
165.8108234
0
LINE
8
DEFAULT_255_1_234
10
13.1126532
20
165.8108234
11
12.7207043
21
165.8108234
0
LINE
8
DEFAULT_255_1_234
10
12.7207043
20
165.8108234
11
12.7207043
21
165.9321026
0
LINE
8
DEFAULT_255_1_234
10
12.7207043
20
165.9321026
11
13.1126532
21
165.9321026
0
LINE
8
DEFAULT_255_1_234
10
14.0563824
20
166.2059849
11
13.9013699
21
166.2059849
0
LINE
8
DEFAULT_255_1_234
10
13.209034
20
165.7136394
11
13.3640466
21
165.7136394
0
ARC
8
DEFAULT_255_1_234
10
13.9672512
20
167.1006768
40
1.252368
50
248.9199003
51
254.1439814
0
ARC
8
DEFAULT_255_1_234
10
13.7992006
20
166.6680234
40
0.788226
50
241.633709
51
249.0064503
0
ARC
8
DEFAULT_255_1_234
10
13.6463401
20
166.3879317
40
0.4691427
50
230.498225
51
241.8087113
0
ARC
8
DEFAULT_255_1_234
10
13.5678975
20
166.2879906
40
0.3421437
50
227.4064532
51
229.9881192
0
ARC
8
DEFAULT_255_1_234
10
13.5191496
20
166.2404088
40
0.2741476
50
200.6781896
51
228.1763934
0
ARC
8
DEFAULT_255_1_234
10
13.5263806
20
166.2389077
40
0.2804109
50
179.5061581
51
199.8694617
0
ARC
8
DEFAULT_255_1_234
10
13.5254558
20
166.246321
40
0.2795204
50
132.4834203
51
181.0242172
0
ARC
8
DEFAULT_255_1_234
10
13.585014
20
166.1900704
40
0.3612768
50
129.2532479
51
133.4242687
0
ARC
8
DEFAULT_255_1_234
10
13.599659
20
166.1680965
40
0.3875675
50
101.98776
51
128.8742646
0
ARC
8
DEFAULT_255_1_234
10
13.6395201
20
165.9959741
40
0.5642249
50
89.5906553
51
102.3169264
0
ARC
8
DEFAULT_255_1_234
10
13.6465693
20
166.0278148
40
0.5323783
50
77.2360837
51
90.3248275
0
ARC
8
DEFAULT_255_1_234
10
13.6672772
20
166.12454
40
0.4334697
50
63.837784
51
77.0809408
0
ARC
8
DEFAULT_255_1_234
10
13.6950534
20
166.1762911
40
0.3747796
50
45.9864267
51
64.1607727
0
ARC
8
DEFAULT_255_1_234
10
13.7211415
20
166.2060866
40
0.3352302
50
32.2747395
51
45.6547121
0
ARC
8
DEFAULT_255_1_234
10
13.7277856
20
166.207988
40
0.328603
50
359.6507365
51
32.6130309
0
ARC
8
DEFAULT_255_1_234
10
13.6334951
20
166.208466
40
0.2678863
50
359.469343
51
14.9832209
0
ARC
8
DEFAULT_255_1_234
10
13.7040013
20
166.2273539
40
0.1948938
50
14.9781179
51
48.2004265
0
ARC
8
DEFAULT_255_1_234
10
13.6875657
20
166.2066983
40
0.2212521
50
48.5927837
51
74.1241538
0
ARC
8
DEFAULT_255_1_234
10
13.6542147
20
166.0966248
40
0.3362561
50
73.7888341
51
86.6652678
0
ARC
8
DEFAULT_255_1_234
10
13.6439713
20
165.9758881
40
0.4573953
50
86.2640471
51
90.0526343
0
ARC
8
DEFAULT_255_1_234
10
13.6411425
20
166.0154192
40
0.4178709
50
89.6697524
51
99.2309573
0
ARC
8
DEFAULT_255_1_234
10
13.6168876
20
166.1598964
40
0.2713749
50
99.069534
51
113.7658566
0
ARC
8
DEFAULT_255_1_234
10
13.5895067
20
166.2244677
40
0.2012469
50
114.0401004
51
127.9850673
0
ARC
8
DEFAULT_255_1_234
10
13.5654631
20
166.254073
40
0.1631167
50
127.7287463
51
176.7105154
0
ARC
8
DEFAULT_255_1_234
10
13.6333348
20
166.2439693
40
0.2315392
50
175.1779447
51
180.0581938
0
ARC
8
DEFAULT_255_1_234
10
13.5490195
20
166.2427428
40
0.1472271
50
179.6142195
51
228.1246017
0
ARC
8
DEFAULT_255_1_234
10
13.5931864
20
166.2836308
40
0.2072299
50
226.5779593
51
230.8800004
0
ARC
8
DEFAULT_255_1_234
10
13.6402943
20
166.3461636
40
0.2854818
50
231.4635071
51
241.9260842
0
ARC
8
DEFAULT_255_1_234
10
13.7600121
20
166.56648
40
0.53622
50
241.7178533
51
248.3259551
0
ARC
8
DEFAULT_255_1_234
10
13.8985492
20
166.9097064
40
0.9063478
50
248.2007737
51
252.4528373
0
ARC
8
DEFAULT_255_1_234
10
14.0189217
20
167.2818441
40
1.2974635
50
252.3391078
51
254.3469452
0
ARC
8
DEFAULT_255_1_234
10
13.264692
20
164.5841148
40
1.5037162
50
71.0197183
51
74.4087047
0
ARC
8
DEFAULT_255_1_234
10
13.4341605
20
165.0733111
40
0.9859993
50
66.1847285
51
71.086374
0
ARC
8
DEFAULT_255_1_234
10
13.5897918
20
165.42372
40
0.6025855
50
59.3536294
51
66.2691831
0
ARC
8
DEFAULT_255_1_234
10
13.678657
20
165.5740609
40
0.4279449
50
49.1020879
51
59.3293958
0
ARC
8
DEFAULT_255_1_234
10
13.760531
20
165.6673834
40
0.3038015
50
32.7919921
51
49.2505539
0
ARC
8
DEFAULT_255_1_234
10
13.79264
20
165.6902191
40
0.264448
50
31.1181161
51
32.4005348
0
ARC
8
DEFAULT_255_1_234
10
13.7837938
20
165.6866779
40
0.2738556
50
8.1116974
51
30.7958831
0
ARC
8
DEFAULT_255_1_234
10
13.7027606
20
165.6728753
40
0.3560327
50
359.8389159
51
8.4706516
0
ARC
8
DEFAULT_255_1_234
10
13.7653397
20
165.6680137
40
0.2934776
50
337.4731098
51
0.7537279
0
ARC
8
DEFAULT_255_1_234
10
13.7832092
20
165.6660387
40
0.2762607
50
307.5917067
51
336.4315538
0
ARC
8
DEFAULT_255_1_234
10
13.737192
20
165.7173102
40
0.3449979
50
307.6551545
51
308.4529766
0
ARC
8
DEFAULT_255_1_234
10
13.7141639
20
165.752825
40
0.3871988
50
284.3734338
51
307.1424381
0
ARC
8
DEFAULT_255_1_234
10
13.6646469
20
165.9349932
40
0.5759636
50
272.4382747
51
284.646547
0
ARC
8
DEFAULT_255_1_234
10
13.6519678
20
166.1149893
40
0.7563528
50
269.9708387
51
272.8178037
0
ARC
8
DEFAULT_255_1_234
10
13.6476717
20
165.9111716
40
0.5525489
50
248.2707594
51
270.4055579
0
ARC
8
DEFAULT_255_1_234
10
13.6422458
20
165.8921192
40
0.5328452
50
246.1383403
51
248.0542782
0
ARC
8
DEFAULT_255_1_234
10
13.6003837
20
165.8041843
40
0.4355005
50
233.1670131
51
246.4950969
0
ARC
8
DEFAULT_255_1_234
10
13.5449742
20
165.7293812
40
0.3424126
50
215.3403242
51
233.0843104
0
ARC
8
DEFAULT_255_1_234
10
13.5177174
20
165.7095549
40
0.3087104
50
179.2419209
51
215.2648451
0
ARC
8
DEFAULT_255_1_234
10
13.5944767
20
165.7109666
40
0.2304457
50
179.335461
51
199.1045811
0
ARC
8
DEFAULT_255_1_234
10
13.5612444
20
165.7022766
40
0.1962176
50
199.8828939
51
232.7063202
0
ARC
8
DEFAULT_255_1_234
10
13.6084712
20
165.7616788
40
0.2720938
50
232.3738199
51
255.5136649
0
ARC
8
DEFAULT_255_1_234
10
13.6425579
20
165.8860835
40
0.4010747
50
255.2446292
51
267.5320849
0
ARC
8
DEFAULT_255_1_234
10
13.6513202
20
166.0093702
40
0.5246356
50
267.1557994
51
270.0286766
0
ARC
8
DEFAULT_255_1_234
10
13.6540975
20
165.964995
40
0.4802668
50
269.7000017
51
278.1660162
0
ARC
8
DEFAULT_255_1_234
10
13.6796979
20
165.7919515
40
0.3053425
50
278.0231263
51
290.625471
0
ARC
8
DEFAULT_255_1_234
10
13.7144666
20
165.6992025
40
0.206291
50
290.6619762
51
307.0370976
0
ARC
8
DEFAULT_255_1_234
10
13.7445056
20
165.6623504
40
0.1587906
50
306.3943566
51
355.3030547
0
ARC
8
DEFAULT_255_1_234
10
13.6932987
20
165.6700113
40
0.2104809
50
354.3660432
51
0.0698737
0
ARC
8
DEFAULT_255_1_234
10
13.7075332
20
165.6722617
40
0.1962563
50
359.417946
51
16.1971788
0
ARC
8
DEFAULT_255_1_234
10
13.7530643
20
165.6847418
40
0.149053
50
16.4723299
51
52.6262157
0
ARC
8
DEFAULT_255_1_234
10
13.6709697
20
165.5763433
40
0.2850296
50
52.7386432
51
62.4979148
0
ARC
8
DEFAULT_255_1_234
10
13.5324773
20
165.3157283
40
0.5801521
50
62.2515216
51
68.1220564
0
ARC
8
DEFAULT_255_1_234
10
13.3604684
20
164.8929872
40
1.0365451
50
68.0062803
51
71.8053402
0
ARC
8
DEFAULT_255_1_234
10
13.1809056
20
164.3544758
40
1.6042013
50
71.7183119
51
73.9258742
0
LINE
8
DEFAULT_255_1_234
10
14.1953315
20
165.7851218
11
14.1953315
21
165.8124297
0
LINE
8
DEFAULT_255_1_234
10
14.9326451
20
165.8284932
11
14.9326451
21
165.7666488
0
LINE
8
DEFAULT_255_1_234
10
14.9326451
20
165.7666488
11
14.3439187
21
165.7666488
0
LINE
8
DEFAULT_255_1_234
10
14.830642
20
165.5971792
11
14.9214006
21
165.5264999
0
LINE
8
DEFAULT_255_1_234
10
14.3487377
20
165.8887313
11
14.7840579
21
165.8887313
0
LINE
8
DEFAULT_255_1_234
10
14.7840579
20
165.8887313
11
14.7840579
21
165.8999757
0
ARC
8
DEFAULT_255_1_234
10
14.589268
20
165.7962332
40
0.4376191
50
252.3266134
51
270.5810217
0
ARC
8
DEFAULT_255_1_234
10
14.5687769
20
165.7221644
40
0.3608374
50
223.3000567
51
251.8561855
0
ARC
8
DEFAULT_255_1_234
10
14.589913
20
165.7426937
40
0.3902993
50
190.9374509
51
223.3654032
0
ARC
8
DEFAULT_255_1_234
10
14.7624102
20
165.7816885
40
0.5670891
50
179.6531105
51
191.4989439
0
ARC
8
DEFAULT_255_1_234
10
14.7746114
20
165.8156417
40
0.5792888
50
167.4007466
51
180.3176909
0
ARC
8
DEFAULT_255_1_234
10
14.6694176
20
165.8378885
40
0.471777
50
154.1835823
51
167.250763
0
ARC
8
DEFAULT_255_1_234
10
14.6062643
20
165.8711417
40
0.4004528
50
134.3149965
51
154.5315275
0
ARC
8
DEFAULT_255_1_234
10
14.5845138
20
165.8902228
40
0.371612
50
122.8616532
51
133.9707695
0
ARC
8
DEFAULT_255_1_234
10
14.5741713
20
165.9124703
40
0.3473289
50
89.8249009
51
123.4199222
0
ARC
8
DEFAULT_255_1_234
10
14.5791754
20
165.8477967
40
0.4120197
50
74.7876118
51
90.5482747
0
ARC
8
DEFAULT_255_1_234
10
14.6085497
20
165.956303
40
0.2996077
50
39.8178249
51
74.7633718
0
ARC
8
DEFAULT_255_1_234
10
14.5572817
20
165.9163351
40
0.3645855
50
16.8990863
51
39.4829761
0
ARC
8
DEFAULT_255_1_234
10
14.3678113
20
165.8556526
40
0.5635218
50
4.9636328
51
17.2026414
0
ARC
8
DEFAULT_255_1_234
10
14.1260184
20
165.830134
40
0.8066286
50
359.8834553
51
5.2834307
0
ARC
8
DEFAULT_255_1_234
10
14.7297708
20
165.7732803
40
0.3859091
50
180.9846213
51
194.9401313
0
ARC
8
DEFAULT_255_1_234
10
14.6247986
20
165.7445849
40
0.2770883
50
194.80314
51
222.0412631
0
ARC
8
DEFAULT_255_1_234
10
14.5943868
20
165.7144116
40
0.2343055
50
221.5417084
51
268.8614402
0
ARC
8
DEFAULT_255_1_234
10
14.6016862
20
165.7820686
40
0.3021528
50
267.732405
51
270.0097136
0
ARC
8
DEFAULT_255_1_234
10
14.6034672
20
165.8022105
40
0.3222994
50
269.6924892
51
280.4117579
0
ARC
8
DEFAULT_255_1_234
10
14.6211079
20
165.7103193
40
0.2287344
50
280.2255091
51
298.6338936
0
ARC
8
DEFAULT_255_1_234
10
14.6327871
20
165.6859223
40
0.2017294
50
299.0430333
51
300.4643464
0
ARC
8
DEFAULT_255_1_234
10
14.5647877
20
165.7993038
40
0.3339357
50
300.6577328
51
322.0378878
0
ARC
8
DEFAULT_255_1_234
10
14.5297416
20
165.8297021
40
0.3802736
50
321.6750233
51
322.3046845
0
ARC
8
DEFAULT_255_1_234
10
14.6228377
20
165.713037
40
0.3520454
50
276.9728461
51
328.0035423
0
ARC
8
DEFAULT_255_1_234
10
14.595143
20
165.8610841
40
0.5024498
50
269.8361028
51
278.0581756
0
ARC
8
DEFAULT_255_1_234
10
14.5724167
20
165.9355757
40
0.202159
50
89.2018686
51
117.2851756
0
ARC
8
DEFAULT_255_1_234
10
14.5777336
20
165.9313752
40
0.2083484
50
118.0551165
51
137.4540413
0
ARC
8
DEFAULT_255_1_234
10
14.6152076
20
165.8973304
40
0.2589774
50
137.5109581
51
158.8516286
0
ARC
8
DEFAULT_255_1_234
10
14.7289912
20
165.8514074
40
0.38167
50
158.5845963
51
170.1721436
0
ARC
8
DEFAULT_255_1_234
10
14.8459301
20
165.8281823
40
0.5008657
50
169.8376422
51
173.0566086
0
ARC
8
DEFAULT_255_1_234
10
14.3762375
20
165.8792509
40
0.4083467
50
2.9091802
51
12.8847116
0
ARC
8
DEFAULT_255_1_234
10
14.5133052
20
165.9115101
40
0.2675383
50
12.6957781
51
28.6404489
0
ARC
8
DEFAULT_255_1_234
10
14.5674722
20
165.9395458
40
0.2065654
50
29.0169854
51
41.1487595
0
ARC
8
DEFAULT_255_1_234
10
14.5877508
20
165.9572003
40
0.1796786
50
41.1646065
51
85.0013516
0
ARC
8
DEFAULT_255_1_234
10
14.5756604
20
165.8837431
40
0.2539726
50
83.7280015
51
90.0964893
0
LINE
8
DEFAULT_255_1_234
10
15.5245842
20
166.2485531
11
15.5245842
21
166.1104072
0
LINE
8
DEFAULT_255_1_234
10
15.2531114
20
165.9915375
11
15.2531114
21
165.3747
0
LINE
8
DEFAULT_255_1_234
10
15.2531114
20
165.3747
11
15.1045243
21
165.3747
0
LINE
8
DEFAULT_255_1_234
10
15.1045243
20
165.3747
11
15.1045243
21
166.2437341
0
LINE
8
DEFAULT_255_1_234
10
15.1045243
20
166.2437341
11
15.2490956
21
166.2437341
0
LINE
8
DEFAULT_255_1_234
10
15.2490956
20
166.2437341
11
15.2515051
21
166.1433374
0
ARC
8
DEFAULT_255_1_234
10
15.4579247
20
165.7044342
40
0.4114092
50
80.6754243
51
86.8932892
0
ARC
8
DEFAULT_255_1_234
10
15.4518782
20
165.60767
40
0.5083596
50
86.8038578
51
90.0431435
0
ARC
8
DEFAULT_255_1_234
10
15.4481762
20
165.8533866
40
0.2626638
50
89.2759698
51
106.6213787
0
ARC
8
DEFAULT_255_1_234
10
15.4277326
20
165.927683
40
0.1856317
50
107.1346045
51
157.6458115
0
ARC
8
DEFAULT_255_1_234
10
15.4968928
20
165.8893311
40
0.2643398
50
155.6586782
51
157.2539184
0
ARC
8
DEFAULT_255_1_234
10
15.476413
20
166.0062157
40
0.2634121
50
127.8165941
51
148.6302098
0
ARC
8
DEFAULT_255_1_234
10
15.4510599
20
166.0322218
40
0.2273596
50
91.3329982
51
126.7875809
0
ARC
8
DEFAULT_255_1_234
10
15.4586539
20
165.9607195
40
0.299078
50
89.986594
51
92.4688449
0
ARC
8
DEFAULT_255_1_234
10
15.4594934
20
165.9882078
40
0.2715908
50
85.3589899
51
90.1623399
0
ARC
8
DEFAULT_255_1_234
10
15.467945
20
166.0886164
40
0.1708278
50
78.401942
51
85.4594656
0
ARC
8
DEFAULT_255_1_234
10
15.4824334
20
166.1577236
40
0.1002194
50
67.7858312
51
78.5728455
0
ARC
8
DEFAULT_255_1_234
10
15.4932187
20
166.1856887
40
0.0702548
50
63.4835954
51
67.3062642
0
LINE
8
DEFAULT_255_1_234
10
15.8225617
20
166.2437341
11
15.8225617
21
165.3747
0
LINE
8
DEFAULT_255_1_234
10
15.8225617
20
165.3747
11
15.6739745
21
165.3747
0
LINE
8
DEFAULT_255_1_234
10
15.6739745
20
165.3747
11
15.6739745
21
166.2437341
0
LINE
8
DEFAULT_255_1_234
10
15.6739745
20
166.2437341
11
15.8225617
21
166.2437341
0
ARC
8
DEFAULT_255_1_234
10
15.7597894
20
166.4751889
40
0.097867
50
161.415052
51
180.5526306
0
ARC
8
DEFAULT_255_1_234
10
15.7473672
20
166.4786077
40
0.0850062
50
138.1827368
51
160.9307106
0
ARC
8
DEFAULT_255_1_234
10
15.7363618
20
166.4881588
40
0.0704362
50
104.6368899
51
138.0039868
0
ARC
8
DEFAULT_255_1_234
10
15.7470772
20
166.4514963
40
0.1086221
50
92.0600725
51
105.2189128
0
ARC
8
DEFAULT_255_1_234
10
15.7494121
20
166.4172117
40
0.1429728
50
89.9756393
51
92.5012496
0
ARC
8
DEFAULT_255_1_234
10
15.750414
20
166.4397731
40
0.1204151
50
78.0235316
51
90.4478182
0
ARC
8
DEFAULT_255_1_234
10
15.7596232
20
166.4811295
40
0.0780493
50
55.051506
51
78.3369085
0
ARC
8
DEFAULT_255_1_234
10
15.7646506
20
166.4895711
40
0.0682538
50
42.0501187
51
54.4513741
0
ARC
8
DEFAULT_255_1_234
10
15.7511373
20
166.4771798
40
0.0865878
50
1.7497075
51
42.1496013
0
ARC
8
DEFAULT_255_1_234
10
15.7256706
20
166.4742738
40
0.1121515
50
359.9852656
51
2.8364544
0
ARC
8
DEFAULT_255_1_234
10
15.7422699
20
166.4733229
40
0.0955566
50
342.1070653
51
0.552888
0
ARC
8
DEFAULT_255_1_234
10
15.7565396
20
166.4693904
40
0.0807713
50
316.7107116
51
341.6516965
0
ARC
8
DEFAULT_255_1_234
10
15.7632433
20
166.4633823
40
0.0717724
50
285.4397031
51
316.5324284
0
ARC
8
DEFAULT_255_1_234
10
15.752235
20
166.4999554
40
0.1099597
50
272.3547054
51
285.8953117
0
ARC
8
DEFAULT_255_1_234
10
15.7495508
20
166.5365048
40
0.1465932
50
269.9695369
51
272.8160237
0
ARC
8
DEFAULT_255_1_234
10
15.7485689
20
166.5145863
40
0.1246779
50
258.8431134
51
270.4153935
0
ARC
8
DEFAULT_255_1_234
10
15.7395732
20
166.4710414
40
0.0802162
50
238.5431189
51
259.1288175
0
ARC
8
DEFAULT_255_1_234
10
15.7327617
20
166.4586856
40
0.0661247
50
222.5062634
51
237.9906969
0
ARC
8
DEFAULT_255_1_234
10
15.7455204
20
166.4702889
40
0.0833707
50
184.1069131
51
222.460413
0
ARC
8
DEFAULT_255_1_234
10
15.7724445
20
166.4741349
40
0.1105176
50
179.9429482
51
185.0960898
0
LINE
8
DEFAULT_255_1_234
10
16.022552
20
165.7851218
11
16.022552
21
165.8124297
0
LINE
8
DEFAULT_255_1_234
10
16.7598655
20
165.8284932
11
16.7598655
21
165.7666488
0
LINE
8
DEFAULT_255_1_234
10
16.7598655
20
165.7666488
11
16.1711391
21
165.7666488
0
LINE
8
DEFAULT_255_1_234
10
16.6578625
20
165.5971792
11
16.7486211
21
165.5264999
0
LINE
8
DEFAULT_255_1_234
10
16.1759582
20
165.8887313
11
16.6112784
21
165.8887313
0
LINE
8
DEFAULT_255_1_234
10
16.6112784
20
165.8887313
11
16.6112784
21
165.8999757
0
ARC
8
DEFAULT_255_1_234
10
16.4164885
20
165.7962332
40
0.4376191
50
252.3266134
51
270.5810217
0
ARC
8
DEFAULT_255_1_234
10
16.3959974
20
165.7221644
40
0.3608374
50
223.3000567
51
251.8561855
0
ARC
8
DEFAULT_255_1_234
10
16.4171334
20
165.7426937
40
0.3902993
50
190.9374509
51
223.3654032
0
ARC
8
DEFAULT_255_1_234
10
16.5896307
20
165.7816885
40
0.5670891
50
179.6531105
51
191.4989439
0
ARC
8
DEFAULT_255_1_234
10
16.6018319
20
165.8156417
40
0.5792888
50
167.4007466
51
180.3176909
0
ARC
8
DEFAULT_255_1_234
10
16.496638
20
165.8378885
40
0.471777
50
154.1835823
51
167.250763
0
ARC
8
DEFAULT_255_1_234
10
16.4334848
20
165.8711417
40
0.4004528
50
134.3149965
51
154.5315275
0
ARC
8
DEFAULT_255_1_234
10
16.4117343
20
165.8902228
40
0.371612
50
122.8616532
51
133.9707695
0
ARC
8
DEFAULT_255_1_234
10
16.4013917
20
165.9124703
40
0.3473289
50
89.8249009
51
123.4199222
0
ARC
8
DEFAULT_255_1_234
10
16.4063958
20
165.8477967
40
0.4120197
50
74.7876118
51
90.5482747
0
ARC
8
DEFAULT_255_1_234
10
16.4357701
20
165.956303
40
0.2996077
50
39.8178249
51
74.7633718
0
ARC
8
DEFAULT_255_1_234
10
16.3845022
20
165.9163351
40
0.3645855
50
16.8990863
51
39.4829761
0
ARC
8
DEFAULT_255_1_234
10
16.1950318
20
165.8556526
40
0.5635218
50
4.9636328
51
17.2026414
0
ARC
8
DEFAULT_255_1_234
10
15.9532388
20
165.830134
40
0.8066286
50
359.8834553
51
5.2834307
0
ARC
8
DEFAULT_255_1_234
10
16.5569913
20
165.7732803
40
0.3859091
50
180.9846213
51
194.9401313
0
ARC
8
DEFAULT_255_1_234
10
16.452019
20
165.7445849
40
0.2770883
50
194.80314
51
222.0412631
0
ARC
8
DEFAULT_255_1_234
10
16.4216072
20
165.7144116
40
0.2343055
50
221.5417084
51
268.8614402
0
ARC
8
DEFAULT_255_1_234
10
16.4289067
20
165.7820686
40
0.3021528
50
267.732405
51
270.0097136
0
ARC
8
DEFAULT_255_1_234
10
16.4306877
20
165.8022105
40
0.3222994
50
269.6924892
51
280.4117579
0
ARC
8
DEFAULT_255_1_234
10
16.4483284
20
165.7103193
40
0.2287344
50
280.2255091
51
298.6338936
0
ARC
8
DEFAULT_255_1_234
10
16.4600076
20
165.6859223
40
0.2017294
50
299.0430333
51
300.4643464
0
ARC
8
DEFAULT_255_1_234
10
16.3920081
20
165.7993038
40
0.3339357
50
300.6577328
51
322.0378878
0
ARC
8
DEFAULT_255_1_234
10
16.356962
20
165.8297021
40
0.3802736
50
321.6750233
51
322.3046845
0
ARC
8
DEFAULT_255_1_234
10
16.4500582
20
165.713037
40
0.3520454
50
276.9728461
51
328.0035423
0
ARC
8
DEFAULT_255_1_234
10
16.4223635
20
165.8610841
40
0.5024498
50
269.8361028
51
278.0581756
0
ARC
8
DEFAULT_255_1_234
10
16.3996372
20
165.9355757
40
0.202159
50
89.2018686
51
117.2851756
0
ARC
8
DEFAULT_255_1_234
10
16.4049541
20
165.9313752
40
0.2083484
50
118.0551165
51
137.4540413
0
ARC
8
DEFAULT_255_1_234
10
16.4424281
20
165.8973304
40
0.2589774
50
137.5109581
51
158.8516286
0
ARC
8
DEFAULT_255_1_234
10
16.5562116
20
165.8514074
40
0.38167
50
158.5845963
51
170.1721436
0
ARC
8
DEFAULT_255_1_234
10
16.6731506
20
165.8281823
40
0.5008657
50
169.8376422
51
173.0566086
0
ARC
8
DEFAULT_255_1_234
10
16.203458
20
165.8792509
40
0.4083467
50
2.9091802
51
12.8847116
0
ARC
8
DEFAULT_255_1_234
10
16.3405256
20
165.9115101
40
0.2675383
50
12.6957781
51
28.6404489
0
ARC
8
DEFAULT_255_1_234
10
16.3946927
20
165.9395458
40
0.2065654
50
29.0169854
51
41.1487595
0
ARC
8
DEFAULT_255_1_234
10
16.4149712
20
165.9572003
40
0.1796786
50
41.1646065
51
85.0013516
0
ARC
8
DEFAULT_255_1_234
10
16.4028809
20
165.8837431
40
0.2539726
50
83.7280015
51
90.0964893
0
LINE
8
DEFAULT_255_1_234
10
17.5782997
20
165.9883248
11
17.4289093
21
165.9883248
0
LINE
8
DEFAULT_255_1_234
10
16.8956019
20
165.6421569
11
17.0441891
21
165.6421569
0
ARC
8
DEFAULT_255_1_234
10
17.3100912
20
165.6066959
40
0.1276617
50
359.3334982
51
18.5871358
0
ARC
8
DEFAULT_255_1_234
10
17.3309549
20
165.6122133
40
0.1061371
50
19.3540742
51
54.6485071
0
ARC
8
DEFAULT_255_1_234
10
17.2805451
20
165.5426919
40
0.1920087
50
54.3827097
51
65.0622807
0
ARC
8
DEFAULT_255_1_234
10
17.2036847
20
165.38099
40
0.3710447
50
64.8282493
51
71.4200025
0
ARC
8
DEFAULT_255_1_234
10
17.1134723
20
165.1163107
40
0.6506741
50
71.3164301
51
75.8006402
0
ARC
8
DEFAULT_255_1_234
10
17.0293543
20
164.7922561
40
0.9854641
50
75.6809531
51
78.0061883
0
ARC
8
DEFAULT_255_1_234
10
17.4742076
20
166.890177
40
1.1591028
50
254.6901892
51
258.0466452
0
ARC
8
DEFAULT_255_1_234
10
17.3703984
20
166.5142781
40
0.7691345
50
249.9010773
51
254.755261
0
ARC
8
DEFAULT_255_1_234
10
17.2700326
20
166.2416982
40
0.478665
50
243.3097214
51
249.9709442
0
ARC
8
DEFAULT_255_1_234
10
17.2071348
20
166.1162778
40
0.3383568
50
234.4047477
51
243.2862168
0
ARC
8
DEFAULT_255_1_234
10
17.1448871
20
166.0303232
40
0.2322322
50
220.8667099
51
234.5493881
0
ARC
8
DEFAULT_255_1_234
10
17.1106812
20
165.9991817
40
0.1859923
50
214.3062465
51
220.5065136
0
ARC
8
DEFAULT_255_1_234
10
17.1080891
20
165.996088
40
0.1821108
50
186.912965
51
213.9618616
0
ARC
8
DEFAULT_255_1_234
10
17.1612986
20
166.0047009
40
0.2359799
50
179.8808832
51
187.4339886
0
ARC
8
DEFAULT_255_1_234
10
17.145812
20
166.0067088
40
0.2204978
50
132.005434
51
180.3942919
0
ARC
8
DEFAULT_255_1_234
10
17.2114733
20
165.9461083
40
0.3095791
50
129.2319861
51
133.5302299
0
ARC
8
DEFAULT_255_1_234
10
17.2168241
20
165.9366928
40
0.3202615
50
100.4410011
51
128.9081242
0
ARC
8
DEFAULT_255_1_234
10
17.2442125
20
165.8081455
40
0.4516583
50
89.6985377
51
100.9026564
0
ARC
8
DEFAULT_255_1_234
10
17.2499167
20
165.7921166
40
0.4676928
50
77.6965325
51
90.4076836
0
ARC
8
DEFAULT_255_1_234
10
17.2830151
20
165.9348413
40
0.3211988
50
50.7276602
51
78.0399361
0
ARC
8
DEFAULT_255_1_234
10
17.3274609
20
165.9866296
40
0.2529778
50
25.7545084
51
51.0957453
0
ARC
8
DEFAULT_255_1_234
10
17.3275834
20
165.9916206
40
0.250738
50
359.2468627
51
24.7394243
0
ARC
8
DEFAULT_255_1_234
10
17.2991286
20
165.9887664
40
0.1297815
50
359.8050318
51
45.1544908
0
ARC
8
DEFAULT_255_1_234
10
17.2584428
20
165.9539794
40
0.1831883
50
43.8047702
51
49.6271585
0
ARC
8
DEFAULT_255_1_234
10
17.2592329
20
165.9540678
40
0.18261
50
49.7980766
51
82.1218353
0
ARC
8
DEFAULT_255_1_234
10
17.2473301
20
165.8893998
40
0.2483163
50
81.4465357
51
90.1710293
0
ARC
8
DEFAULT_255_1_234
10
17.2448904
20
165.836788
40
0.300932
50
89.6766211
51
99.1264602
0
ARC
8
DEFAULT_255_1_234
10
17.2277366
20
165.9401537
40
0.1961547
50
98.968313
51
113.4570237
0
ARC
8
DEFAULT_255_1_234
10
17.2081451
20
165.9869965
40
0.1453859
50
113.722589
51
127.4763106
0
ARC
8
DEFAULT_255_1_234
10
17.1913097
20
166.0070124
40
0.1192639
50
126.9083309
51
150.3165862
0
ARC
8
DEFAULT_255_1_234
10
17.186543
20
166.0120981
40
0.112623
50
151.3635175
51
180.0701457
0
ARC
8
DEFAULT_255_1_234
10
17.2174214
20
166.009999
40
0.1435149
50
179.2169974
51
179.9954013
0
ARC
8
DEFAULT_255_1_234
10
17.1813272
20
166.0087056
40
0.1074286
50
179.3040112
51
198.4225446
0
ARC
8
DEFAULT_255_1_234
10
17.1621405
20
166.0037127
40
0.0876573
50
199.2895851
51
238.6034594
0
ARC
8
DEFAULT_255_1_234
10
17.2224252
20
166.098345
40
0.1998512
50
237.9846301
51
246.8744712
0
ARC
8
DEFAULT_255_1_234
10
17.3082197
20
166.2946205
40
0.4140547
50
246.6234531
51
251.8168941
0
ARC
8
DEFAULT_255_1_234
10
17.411274
20
166.6040905
40
0.7402308
50
251.713434
51
255.0778414
0
ARC
8
DEFAULT_255_1_234
10
17.5312003
20
167.0507563
40
1.2027155
50
255.0367487
51
257.4705983
0
ARC
8
DEFAULT_255_1_234
10
17.0204013
20
164.7493863
40
1.1546601
50
73.6837552
51
77.5016755
0
ARC
8
DEFAULT_255_1_234
10
17.1292788
20
165.1193581
40
0.7690009
50
68.7044154
51
73.7249639
0
ARC
8
DEFAULT_255_1_234
10
17.2195809
20
165.3520654
40
0.5193873
50
63.590599
51
68.6626804
0
ARC
8
DEFAULT_255_1_234
10
17.2966827
20
165.5058123
40
0.3473927
50
54.7106439
51
63.7013633
0
ARC
8
DEFAULT_255_1_234
10
17.3591282
20
165.59304
40
0.2401192
50
41.0622434
51
54.8487496
0
ARC
8
DEFAULT_255_1_234
10
17.3932668
20
165.6243592
40
0.1938094
50
34.4950568
51
40.7105546
0
ARC
8
DEFAULT_255_1_234
10
17.3979476
20
165.6292078
40
0.1872106
50
9.3763373
51
34.0833615
0
ARC
8
DEFAULT_255_1_234
10
17.3326346
20
165.6166728
40
0.2536988
50
359.7694872
51
9.7663171
0
ARC
8
DEFAULT_255_1_234
10
17.3523847
20
165.6123764
40
0.2339696
50
335.8654732
51
0.8022045
0
ARC
8
DEFAULT_255_1_234
10
17.3598891
20
165.6137197
40
0.2277108
50
307.7357725
51
334.7849066
0
ARC
8
DEFAULT_255_1_234
10
17.3198067
20
165.6587645
40
0.2878951
50
307.0241536
51
308.5578354
0
ARC
8
DEFAULT_255_1_234
10
17.2940398
20
165.6973801
40
0.3342515
50
282.9362969
51
306.5646424
0
ARC
8
DEFAULT_255_1_234
10
17.2578696
20
165.8441108
40
0.4853615
50
271.1026298
51
283.2200835
0
ARC
8
DEFAULT_255_1_234
10
17.251494
20
165.9682418
40
0.6096052
50
269.9919117
51
271.4772449
0
ARC
8
DEFAULT_255_1_234
10
17.2488695
20
165.8604436
40
0.5018135
50
259.0723564
51
270.289833
0
ARC
8
DEFAULT_255_1_234
10
17.2276427
20
165.7487271
40
0.388099
50
245.4963068
51
259.0227342
0
ARC
8
DEFAULT_255_1_234
10
17.1998383
20
165.6905615
40
0.3236422
50
228.9684658
51
245.7044727
0
ARC
8
DEFAULT_255_1_234
10
17.1732827
20
165.6578575
40
0.2815426
50
214.4011705
51
228.6759915
0
ARC
8
DEFAULT_255_1_234
10
17.1443568
20
165.642029
40
0.2487548
50
179.9705531
51
215.1572795
0
ARC
8
DEFAULT_255_1_234
10
17.2144167
20
165.6493806
40
0.1703809
50
182.4299387
51
203.0329699
0
ARC
8
DEFAULT_255_1_234
10
17.1959825
20
165.6437396
40
0.1512226
50
203.798802
51
232.548466
0
ARC
8
DEFAULT_255_1_234
10
17.2236346
20
165.6788826
40
0.1959374
50
232.3782728
51
256.3934612
0
ARC
8
DEFAULT_255_1_234
10
17.2466708
20
165.7678842
40
0.2878639
50
256.104506
51
268.4626716
0
ARC
8
DEFAULT_255_1_234
10
17.2513192
20
165.8475487
40
0.3676329
50
268.0715632
51
270.0138206
0
ARC
8
DEFAULT_255_1_234
10
17.2531717
20
165.8203083
40
0.3403971
50
269.7031147
51
278.8341955
0
ARC
8
DEFAULT_255_1_234
10
17.271381
20
165.7072876
40
0.2259217
50
278.6728789
51
292.8232582
0
ARC
8
DEFAULT_255_1_234
10
17.2914348
20
165.6571449
40
0.171929
50
293.1452328
51
303.6655899
0
ARC
8
DEFAULT_255_1_234
10
17.3179227
20
165.6195204
40
0.1259367
50
303.1248165
51
321.742847
0
ARC
8
DEFAULT_255_1_234
10
17.3365108
20
165.6032156
40
0.1012531
50
322.4748573
51
1.1291126
0
LINE
8
DEFAULT_255_1_234
10
4.9274119
20
163.5116792
11
4.9274119
21
163.3904
0
LINE
8
DEFAULT_255_1_234
10
4.9274119
20
163.3904
11
4.161184
21
163.3904
0
LINE
8
DEFAULT_255_1_234
10
4.161184
20
163.3904
11
4.161184
21
163.4972221
0
LINE
8
DEFAULT_255_1_234
10
4.161184
20
163.4972221
11
4.5659836
21
163.9469995
0
LINE
8
DEFAULT_255_1_234
10
4.2872823
20
164.2152595
11
4.1386952
21
164.2152595
0
LINE
8
DEFAULT_255_1_234
10
4.6535296
20
163.8514218
11
4.3402918
21
163.5116792
0
LINE
8
DEFAULT_255_1_234
10
4.3402918
20
163.5116792
11
4.9274119
21
163.5116792
0
ARC
8
DEFAULT_255_1_234
10
3.216967
20
165.1399527
40
1.8008286
50
318.5132453
51
320.7828378
0
ARC
8
DEFAULT_255_1_234
10
3.7456644
20
164.7096426
40
1.1191493
50
320.7372736
51
323.9737074
0
ARC
8
DEFAULT_255_1_234
10
4.1376501
20
164.4256361
40
0.6350923
50
323.8961724
51
328.6421089
0
ARC
8
DEFAULT_255_1_234
10
4.3423096
20
164.2994031
40
0.3946393
50
328.8299013
51
331.789948
0
ARC
8
DEFAULT_255_1_234
10
4.4420274
20
164.2479509
40
0.2824501
50
331.4255242
51
352.9364833
0
ARC
8
DEFAULT_255_1_234
10
4.4556775
20
164.2448976
40
0.2685315
50
353.2248685
51
0.0169286
0
ARC
8
DEFAULT_255_1_234
10
4.4766652
20
164.247195
40
0.2475536
50
359.4866256
51
15.9339782
0
ARC
8
DEFAULT_255_1_234
10
4.5273637
20
164.2608286
40
0.1950618
50
16.1714718
51
43.5284424
0
ARC
8
DEFAULT_255_1_234
10
4.5350946
20
164.2685573
40
0.184134
50
43.4415429
51
83.1661404
0
ARC
8
DEFAULT_255_1_234
10
4.5216864
20
164.1948771
40
0.258926
50
82.160215
51
90.1505798
0
ARC
8
DEFAULT_255_1_234
10
4.5185291
20
164.1411865
40
0.3126255
50
89.5460705
51
102.5418777
0
ARC
8
DEFAULT_255_1_234
10
4.4942377
20
164.2442665
40
0.2067346
50
102.1739365
51
129.2061916
0
ARC
8
DEFAULT_255_1_234
10
4.4863449
20
164.2567094
40
0.1921118
50
129.7279328
51
135.7542026
0
ARC
8
DEFAULT_255_1_234
10
4.4984977
20
164.2470045
40
0.2075944
50
136.175737
51
166.3674722
0
ARC
8
DEFAULT_255_1_234
10
4.5991896
20
164.2200182
40
0.3118201
50
165.9092917
51
178.8683903
0
ARC
8
DEFAULT_255_1_234
10
4.6856757
20
164.2153179
40
0.3983935
50
178.438168
51
180.0083905
0
ARC
8
DEFAULT_255_1_234
10
4.5455359
20
164.2192231
40
0.4068601
50
163.2878735
51
180.5581814
0
ARC
8
DEFAULT_255_1_234
10
4.4653621
20
164.241284
40
0.3237344
50
133.454115
51
162.9470031
0
ARC
8
DEFAULT_255_1_234
10
4.4832162
20
164.2223
40
0.349795
50
100.7869394
51
133.4384016
0
ARC
8
DEFAULT_255_1_234
10
4.5179934
20
164.0674319
40
0.5084616
50
89.6605301
51
101.3704185
0
ARC
8
DEFAULT_255_1_234
10
4.5246273
20
164.0735496
40
0.502348
50
78.2171172
51
90.4130393
0
ARC
8
DEFAULT_255_1_234
10
4.5601351
20
164.2359637
40
0.3361092
50
55.9268222
51
78.4888551
0
ARC
8
DEFAULT_255_1_234
10
4.5797791
20
164.2698324
40
0.2970617
50
47.9292255
51
55.4054003
0
ARC
8
DEFAULT_255_1_234
10
4.5899352
20
164.2801502
40
0.2825983
50
4.3347696
51
48.0560701
0
ARC
8
DEFAULT_255_1_234
10
4.4803745
20
164.2631601
40
0.393225
50
359.925209
51
5.5967654
0
ARC
8
DEFAULT_255_1_234
10
4.5232637
20
164.2687816
40
0.3503892
50
337.8914096
51
358.9967724
0
ARC
8
DEFAULT_255_1_234
10
4.2519049
20
164.3734706
40
0.6412172
50
326.9135351
51
338.3505194
0
ARC
8
DEFAULT_255_1_234
10
3.8533353
20
164.6289284
40
1.1146189
50
319.6472867
51
327.095818
0
ARC
8
DEFAULT_255_1_234
10
3.4700356
20
164.9451
40
1.6114559
50
317.2586784
51
319.9046139
0
LINE
8
DEFAULT_255_1_234
10
5.7121127
20
164.5598211
11
5.7121127
21
163.783152
0
LINE
8
DEFAULT_255_1_234
10
5.7121127
20
163.783152
11
5.8743538
21
163.783152
0
LINE
8
DEFAULT_255_1_234
10
5.8743538
20
163.783152
11
5.8743538
21
163.6618728
0
LINE
8
DEFAULT_255_1_234
10
5.8743538
20
163.6618728
11
5.7121127
21
163.6618728
0
LINE
8
DEFAULT_255_1_234
10
5.7121127
20
163.6618728
11
5.7121127
21
163.3904
0
LINE
8
DEFAULT_255_1_234
10
5.7121127
20
163.3904
11
5.5627224
21
163.3904
0
LINE
8
DEFAULT_255_1_234
10
5.5627224
20
163.3904
11
5.5627224
21
163.6618728
0
LINE
8
DEFAULT_255_1_234
10
5.5627224
20
163.6618728
11
5.0302181
21
163.6618728
0
LINE
8
DEFAULT_255_1_234
10
5.0302181
20
163.6618728
11
5.0302181
21
163.7494187
0
LINE
8
DEFAULT_255_1_234
10
5.0302181
20
163.7494187
11
5.5538875
21
164.5598211
0
LINE
8
DEFAULT_255_1_234
10
5.5538875
20
164.5598211
11
5.7121127
21
164.5598211
0
LINE
8
DEFAULT_255_1_234
10
5.5450525
20
164.3244912
11
5.1988846
21
163.783152
0
LINE
8
DEFAULT_255_1_234
10
5.1988846
20
163.783152
11
5.5627224
21
163.783152
0
LINE
8
DEFAULT_255_1_234
10
5.5627224
20
163.783152
11
5.5627224
21
164.3566181
0
LINE
8
DEFAULT_255_1_234
10
5.5627224
20
164.3566181
11
5.5450525
21
164.3244912
0
LINE
8
DEFAULT_255_1_234
10
6.101652
20
164.5598211
11
6.434166
21
163.5952093
0
LINE
8
DEFAULT_255_1_234
10
6.434166
20
163.5952093
11
6.7682863
21
164.5598211
0
LINE
8
DEFAULT_255_1_234
10
6.7682863
20
164.5598211
11
6.9369528
21
164.5598211
0
LINE
8
DEFAULT_255_1_234
10
6.9369528
20
164.5598211
11
6.5032389
21
163.3904
0
LINE
8
DEFAULT_255_1_234
10
6.5032389
20
163.3904
11
6.3666994
21
163.3904
0
LINE
8
DEFAULT_255_1_234
10
6.3666994
20
163.3904
11
5.9337887
21
164.5598211
0
LINE
8
DEFAULT_255_1_234
10
5.9337887
20
164.5598211
11
6.101652
21
164.5598211
0
LINE
8
DEFAULT_255_1_234
10
4.949623
20
5.0114663
11
5.1046355
21
5.0114663
0
LINE
8
DEFAULT_255_1_234
10
4.2042777
20
5.1704947
11
4.2042777
21
5.2829391
0
LINE
8
DEFAULT_255_1_234
10
5.1046355
20
5.4339357
11
4.949623
21
5.4339357
0
LINE
8
DEFAULT_255_1_234
10
4.3592902
20
5.2789232
11
4.3592902
21
5.1656757
0
ARC
8
DEFAULT_255_1_234
10
4.5565742
20
5.0711846
40
0.5513052
50
340.1774281
51
353.7814284
0
ARC
8
DEFAULT_255_1_234
10
4.7137095
20
5.0126582
40
0.3836379
50
311.4558989
51
340.4421614
0
ARC
8
DEFAULT_255_1_234
10
4.7103763
20
5.0237528
40
0.3941894
50
282.4333181
51
310.7513653
0
ARC
8
DEFAULT_255_1_234
10
4.6664502
20
5.2052679
40
0.5809175
50
269.9358511
51
282.809604
0
ARC
8
DEFAULT_255_1_234
10
4.6612568
20
5.3510212
40
0.7266847
50
270.0021091
51
270.3581957
0
ARC
8
DEFAULT_255_1_234
10
4.6559985
20
5.0909585
40
0.4666519
50
250.7884749
51
270.6489167
0
ARC
8
DEFAULT_255_1_234
10
4.639182
20
5.0272319
40
0.4009729
50
219.3627325
51
250.0611886
0
ARC
8
DEFAULT_255_1_234
10
4.7221031
20
5.0977042
40
0.5097822
50
193.5479632
51
219.5756669
0
ARC
8
DEFAULT_255_1_234
10
4.9592652
20
5.1592919
40
0.7547848
50
181.1218675
51
193.87563
0
ARC
8
DEFAULT_255_1_234
10
5.1662833
20
5.170358
40
0.9620055
50
179.9918545
51
181.5394234
0
ARC
8
DEFAULT_255_1_234
10
4.9811935
20
5.2866788
40
0.7769248
50
169.5837241
51
180.2757934
0
ARC
8
DEFAULT_255_1_234
10
4.7974873
20
5.3206229
40
0.590109
50
155.0365899
51
169.6003176
0
ARC
8
DEFAULT_255_1_234
10
4.6839337
20
5.3753677
40
0.4640625
50
136.783148
51
155.2472683
0
ARC
8
DEFAULT_255_1_234
10
4.6449814
20
5.4084562
40
0.4130255
50
121.7633186
51
136.428115
0
ARC
8
DEFAULT_255_1_234
10
4.6584776
20
5.3835227
40
0.4413323
50
95.6459699
51
121.5490577
0
ARC
8
DEFAULT_255_1_234
10
4.6742058
20
5.2726949
40
0.55319
50
89.924208
51
96.1377933
0
ARC
8
DEFAULT_255_1_234
10
4.6792491
20
5.2845542
40
0.5413475
50
76.6779277
51
90.4563316
0
ARC
8
DEFAULT_255_1_234
10
4.7186114
20
5.4436114
40
0.3775041
50
47.485847
51
76.9287264
0
ARC
8
DEFAULT_255_1_234
10
4.7039087
20
5.4336159
40
0.3948286
50
16.5424086
51
46.8933463
0
ARC
8
DEFAULT_255_1_234
10
4.5431244
20
5.3807861
40
0.564021
50
5.4072051
51
17.0365086
0
ARC
8
DEFAULT_255_1_234
10
4.3992261
20
5.3576679
40
0.5556559
50
7.8891745
51
15.9239216
0
ARC
8
DEFAULT_255_1_234
10
4.5979274
20
5.4153631
40
0.3487515
50
15.7653144
51
27.9410532
0
ARC
8
DEFAULT_255_1_234
10
4.7083492
20
5.474479
40
0.2235026
50
27.8166557
51
46.4008329
0
ARC
8
DEFAULT_255_1_234
10
4.7133135
20
5.4739082
40
0.2205286
50
47.4371857
51
75.0698205
0
ARC
8
DEFAULT_255_1_234
10
4.6824529
20
5.3664765
40
0.3322915
50
74.7008593
51
87.8124495
0
ARC
8
DEFAULT_255_1_234
10
4.6751217
20
5.2608844
40
0.4380987
50
87.3814673
51
90.0240855
0
ARC
8
DEFAULT_255_1_234
10
4.671276
20
5.3786291
40
0.3203749
50
89.3451631
51
108.5745436
0
ARC
8
DEFAULT_255_1_234
10
4.6575865
20
5.4299908
40
0.2673494
50
109.2998449
51
143.3037509
0
ARC
8
DEFAULT_255_1_234
10
4.7337938
20
5.3713881
40
0.3634757
50
143.0753173
51
163.1916937
0
ARC
8
DEFAULT_255_1_234
10
4.9289666
20
5.3097967
40
0.5681262
50
162.9373603
51
174.6208611
0
ARC
8
DEFAULT_255_1_234
10
5.1915708
20
5.281001
40
0.8322832
50
174.3419979
51
180.1430411
0
ARC
8
DEFAULT_255_1_234
10
5.0984864
20
5.1615698
40
0.7392076
50
179.6817502
51
189.150529
0
ARC
8
DEFAULT_255_1_234
10
4.8484112
20
5.119919
40
0.4856932
50
188.9910863
51
203.5773039
0
ARC
8
DEFAULT_255_1_234
10
4.7404445
20
5.0751211
40
0.3688271
50
203.9077269
51
215.1312379
0
ARC
8
DEFAULT_255_1_234
10
4.6481539
20
5.0035941
40
0.2522457
50
213.9071664
51
263.8849284
0
ARC
8
DEFAULT_255_1_234
10
4.6606868
20
5.0820518
40
0.3316174
50
263.1758525
51
270.1031083
0
ARC
8
DEFAULT_255_1_234
10
4.663896
20
5.2067365
40
0.4563091
50
269.6719807
51
279.0609165
0
ARC
8
DEFAULT_255_1_234
10
4.6905728
20
5.0454907
40
0.2928759
50
278.8750225
51
293.6346586
0
ARC
8
DEFAULT_255_1_234
10
4.7225936
20
4.97029
40
0.2111472
50
293.8553404
51
310.0518804
0
ARC
8
DEFAULT_255_1_234
10
4.723079
20
4.9640516
40
0.2060917
50
311.0646779
51
332.0108348
0
ARC
8
DEFAULT_255_1_234
10
4.6038517
20
5.0297978
40
0.3422352
50
331.6588543
51
343.2878891
0
ARC
8
DEFAULT_255_1_234
10
4.3976032
20
5.0931798
40
0.5580003
50
343.1446044
51
351.010618
0
ARC
8
DEFAULT_255_1_234
10
4.2434678
20
5.1212871
40
0.7146438
50
350.7157277
51
351.1602153
0
LINE
8
DEFAULT_255_1_234
10
5.8050031
20
4.9793394
11
5.8050031
21
5.8098211
0
LINE
8
DEFAULT_255_1_234
10
5.8050031
20
5.8098211
11
5.9600157
21
5.8098211
0
LINE
8
DEFAULT_255_1_234
10
5.9600157
20
5.8098211
11
5.9600157
21
4.9817489
0
LINE
8
DEFAULT_255_1_234
10
5.2218989
20
4.9632759
11
5.3761083
21
4.9632759
0
ARC
8
DEFAULT_255_1_234
10
5.5109342
20
4.9779089
40
0.4490979
50
346.3129415
51
0.4899112
0
ARC
8
DEFAULT_255_1_234
10
5.6477691
20
4.9428729
40
0.3078632
50
313.3793358
51
346.6225026
0
ARC
8
DEFAULT_255_1_234
10
5.6276878
20
4.9681522
40
0.3400404
50
281.1587967
51
312.9131091
0
ARC
8
DEFAULT_255_1_234
10
5.5936342
20
5.1176185
40
0.4932916
50
269.6424364
51
281.6795951
0
ARC
8
DEFAULT_255_1_234
10
5.5867706
20
5.1725382
40
0.5482147
50
258.9990078
51
270.3955952
0
ARC
8
DEFAULT_255_1_234
10
5.549301
20
4.9876746
40
0.359601
50
239.6256123
51
259.238693
0
ARC
8
DEFAULT_255_1_234
10
5.5204093
20
4.9331669
40
0.2979777
50
227.4959765
51
239.1188186
0
ARC
8
DEFAULT_255_1_234
10
5.5166659
20
4.9270689
40
0.2909561
50
191.339631
51
227.2280909
0
ARC
8
DEFAULT_255_1_234
10
5.65713
20
4.9603031
40
0.4352412
50
179.6086538
51
191.9934722
0
ARC
8
DEFAULT_255_1_234
10
5.6705322
20
4.9610427
40
0.2944324
50
179.5654258
51
192.070398
0
ARC
8
DEFAULT_255_1_234
10
5.5733812
20
4.9392079
40
0.194866
50
191.7656467
51
215.6461951
0
ARC
8
DEFAULT_255_1_234
10
5.5555313
20
4.9284546
40
0.1741017
50
216.1938368
51
224.3931108
0
ARC
8
DEFAULT_255_1_234
10
5.5562199
20
4.9311473
40
0.1764834
50
224.8613677
51
254.362656
0
ARC
8
DEFAULT_255_1_234
10
5.5832913
20
5.020601
40
0.2699302
50
253.9471729
51
267.3949949
0
ARC
8
DEFAULT_255_1_234
10
5.590342
20
5.1130067
40
0.362572
50
266.9456419
51
270.0337791
0
ARC
8
DEFAULT_255_1_234
10
5.59288
20
4.996823
40
0.2463991
50
269.4595111
51
286.1822844
0
ARC
8
DEFAULT_255_1_234
10
5.607009
20
4.9450047
40
0.1926982
50
286.4416479
51
315.8044008
0
ARC
8
DEFAULT_255_1_234
10
5.6015897
20
4.9492207
40
0.1995241
50
316.0212565
51
345.4794351
0
ARC
8
DEFAULT_255_1_234
10
5.5045404
20
4.9765575
40
0.3003349
50
345.0729543
51
358.325089
0
ARC
8
DEFAULT_255_1_234
10
5.4169375
20
4.9821568
40
0.3880759
50
357.8767804
51
359.5840246
0
LINE
8
DEFAULT_255_1_234
10
6.950329
20
4.7616792
11
6.950329
21
4.6404
0
LINE
8
DEFAULT_255_1_234
10
6.950329
20
4.6404
11
6.1841012
21
4.6404
0
LINE
8
DEFAULT_255_1_234
10
6.1841012
20
4.6404
11
6.1841012
21
4.7472221
0
LINE
8
DEFAULT_255_1_234
10
6.1841012
20
4.7472221
11
6.5889008
21
5.1969995
0
LINE
8
DEFAULT_255_1_234
10
6.3101995
20
5.4652595
11
6.1616123
21
5.4652595
0
LINE
8
DEFAULT_255_1_234
10
6.6764467
20
5.1014218
11
6.3632089
21
4.7616792
0
LINE
8
DEFAULT_255_1_234
10
6.3632089
20
4.7616792
11
6.950329
21
4.7616792
0
ARC
8
DEFAULT_255_1_234
10
5.2398841
20
6.3899527
40
1.8008286
50
318.5132453
51
320.7828378
0
ARC
8
DEFAULT_255_1_234
10
5.7685816
20
5.9596426
40
1.1191493
50
320.7372736
51
323.9737074
0
ARC
8
DEFAULT_255_1_234
10
6.1605672
20
5.6756361
40
0.6350923
50
323.8961724
51
328.6421089
0
ARC
8
DEFAULT_255_1_234
10
6.3652267
20
5.5494031
40
0.3946393
50
328.8299013
51
331.789948
0
ARC
8
DEFAULT_255_1_234
10
6.4649446
20
5.4979509
40
0.2824501
50
331.4255242
51
352.9364833
0
ARC
8
DEFAULT_255_1_234
10
6.4785947
20
5.4948976
40
0.2685315
50
353.2248685
51
0.0169286
0
ARC
8
DEFAULT_255_1_234
10
6.4995823
20
5.497195
40
0.2475536
50
359.4866256
51
15.9339782
0
ARC
8
DEFAULT_255_1_234
10
6.5502809
20
5.5108286
40
0.1950618
50
16.1714718
51
43.5284424
0
ARC
8
DEFAULT_255_1_234
10
6.5580117
20
5.5185573
40
0.184134
50
43.4415429
51
83.1661404
0
ARC
8
DEFAULT_255_1_234
10
6.5446035
20
5.4448771
40
0.258926
50
82.160215
51
90.1505798
0
ARC
8
DEFAULT_255_1_234
10
6.5414463
20
5.3911865
40
0.3126255
50
89.5460705
51
102.5418777
0
ARC
8
DEFAULT_255_1_234
10
6.5171549
20
5.4942665
40
0.2067346
50
102.1739365
51
129.2061916
0
ARC
8
DEFAULT_255_1_234
10
6.5092621
20
5.5067094
40
0.1921118
50
129.7279328
51
135.7542026
0
ARC
8
DEFAULT_255_1_234
10
6.5214148
20
5.4970045
40
0.2075944
50
136.175737
51
166.3674722
0
ARC
8
DEFAULT_255_1_234
10
6.6221067
20
5.4700182
40
0.3118201
50
165.9092917
51
178.8683903
0
ARC
8
DEFAULT_255_1_234
10
6.7085929
20
5.4653179
40
0.3983935
50
178.438168
51
180.0083905
0
ARC
8
DEFAULT_255_1_234
10
6.5684531
20
5.4692231
40
0.4068601
50
163.2878735
51
180.5581814
0
ARC
8
DEFAULT_255_1_234
10
6.4882792
20
5.491284
40
0.3237344
50
133.454115
51
162.9470031
0
ARC
8
DEFAULT_255_1_234
10
6.5061334
20
5.4723
40
0.349795
50
100.7869394
51
133.4384016
0
ARC
8
DEFAULT_255_1_234
10
6.5409105
20
5.3174319
40
0.5084616
50
89.6605301
51
101.3704185
0
ARC
8
DEFAULT_255_1_234
10
6.5475444
20
5.3235496
40
0.502348
50
78.2171172
51
90.4130393
0
ARC
8
DEFAULT_255_1_234
10
6.5830522
20
5.4859637
40
0.3361092
50
55.9268222
51
78.4888551
0
ARC
8
DEFAULT_255_1_234
10
6.6026962
20
5.5198324
40
0.2970617
50
47.9292255
51
55.4054003
0
ARC
8
DEFAULT_255_1_234
10
6.6128523
20
5.5301502
40
0.2825983
50
4.3347696
51
48.0560701
0
ARC
8
DEFAULT_255_1_234
10
6.5032917
20
5.5131601
40
0.393225
50
359.925209
51
5.5967654
0
ARC
8
DEFAULT_255_1_234
10
6.5461808
20
5.5187816
40
0.3503892
50
337.8914096
51
358.9967724
0
ARC
8
DEFAULT_255_1_234
10
6.2748221
20
5.6234706
40
0.6412172
50
326.9135351
51
338.3505194
0
ARC
8
DEFAULT_255_1_234
10
5.8762524
20
5.8789284
40
1.1146189
50
319.6472867
51
327.095818
0
ARC
8
DEFAULT_255_1_234
10
5.4929527
20
6.1951
40
1.6114559
50
317.2586784
51
319.9046139
0
LINE
8
DEFAULT_255_1_234
10
7.4322333
20
5.1978026
11
7.4322333
21
5.0765234
0
LINE
8
DEFAULT_255_1_234
10
7.4322333
20
5.0765234
11
7.0402845
21
5.0765234
0
LINE
8
DEFAULT_255_1_234
10
7.0402845
20
5.0765234
11
7.0402845
21
5.1978026
0
LINE
8
DEFAULT_255_1_234
10
7.0402845
20
5.1978026
11
7.4322333
21
5.1978026
0
LINE
8
DEFAULT_255_1_234
10
4.921523
20
12.9489663
11
5.0765355
21
12.9489663
0
LINE
8
DEFAULT_255_1_234
10
4.1761777
20
13.1079947
11
4.1761777
21
13.2204391
0
LINE
8
DEFAULT_255_1_234
10
5.0765355
20
13.3714357
11
4.921523
21
13.3714357
0
LINE
8
DEFAULT_255_1_234
10
4.3311902
20
13.2164232
11
4.3311902
21
13.1031757
0
ARC
8
DEFAULT_255_1_234
10
4.5284742
20
13.0086846
40
0.5513052
50
340.1774281
51
353.7814284
0
ARC
8
DEFAULT_255_1_234
10
4.6856095
20
12.9501582
40
0.3836379
50
311.4558989
51
340.4421614
0
ARC
8
DEFAULT_255_1_234
10
4.6822763
20
12.9612528
40
0.3941894
50
282.4333181
51
310.7513653
0
ARC
8
DEFAULT_255_1_234
10
4.6383502
20
13.1427679
40
0.5809175
50
269.9358511
51
282.809604
0
ARC
8
DEFAULT_255_1_234
10
4.6331568
20
13.2885212
40
0.7266847
50
270.0021091
51
270.3581957
0
ARC
8
DEFAULT_255_1_234
10
4.6278985
20
13.0284585
40
0.4666519
50
250.7884749
51
270.6489167
0
ARC
8
DEFAULT_255_1_234
10
4.611082
20
12.9647319
40
0.4009729
50
219.3627325
51
250.0611886
0
ARC
8
DEFAULT_255_1_234
10
4.6940031
20
13.0352042
40
0.5097822
50
193.5479632
51
219.5756669
0
ARC
8
DEFAULT_255_1_234
10
4.9311652
20
13.0967919
40
0.7547848
50
181.1218675
51
193.87563
0
ARC
8
DEFAULT_255_1_234
10
5.1381833
20
13.107858
40
0.9620055
50
179.9918545
51
181.5394234
0
ARC
8
DEFAULT_255_1_234
10
4.9530935
20
13.2241788
40
0.7769248
50
169.5837241
51
180.2757934
0
ARC
8
DEFAULT_255_1_234
10
4.7693873
20
13.2581229
40
0.590109
50
155.0365899
51
169.6003176
0
ARC
8
DEFAULT_255_1_234
10
4.6558337
20
13.3128677
40
0.4640625
50
136.783148
51
155.2472683
0
ARC
8
DEFAULT_255_1_234
10
4.6168814
20
13.3459562
40
0.4130255
50
121.7633186
51
136.428115
0
ARC
8
DEFAULT_255_1_234
10
4.6303776
20
13.3210227
40
0.4413323
50
95.6459699
51
121.5490577
0
ARC
8
DEFAULT_255_1_234
10
4.6461058
20
13.2101949
40
0.55319
50
89.924208
51
96.1377933
0
ARC
8
DEFAULT_255_1_234
10
4.6511491
20
13.2220542
40
0.5413475
50
76.6779277
51
90.4563316
0
ARC
8
DEFAULT_255_1_234
10
4.6905114
20
13.3811114
40
0.3775041
50
47.485847
51
76.9287264
0
ARC
8
DEFAULT_255_1_234
10
4.6758087
20
13.3711159
40
0.3948286
50
16.5424086
51
46.8933463
0
ARC
8
DEFAULT_255_1_234
10
4.5150244
20
13.3182861
40
0.564021
50
5.4072051
51
17.0365086
0
ARC
8
DEFAULT_255_1_234
10
4.3711261
20
13.2951679
40
0.5556559
50
7.8891745
51
15.9239216
0
ARC
8
DEFAULT_255_1_234
10
4.5698274
20
13.3528631
40
0.3487515
50
15.7653144
51
27.9410532
0
ARC
8
DEFAULT_255_1_234
10
4.6802492
20
13.411979
40
0.2235026
50
27.8166557
51
46.4008329
0
ARC
8
DEFAULT_255_1_234
10
4.6852135
20
13.4114082
40
0.2205286
50
47.4371857
51
75.0698205
0
ARC
8
DEFAULT_255_1_234
10
4.6543529
20
13.3039765
40
0.3322915
50
74.7008593
51
87.8124495
0
ARC
8
DEFAULT_255_1_234
10
4.6470217
20
13.1983844
40
0.4380987
50
87.3814673
51
90.0240855
0
ARC
8
DEFAULT_255_1_234
10
4.643176
20
13.3161291
40
0.3203749
50
89.3451631
51
108.5745436
0
ARC
8
DEFAULT_255_1_234
10
4.6294865
20
13.3674908
40
0.2673494
50
109.2998449
51
143.3037509
0
ARC
8
DEFAULT_255_1_234
10
4.7056938
20
13.3088881
40
0.3634757
50
143.0753173
51
163.1916937
0
ARC
8
DEFAULT_255_1_234
10
4.9008666
20
13.2472967
40
0.5681262
50
162.9373603
51
174.6208611
0
ARC
8
DEFAULT_255_1_234
10
5.1634708
20
13.218501
40
0.8322832
50
174.3419979
51
180.1430411
0
ARC
8
DEFAULT_255_1_234
10
5.0703864
20
13.0990698
40
0.7392076
50
179.6817502
51
189.150529
0
ARC
8
DEFAULT_255_1_234
10
4.8203112
20
13.057419
40
0.4856932
50
188.9910863
51
203.5773039
0
ARC
8
DEFAULT_255_1_234
10
4.7123445
20
13.0126211
40
0.3688271
50
203.9077269
51
215.1312379
0
ARC
8
DEFAULT_255_1_234
10
4.6200539
20
12.9410941
40
0.2522457
50
213.9071664
51
263.8849284
0
ARC
8
DEFAULT_255_1_234
10
4.6325868
20
13.0195518
40
0.3316174
50
263.1758525
51
270.1031083
0
ARC
8
DEFAULT_255_1_234
10
4.635796
20
13.1442365
40
0.4563091
50
269.6719807
51
279.0609165
0
ARC
8
DEFAULT_255_1_234
10
4.6624728
20
12.9829907
40
0.2928759
50
278.8750225
51
293.6346586
0
ARC
8
DEFAULT_255_1_234
10
4.6944936
20
12.90779
40
0.2111472
50
293.8553404
51
310.0518804
0
ARC
8
DEFAULT_255_1_234
10
4.694979
20
12.9015516
40
0.2060917
50
311.0646779
51
332.0108348
0
ARC
8
DEFAULT_255_1_234
10
4.5757517
20
12.9672978
40
0.3422352
50
331.6588543
51
343.2878891
0
ARC
8
DEFAULT_255_1_234
10
4.3695032
20
13.0306798
40
0.5580003
50
343.1446044
51
351.010618
0
ARC
8
DEFAULT_255_1_234
10
4.2153678
20
13.0587871
40
0.7146438
50
350.7157277
51
351.1602153
0
LINE
8
DEFAULT_255_1_234
10
5.7769031
20
12.9168394
11
5.7769031
21
13.7473211
0
LINE
8
DEFAULT_255_1_234
10
5.7769031
20
13.7473211
11
5.9319157
21
13.7473211
0
LINE
8
DEFAULT_255_1_234
10
5.9319157
20
13.7473211
11
5.9319157
21
12.9192489
0
LINE
8
DEFAULT_255_1_234
10
5.1937989
20
12.9007759
11
5.3480083
21
12.9007759
0
ARC
8
DEFAULT_255_1_234
10
5.4828342
20
12.9154089
40
0.4490979
50
346.3129415
51
0.4899112
0
ARC
8
DEFAULT_255_1_234
10
5.6196691
20
12.8803729
40
0.3078632
50
313.3793358
51
346.6225026
0
ARC
8
DEFAULT_255_1_234
10
5.5995878
20
12.9056522
40
0.3400404
50
281.1587967
51
312.9131091
0
ARC
8
DEFAULT_255_1_234
10
5.5655342
20
13.0551185
40
0.4932916
50
269.6424364
51
281.6795951
0
ARC
8
DEFAULT_255_1_234
10
5.5586706
20
13.1100382
40
0.5482147
50
258.9990078
51
270.3955952
0
ARC
8
DEFAULT_255_1_234
10
5.521201
20
12.9251746
40
0.359601
50
239.6256123
51
259.238693
0
ARC
8
DEFAULT_255_1_234
10
5.4923093
20
12.8706669
40
0.2979777
50
227.4959765
51
239.1188186
0
ARC
8
DEFAULT_255_1_234
10
5.4885659
20
12.8645689
40
0.2909561
50
191.339631
51
227.2280909
0
ARC
8
DEFAULT_255_1_234
10
5.62903
20
12.8978031
40
0.4352412
50
179.6086538
51
191.9934722
0
ARC
8
DEFAULT_255_1_234
10
5.6424322
20
12.8985427
40
0.2944324
50
179.5654258
51
192.070398
0
ARC
8
DEFAULT_255_1_234
10
5.5452812
20
12.8767079
40
0.194866
50
191.7656467
51
215.6461951
0
ARC
8
DEFAULT_255_1_234
10
5.5274313
20
12.8659546
40
0.1741017
50
216.1938368
51
224.3931108
0
ARC
8
DEFAULT_255_1_234
10
5.5281199
20
12.8686473
40
0.1764834
50
224.8613677
51
254.362656
0
ARC
8
DEFAULT_255_1_234
10
5.5551913
20
12.958101
40
0.2699302
50
253.9471729
51
267.3949949
0
ARC
8
DEFAULT_255_1_234
10
5.562242
20
13.0505067
40
0.362572
50
266.9456419
51
270.0337791
0
ARC
8
DEFAULT_255_1_234
10
5.56478
20
12.934323
40
0.2463991
50
269.4595111
51
286.1822844
0
ARC
8
DEFAULT_255_1_234
10
5.578909
20
12.8825047
40
0.1926982
50
286.4416479
51
315.8044008
0
ARC
8
DEFAULT_255_1_234
10
5.5734897
20
12.8867207
40
0.1995241
50
316.0212565
51
345.4794351
0
ARC
8
DEFAULT_255_1_234
10
5.4764404
20
12.9140575
40
0.3003349
50
345.0729543
51
358.325089
0
ARC
8
DEFAULT_255_1_234
10
5.3888375
20
12.9196568
40
0.3880759
50
357.8767804
51
359.5840246
0
LINE
8
DEFAULT_255_1_234
10
6.922229
20
12.6991792
11
6.922229
21
12.5779
0
LINE
8
DEFAULT_255_1_234
10
6.922229
20
12.5779
11
6.1560012
21
12.5779
0
LINE
8
DEFAULT_255_1_234
10
6.1560012
20
12.5779
11
6.1560012
21
12.6847221
0
LINE
8
DEFAULT_255_1_234
10
6.1560012
20
12.6847221
11
6.5608008
21
13.1344995
0
LINE
8
DEFAULT_255_1_234
10
6.2820995
20
13.4027595
11
6.1335123
21
13.4027595
0
LINE
8
DEFAULT_255_1_234
10
6.6483467
20
13.0389218
11
6.3351089
21
12.6991792
0
LINE
8
DEFAULT_255_1_234
10
6.3351089
20
12.6991792
11
6.922229
21
12.6991792
0
ARC
8
DEFAULT_255_1_234
10
5.2117841
20
14.3274527
40
1.8008286
50
318.5132453
51
320.7828378
0
ARC
8
DEFAULT_255_1_234
10
5.7404816
20
13.8971426
40
1.1191493
50
320.7372736
51
323.9737074
0
ARC
8
DEFAULT_255_1_234
10
6.1324672
20
13.6131361
40
0.6350923
50
323.8961724
51
328.6421089
0
ARC
8
DEFAULT_255_1_234
10
6.3371267
20
13.4869031
40
0.3946393
50
328.8299013
51
331.789948
0
ARC
8
DEFAULT_255_1_234
10
6.4368446
20
13.4354509
40
0.2824501
50
331.4255242
51
352.9364833
0
ARC
8
DEFAULT_255_1_234
10
6.4504947
20
13.4323976
40
0.2685315
50
353.2248685
51
0.0169286
0
ARC
8
DEFAULT_255_1_234
10
6.4714823
20
13.434695
40
0.2475536
50
359.4866256
51
15.9339782
0
ARC
8
DEFAULT_255_1_234
10
6.5221809
20
13.4483286
40
0.1950618
50
16.1714718
51
43.5284424
0
ARC
8
DEFAULT_255_1_234
10
6.5299117
20
13.4560573
40
0.184134
50
43.4415429
51
83.1661404
0
ARC
8
DEFAULT_255_1_234
10
6.5165035
20
13.3823771
40
0.258926
50
82.160215
51
90.1505798
0
ARC
8
DEFAULT_255_1_234
10
6.5133463
20
13.3286865
40
0.3126255
50
89.5460705
51
102.5418777
0
ARC
8
DEFAULT_255_1_234
10
6.4890549
20
13.4317665
40
0.2067346
50
102.1739365
51
129.2061916
0
ARC
8
DEFAULT_255_1_234
10
6.4811621
20
13.4442094
40
0.1921118
50
129.7279328
51
135.7542026
0
ARC
8
DEFAULT_255_1_234
10
6.4933148
20
13.4345045
40
0.2075944
50
136.175737
51
166.3674722
0
ARC
8
DEFAULT_255_1_234
10
6.5940067
20
13.4075182
40
0.3118201
50
165.9092917
51
178.8683903
0
ARC
8
DEFAULT_255_1_234
10
6.6804929
20
13.4028179
40
0.3983935
50
178.438168
51
180.0083905
0
ARC
8
DEFAULT_255_1_234
10
6.5403531
20
13.4067231
40
0.4068601
50
163.2878735
51
180.5581814
0
ARC
8
DEFAULT_255_1_234
10
6.4601792
20
13.428784
40
0.3237344
50
133.454115
51
162.9470031
0
ARC
8
DEFAULT_255_1_234
10
6.4780334
20
13.4098
40
0.349795
50
100.7869394
51
133.4384016
0
ARC
8
DEFAULT_255_1_234
10
6.5128105
20
13.2549319
40
0.5084616
50
89.6605301
51
101.3704185
0
ARC
8
DEFAULT_255_1_234
10
6.5194444
20
13.2610496
40
0.502348
50
78.2171172
51
90.4130393
0
ARC
8
DEFAULT_255_1_234
10
6.5549522
20
13.4234637
40
0.3361092
50
55.9268222
51
78.4888551
0
ARC
8
DEFAULT_255_1_234
10
6.5745962
20
13.4573324
40
0.2970617
50
47.9292255
51
55.4054003
0
ARC
8
DEFAULT_255_1_234
10
6.5847523
20
13.4676502
40
0.2825983
50
4.3347696
51
48.0560701
0
ARC
8
DEFAULT_255_1_234
10
6.4751917
20
13.4506601
40
0.393225
50
359.925209
51
5.5967654
0
ARC
8
DEFAULT_255_1_234
10
6.5180808
20
13.4562816
40
0.3503892
50
337.8914096
51
358.9967724
0
ARC
8
DEFAULT_255_1_234
10
6.2467221
20
13.5609706
40
0.6412172
50
326.9135351
51
338.3505194
0
ARC
8
DEFAULT_255_1_234
10
5.8481524
20
13.8164284
40
1.1146189
50
319.6472867
51
327.095818
0
ARC
8
DEFAULT_255_1_234
10
5.4648527
20
14.1326
40
1.6114559
50
317.2586784
51
319.9046139
0
LINE
8
DEFAULT_255_1_234
10
7.5205935
20
13.5465276
11
7.5205935
21
13.2051788
0
LINE
8
DEFAULT_255_1_234
10
7.5205935
20
13.2051788
11
7.8466821
21
13.2051788
0
LINE
8
DEFAULT_255_1_234
10
7.8466821
20
13.2051788
11
7.8466821
21
13.0646233
0
LINE
8
DEFAULT_255_1_234
10
7.8466821
20
13.0646233
11
7.5205935
21
13.0646233
0
LINE
8
DEFAULT_255_1_234
10
7.5205935
20
13.0646233
11
7.5205935
21
12.6951634
0
LINE
8
DEFAULT_255_1_234
10
7.5205935
20
12.6951634
11
7.3712032
21
12.6951634
0
LINE
8
DEFAULT_255_1_234
10
7.3712032
20
12.6951634
11
7.3712032
21
13.0646233
0
LINE
8
DEFAULT_255_1_234
10
7.3712032
20
13.0646233
11
7.0451146
21
13.0646233
0
LINE
8
DEFAULT_255_1_234
10
7.0451146
20
13.0646233
11
7.0451146
21
13.2051788
0
LINE
8
DEFAULT_255_1_234
10
7.0451146
20
13.2051788
11
7.3712032
21
13.2051788
0
LINE
8
DEFAULT_255_1_234
10
7.3712032
20
13.2051788
11
7.3712032
21
13.5465276
0
LINE
8
DEFAULT_255_1_234
10
7.3712032
20
13.5465276
11
7.5205935
21
13.5465276
0
LINE
8
DEFAULT_255_1_234
10
4.949623
20
20.8864663
11
5.1046355
21
20.8864663
0
LINE
8
DEFAULT_255_1_234
10
4.2042777
20
21.0454947
11
4.2042777
21
21.1579391
0
LINE
8
DEFAULT_255_1_234
10
5.1046355
20
21.3089357
11
4.949623
21
21.3089357
0
LINE
8
DEFAULT_255_1_234
10
4.3592902
20
21.1539232
11
4.3592902
21
21.0406757
0
ARC
8
DEFAULT_255_1_234
10
4.5565742
20
20.9461846
40
0.5513052
50
340.1774281
51
353.7814284
0
ARC
8
DEFAULT_255_1_234
10
4.7137095
20
20.8876582
40
0.3836379
50
311.4558989
51
340.4421614
0
ARC
8
DEFAULT_255_1_234
10
4.7103763
20
20.8987528
40
0.3941894
50
282.4333181
51
310.7513653
0
ARC
8
DEFAULT_255_1_234
10
4.6664502
20
21.0802679
40
0.5809175
50
269.9358511
51
282.809604
0
ARC
8
DEFAULT_255_1_234
10
4.6612568
20
21.2260212
40
0.7266847
50
270.0021091
51
270.3581957
0
ARC
8
DEFAULT_255_1_234
10
4.6559985
20
20.9659585
40
0.4666519
50
250.7884749
51
270.6489167
0
ARC
8
DEFAULT_255_1_234
10
4.639182
20
20.9022319
40
0.4009729
50
219.3627325
51
250.0611886
0
ARC
8
DEFAULT_255_1_234
10
4.7221031
20
20.9727042
40
0.5097822
50
193.5479632
51
219.5756669
0
ARC
8
DEFAULT_255_1_234
10
4.9592652
20
21.0342919
40
0.7547848
50
181.1218675
51
193.87563
0
ARC
8
DEFAULT_255_1_234
10
5.1662833
20
21.045358
40
0.9620055
50
179.9918545
51
181.5394234
0
ARC
8
DEFAULT_255_1_234
10
4.9811935
20
21.1616788
40
0.7769248
50
169.5837241
51
180.2757934
0
ARC
8
DEFAULT_255_1_234
10
4.7974873
20
21.1956229
40
0.590109
50
155.0365899
51
169.6003176
0
ARC
8
DEFAULT_255_1_234
10
4.6839337
20
21.2503677
40
0.4640625
50
136.783148
51
155.2472683
0
ARC
8
DEFAULT_255_1_234
10
4.6449814
20
21.2834562
40
0.4130255
50
121.7633186
51
136.428115
0
ARC
8
DEFAULT_255_1_234
10
4.6584776
20
21.2585227
40
0.4413323
50
95.6459699
51
121.5490577
0
ARC
8
DEFAULT_255_1_234
10
4.6742058
20
21.1476949
40
0.55319
50
89.924208
51
96.1377933
0
ARC
8
DEFAULT_255_1_234
10
4.6792491
20
21.1595542
40
0.5413475
50
76.6779277
51
90.4563316
0
ARC
8
DEFAULT_255_1_234
10
4.7186114
20
21.3186114
40
0.3775041
50
47.485847
51
76.9287264
0
ARC
8
DEFAULT_255_1_234
10
4.7039087
20
21.3086159
40
0.3948286
50
16.5424086
51
46.8933463
0
ARC
8
DEFAULT_255_1_234
10
4.5431244
20
21.2557861
40
0.564021
50
5.4072051
51
17.0365086
0
ARC
8
DEFAULT_255_1_234
10
4.3992261
20
21.2326679
40
0.5556559
50
7.8891745
51
15.9239216
0
ARC
8
DEFAULT_255_1_234
10
4.5979274
20
21.2903631
40
0.3487515
50
15.7653144
51
27.9410532
0
ARC
8
DEFAULT_255_1_234
10
4.7083492
20
21.349479
40
0.2235026
50
27.8166557
51
46.4008329
0
ARC
8
DEFAULT_255_1_234
10
4.7133135
20
21.3489082
40
0.2205286
50
47.4371857
51
75.0698205
0
ARC
8
DEFAULT_255_1_234
10
4.6824529
20
21.2414765
40
0.3322915
50
74.7008593
51
87.8124495
0
ARC
8
DEFAULT_255_1_234
10
4.6751217
20
21.1358844
40
0.4380987
50
87.3814673
51
90.0240855
0
ARC
8
DEFAULT_255_1_234
10
4.671276
20
21.2536291
40
0.3203749
50
89.3451631
51
108.5745436
0
ARC
8
DEFAULT_255_1_234
10
4.6575865
20
21.3049908
40
0.2673494
50
109.2998449
51
143.3037509
0
ARC
8
DEFAULT_255_1_234
10
4.7337938
20
21.2463881
40
0.3634757
50
143.0753173
51
163.1916937
0
ARC
8
DEFAULT_255_1_234
10
4.9289666
20
21.1847967
40
0.5681262
50
162.9373603
51
174.6208611
0
ARC
8
DEFAULT_255_1_234
10
5.1915708
20
21.156001
40
0.8322832
50
174.3419979
51
180.1430411
0
ARC
8
DEFAULT_255_1_234
10
5.0984864
20
21.0365698
40
0.7392076
50
179.6817502
51
189.150529
0
ARC
8
DEFAULT_255_1_234
10
4.8484112
20
20.994919
40
0.4856932
50
188.9910863
51
203.5773039
0
ARC
8
DEFAULT_255_1_234
10
4.7404445
20
20.9501211
40
0.3688271
50
203.9077269
51
215.1312379
0
ARC
8
DEFAULT_255_1_234
10
4.6481539
20
20.8785941
40
0.2522457
50
213.9071664
51
263.8849284
0
ARC
8
DEFAULT_255_1_234
10
4.6606868
20
20.9570518
40
0.3316174
50
263.1758525
51
270.1031083
0
ARC
8
DEFAULT_255_1_234
10
4.663896
20
21.0817365
40
0.4563091
50
269.6719807
51
279.0609165
0
ARC
8
DEFAULT_255_1_234
10
4.6905728
20
20.9204907
40
0.2928759
50
278.8750225
51
293.6346586
0
ARC
8
DEFAULT_255_1_234
10
4.7225936
20
20.84529
40
0.2111472
50
293.8553404
51
310.0518804
0
ARC
8
DEFAULT_255_1_234
10
4.723079
20
20.8390516
40
0.2060917
50
311.0646779
51
332.0108348
0
ARC
8
DEFAULT_255_1_234
10
4.6038517
20
20.9047978
40
0.3422352
50
331.6588543
51
343.2878891
0
ARC
8
DEFAULT_255_1_234
10
4.3976032
20
20.9681798
40
0.5580003
50
343.1446044
51
351.010618
0
ARC
8
DEFAULT_255_1_234
10
4.2434678
20
20.9962871
40
0.7146438
50
350.7157277
51
351.1602153
0
LINE
8
DEFAULT_255_1_234
10
5.8050031
20
20.8543394
11
5.8050031
21
21.6848211
0
LINE
8
DEFAULT_255_1_234
10
5.8050031
20
21.6848211
11
5.9600157
21
21.6848211
0
LINE
8
DEFAULT_255_1_234
10
5.9600157
20
21.6848211
11
5.9600157
21
20.8567489
0
LINE
8
DEFAULT_255_1_234
10
5.2218989
20
20.8382759
11
5.3761083
21
20.8382759
0
ARC
8
DEFAULT_255_1_234
10
5.5109342
20
20.8529089
40
0.4490979
50
346.3129415
51
0.4899112
0
ARC
8
DEFAULT_255_1_234
10
5.6477691
20
20.8178729
40
0.3078632
50
313.3793358
51
346.6225026
0
ARC
8
DEFAULT_255_1_234
10
5.6276878
20
20.8431522
40
0.3400404
50
281.1587967
51
312.9131091
0
ARC
8
DEFAULT_255_1_234
10
5.5936342
20
20.9926185
40
0.4932916
50
269.6424364
51
281.6795951
0
ARC
8
DEFAULT_255_1_234
10
5.5867706
20
21.0475382
40
0.5482147
50
258.9990078
51
270.3955952
0
ARC
8
DEFAULT_255_1_234
10
5.549301
20
20.8626746
40
0.359601
50
239.6256123
51
259.238693
0
ARC
8
DEFAULT_255_1_234
10
5.5204093
20
20.8081669
40
0.2979777
50
227.4959765
51
239.1188186
0
ARC
8
DEFAULT_255_1_234
10
5.5166659
20
20.8020689
40
0.2909561
50
191.339631
51
227.2280909
0
ARC
8
DEFAULT_255_1_234
10
5.65713
20
20.8353031
40
0.4352412
50
179.6086538
51
191.9934722
0
ARC
8
DEFAULT_255_1_234
10
5.6705322
20
20.8360427
40
0.2944324
50
179.5654258
51
192.070398
0
ARC
8
DEFAULT_255_1_234
10
5.5733812
20
20.8142079
40
0.194866
50
191.7656467
51
215.6461951
0
ARC
8
DEFAULT_255_1_234
10
5.5555313
20
20.8034546
40
0.1741017
50
216.1938368
51
224.3931108
0
ARC
8
DEFAULT_255_1_234
10
5.5562199
20
20.8061473
40
0.1764834
50
224.8613677
51
254.362656
0
ARC
8
DEFAULT_255_1_234
10
5.5832913
20
20.895601
40
0.2699302
50
253.9471729
51
267.3949949
0
ARC
8
DEFAULT_255_1_234
10
5.590342
20
20.9880067
40
0.362572
50
266.9456419
51
270.0337791
0
ARC
8
DEFAULT_255_1_234
10
5.59288
20
20.871823
40
0.2463991
50
269.4595111
51
286.1822844
0
ARC
8
DEFAULT_255_1_234
10
5.607009
20
20.8200047
40
0.1926982
50
286.4416479
51
315.8044008
0
ARC
8
DEFAULT_255_1_234
10
5.6015897
20
20.8242207
40
0.1995241
50
316.0212565
51
345.4794351
0
ARC
8
DEFAULT_255_1_234
10
5.5045404
20
20.8515575
40
0.3003349
50
345.0729543
51
358.325089
0
ARC
8
DEFAULT_255_1_234
10
5.4169375
20
20.8571568
40
0.3880759
50
357.8767804
51
359.5840246
0
LINE
8
DEFAULT_255_1_234
10
6.6724309
20
21.6904433
11
6.6724309
21
20.5154
0
LINE
8
DEFAULT_255_1_234
10
6.6724309
20
20.5154
11
6.5230405
21
20.5154
0
LINE
8
DEFAULT_255_1_234
10
6.5230405
20
20.5154
11
6.5230405
21
21.5057133
0
LINE
8
DEFAULT_255_1_234
10
6.5230405
20
21.5057133
11
6.2234567
21
21.3956785
0
LINE
8
DEFAULT_255_1_234
10
6.2234567
20
21.3956785
11
6.2234567
21
21.5306117
0
LINE
8
DEFAULT_255_1_234
10
6.2234567
20
21.5306117
11
6.6491388
21
21.6904433
0
LINE
8
DEFAULT_255_1_234
10
6.6491388
20
21.6904433
11
6.6724309
21
21.6904433
0
LINE
8
DEFAULT_255_1_234
10
7.4322333
20
21.0728026
11
7.4322333
21
20.9515234
0
LINE
8
DEFAULT_255_1_234
10
7.4322333
20
20.9515234
11
7.0402845
21
20.9515234
0
LINE
8
DEFAULT_255_1_234
10
7.0402845
20
20.9515234
11
7.0402845
21
21.0728026
0
LINE
8
DEFAULT_255_1_234
10
7.0402845
20
21.0728026
11
7.4322333
21
21.0728026
0
LINE
8
DEFAULT_255_1_234
10
4.921523
20
28.8239663
11
5.0765355
21
28.8239663
0
LINE
8
DEFAULT_255_1_234
10
4.1761777
20
28.9829947
11
4.1761777
21
29.0954391
0
LINE
8
DEFAULT_255_1_234
10
5.0765355
20
29.2464357
11
4.921523
21
29.2464357
0
LINE
8
DEFAULT_255_1_234
10
4.3311902
20
29.0914232
11
4.3311902
21
28.9781757
0
ARC
8
DEFAULT_255_1_234
10
4.5284742
20
28.8836846
40
0.5513052
50
340.1774281
51
353.7814284
0
ARC
8
DEFAULT_255_1_234
10
4.6856095
20
28.8251582
40
0.3836379
50
311.4558989
51
340.4421614
0
ARC
8
DEFAULT_255_1_234
10
4.6822763
20
28.8362528
40
0.3941894
50
282.4333181
51
310.7513653
0
ARC
8
DEFAULT_255_1_234
10
4.6383502
20
29.0177679
40
0.5809175
50
269.9358511
51
282.809604
0
ARC
8
DEFAULT_255_1_234
10
4.6331568
20
29.1635212
40
0.7266847
50
270.0021091
51
270.3581957
0
ARC
8
DEFAULT_255_1_234
10
4.6278985
20
28.9034585
40
0.4666519
50
250.7884749
51
270.6489167
0
ARC
8
DEFAULT_255_1_234
10
4.611082
20
28.8397319
40
0.4009729
50
219.3627325
51
250.0611886
0
ARC
8
DEFAULT_255_1_234
10
4.6940031
20
28.9102042
40
0.5097822
50
193.5479632
51
219.5756669
0
ARC
8
DEFAULT_255_1_234
10
4.9311652
20
28.9717919
40
0.7547848
50
181.1218675
51
193.87563
0
ARC
8
DEFAULT_255_1_234
10
5.1381833
20
28.982858
40
0.9620055
50
179.9918545
51
181.5394234
0
ARC
8
DEFAULT_255_1_234
10
4.9530935
20
29.0991788
40
0.7769248
50
169.5837241
51
180.2757934
0
ARC
8
DEFAULT_255_1_234
10
4.7693873
20
29.1331229
40
0.590109
50
155.0365899
51
169.6003176
0
ARC
8
DEFAULT_255_1_234
10
4.6558337
20
29.1878677
40
0.4640625
50
136.783148
51
155.2472683
0
ARC
8
DEFAULT_255_1_234
10
4.6168814
20
29.2209562
40
0.4130255
50
121.7633186
51
136.428115
0
ARC
8
DEFAULT_255_1_234
10
4.6303776
20
29.1960227
40
0.4413323
50
95.6459699
51
121.5490577
0
ARC
8
DEFAULT_255_1_234
10
4.6461058
20
29.0851949
40
0.55319
50
89.924208
51
96.1377933
0
ARC
8
DEFAULT_255_1_234
10
4.6511491
20
29.0970542
40
0.5413475
50
76.6779277
51
90.4563316
0
ARC
8
DEFAULT_255_1_234
10
4.6905114
20
29.2561114
40
0.3775041
50
47.485847
51
76.9287264
0
ARC
8
DEFAULT_255_1_234
10
4.6758087
20
29.2461159
40
0.3948286
50
16.5424086
51
46.8933463
0
ARC
8
DEFAULT_255_1_234
10
4.5150244
20
29.1932861
40
0.564021
50
5.4072051
51
17.0365086
0
ARC
8
DEFAULT_255_1_234
10
4.3711261
20
29.1701679
40
0.5556559
50
7.8891745
51
15.9239216
0
ARC
8
DEFAULT_255_1_234
10
4.5698274
20
29.2278631
40
0.3487515
50
15.7653144
51
27.9410532
0
ARC
8
DEFAULT_255_1_234
10
4.6802492
20
29.286979
40
0.2235026
50
27.8166557
51
46.4008329
0
ARC
8
DEFAULT_255_1_234
10
4.6852135
20
29.2864082
40
0.2205286
50
47.4371857
51
75.0698205
0
ARC
8
DEFAULT_255_1_234
10
4.6543529
20
29.1789765
40
0.3322915
50
74.7008593
51
87.8124495
0
ARC
8
DEFAULT_255_1_234
10
4.6470217
20
29.0733844
40
0.4380987
50
87.3814673
51
90.0240855
0
ARC
8
DEFAULT_255_1_234
10
4.643176
20
29.1911291
40
0.3203749
50
89.3451631
51
108.5745436
0
ARC
8
DEFAULT_255_1_234
10
4.6294865
20
29.2424908
40
0.2673494
50
109.2998449
51
143.3037509
0
ARC
8
DEFAULT_255_1_234
10
4.7056938
20
29.1838881
40
0.3634757
50
143.0753173
51
163.1916937
0
ARC
8
DEFAULT_255_1_234
10
4.9008666
20
29.1222967
40
0.5681262
50
162.9373603
51
174.6208611
0
ARC
8
DEFAULT_255_1_234
10
5.1634708
20
29.093501
40
0.8322832
50
174.3419979
51
180.1430411
0
ARC
8
DEFAULT_255_1_234
10
5.0703864
20
28.9740698
40
0.7392076
50
179.6817502
51
189.150529
0
ARC
8
DEFAULT_255_1_234
10
4.8203112
20
28.932419
40
0.4856932
50
188.9910863
51
203.5773039
0
ARC
8
DEFAULT_255_1_234
10
4.7123445
20
28.8876211
40
0.3688271
50
203.9077269
51
215.1312379
0
ARC
8
DEFAULT_255_1_234
10
4.6200539
20
28.8160941
40
0.2522457
50
213.9071664
51
263.8849284
0
ARC
8
DEFAULT_255_1_234
10
4.6325868
20
28.8945518
40
0.3316174
50
263.1758525
51
270.1031083
0
ARC
8
DEFAULT_255_1_234
10
4.635796
20
29.0192365
40
0.4563091
50
269.6719807
51
279.0609165
0
ARC
8
DEFAULT_255_1_234
10
4.6624728
20
28.8579907
40
0.2928759
50
278.8750225
51
293.6346586
0
ARC
8
DEFAULT_255_1_234
10
4.6944936
20
28.78279
40
0.2111472
50
293.8553404
51
310.0518804
0
ARC
8
DEFAULT_255_1_234
10
4.694979
20
28.7765516
40
0.2060917
50
311.0646779
51
332.0108348
0
ARC
8
DEFAULT_255_1_234
10
4.5757517
20
28.8422978
40
0.3422352
50
331.6588543
51
343.2878891
0
ARC
8
DEFAULT_255_1_234
10
4.3695032
20
28.9056798
40
0.5580003
50
343.1446044
51
351.010618
0
ARC
8
DEFAULT_255_1_234
10
4.2153678
20
28.9337871
40
0.7146438
50
350.7157277
51
351.1602153
0
LINE
8
DEFAULT_255_1_234
10
5.7769031
20
28.7918394
11
5.7769031
21
29.6223211
0
LINE
8
DEFAULT_255_1_234
10
5.7769031
20
29.6223211
11
5.9319157
21
29.6223211
0
LINE
8
DEFAULT_255_1_234
10
5.9319157
20
29.6223211
11
5.9319157
21
28.7942489
0
LINE
8
DEFAULT_255_1_234
10
5.1937989
20
28.7757759
11
5.3480083
21
28.7757759
0
ARC
8
DEFAULT_255_1_234
10
5.4828342
20
28.7904089
40
0.4490979
50
346.3129415
51
0.4899112
0
ARC
8
DEFAULT_255_1_234
10
5.6196691
20
28.7553729
40
0.3078632
50
313.3793358
51
346.6225026
0
ARC
8
DEFAULT_255_1_234
10
5.5995878
20
28.7806522
40
0.3400404
50
281.1587967
51
312.9131091
0
ARC
8
DEFAULT_255_1_234
10
5.5655342
20
28.9301185
40
0.4932916
50
269.6424364
51
281.6795951
0
ARC
8
DEFAULT_255_1_234
10
5.5586706
20
28.9850382
40
0.5482147
50
258.9990078
51
270.3955952
0
ARC
8
DEFAULT_255_1_234
10
5.521201
20
28.8001746
40
0.359601
50
239.6256123
51
259.238693
0
ARC
8
DEFAULT_255_1_234
10
5.4923093
20
28.7456669
40
0.2979777
50
227.4959765
51
239.1188186
0
ARC
8
DEFAULT_255_1_234
10
5.4885659
20
28.7395689
40
0.2909561
50
191.339631
51
227.2280909
0
ARC
8
DEFAULT_255_1_234
10
5.62903
20
28.7728031
40
0.4352412
50
179.6086538
51
191.9934722
0
ARC
8
DEFAULT_255_1_234
10
5.6424322
20
28.7735427
40
0.2944324
50
179.5654258
51
192.070398
0
ARC
8
DEFAULT_255_1_234
10
5.5452812
20
28.7517079
40
0.194866
50
191.7656467
51
215.6461951
0
ARC
8
DEFAULT_255_1_234
10
5.5274313
20
28.7409546
40
0.1741017
50
216.1938368
51
224.3931108
0
ARC
8
DEFAULT_255_1_234
10
5.5281199
20
28.7436473
40
0.1764834
50
224.8613677
51
254.362656
0
ARC
8
DEFAULT_255_1_234
10
5.5551913
20
28.833101
40
0.2699302
50
253.9471729
51
267.3949949
0
ARC
8
DEFAULT_255_1_234
10
5.562242
20
28.9255067
40
0.362572
50
266.9456419
51
270.0337791
0
ARC
8
DEFAULT_255_1_234
10
5.56478
20
28.809323
40
0.2463991
50
269.4595111
51
286.1822844
0
ARC
8
DEFAULT_255_1_234
10
5.578909
20
28.7575047
40
0.1926982
50
286.4416479
51
315.8044008
0
ARC
8
DEFAULT_255_1_234
10
5.5734897
20
28.7617207
40
0.1995241
50
316.0212565
51
345.4794351
0
ARC
8
DEFAULT_255_1_234
10
5.4764404
20
28.7890575
40
0.3003349
50
345.0729543
51
358.325089
0
ARC
8
DEFAULT_255_1_234
10
5.3888375
20
28.7946568
40
0.3880759
50
357.8767804
51
359.5840246
0
LINE
8
DEFAULT_255_1_234
10
6.6443309
20
29.6279433
11
6.6443309
21
28.4529
0
LINE
8
DEFAULT_255_1_234
10
6.6443309
20
28.4529
11
6.4949405
21
28.4529
0
LINE
8
DEFAULT_255_1_234
10
6.4949405
20
28.4529
11
6.4949405
21
29.4432133
0
LINE
8
DEFAULT_255_1_234
10
6.4949405
20
29.4432133
11
6.1953567
21
29.3331785
0
LINE
8
DEFAULT_255_1_234
10
6.1953567
20
29.3331785
11
6.1953567
21
29.4681117
0
LINE
8
DEFAULT_255_1_234
10
6.1953567
20
29.4681117
11
6.6210388
21
29.6279433
0
LINE
8
DEFAULT_255_1_234
10
6.6210388
20
29.6279433
11
6.6443309
21
29.6279433
0
LINE
8
DEFAULT_255_1_234
10
7.5205935
20
29.4215276
11
7.5205935
21
29.0801788
0
LINE
8
DEFAULT_255_1_234
10
7.5205935
20
29.0801788
11
7.8466821
21
29.0801788
0
LINE
8
DEFAULT_255_1_234
10
7.8466821
20
29.0801788
11
7.8466821
21
28.9396233
0
LINE
8
DEFAULT_255_1_234
10
7.8466821
20
28.9396233
11
7.5205935
21
28.9396233
0
LINE
8
DEFAULT_255_1_234
10
7.5205935
20
28.9396233
11
7.5205935
21
28.5701634
0
LINE
8
DEFAULT_255_1_234
10
7.5205935
20
28.5701634
11
7.3712032
21
28.5701634
0
LINE
8
DEFAULT_255_1_234
10
7.3712032
20
28.5701634
11
7.3712032
21
28.9396233
0
LINE
8
DEFAULT_255_1_234
10
7.3712032
20
28.9396233
11
7.0451146
21
28.9396233
0
LINE
8
DEFAULT_255_1_234
10
7.0451146
20
28.9396233
11
7.0451146
21
29.0801788
0
LINE
8
DEFAULT_255_1_234
10
7.0451146
20
29.0801788
11
7.3712032
21
29.0801788
0
LINE
8
DEFAULT_255_1_234
10
7.3712032
20
29.0801788
11
7.3712032
21
29.4215276
0
LINE
8
DEFAULT_255_1_234
10
7.3712032
20
29.4215276
11
7.5205935
21
29.4215276
0
ARC
8
DEFAULT_255_1_234
10
4.5085624
20
37.2520703
40
0.2822356
50
338.8763615
51
0.5166041
0
ARC
8
DEFAULT_255_1_234
10
4.5254278
20
37.2475208
40
0.2648703
50
325.8412414
51
338.4795939
0
ARC
8
DEFAULT_255_1_234
10
4.4863646
20
37.2746042
40
0.3124019
50
296.7586019
51
325.753654
0
ARC
8
DEFAULT_255_1_234
10
4.4575754
20
37.3230789
40
0.368668
50
296.0902311
51
297.3618122
0
ARC
8
DEFAULT_255_1_234
10
4.4833212
20
36.6676041
40
0.3518806
50
47.9009248
51
67.1946869
0
ARC
8
DEFAULT_255_1_234
10
4.5029454
20
36.6922395
40
0.320451
50
35.236241
51
47.551371
0
ARC
8
DEFAULT_255_1_234
10
4.5291072
20
36.7096993
40
0.2890103
50
359.2759738
51
35.4014081
0
ARC
8
DEFAULT_255_1_234
10
4.4546103
20
36.7023826
40
0.3635026
50
343.1294516
51
0.5776525
0
ARC
8
DEFAULT_255_1_234
10
4.5270648
20
36.682433
40
0.2883832
50
310.8497458
51
342.744803
0
ARC
8
DEFAULT_255_1_234
10
4.4852761
20
36.7301294
40
0.3517954
50
281.5473923
51
310.9169905
0
ARC
8
DEFAULT_255_1_234
10
4.449621
20
36.8854084
40
0.5110832
50
269.6192722
51
281.9789957
0
ARC
8
DEFAULT_255_1_234
10
4.4424
20
36.8854828
40
0.5111606
50
257.4584469
51
270.4287458
0
ARC
8
DEFAULT_255_1_234
10
4.4043143
20
36.7251344
40
0.3463762
50
228.7553743
51
257.8484423
0
ARC
8
DEFAULT_255_1_234
10
4.3733341
20
36.6878442
40
0.297916
50
184.0104442
51
228.5071787
0
ARC
8
DEFAULT_255_1_234
10
4.4896285
20
36.7055512
40
0.4152734
50
179.9315461
51
185.3254504
0
ARC
8
DEFAULT_255_1_234
10
4.3719931
20
36.7092992
40
0.2976554
50
145.6795913
51
180.6259649
0
ARC
8
DEFAULT_255_1_234
10
4.388328
20
36.6978929
40
0.3175776
50
115.5537925
51
145.6416199
0
ARC
8
DEFAULT_255_1_234
10
4.422421
20
36.6368028
40
0.3874232
50
113.2437915
51
116.2054627
0
ARC
8
DEFAULT_255_1_234
10
4.4071423
20
37.276658
40
0.3154751
50
222.9548379
51
244.1372485
0
ARC
8
DEFAULT_255_1_234
10
4.3949498
20
37.2629834
40
0.2972382
50
213.3439227
51
222.6271327
0
ARC
8
DEFAULT_255_1_234
10
4.3757433
20
37.2499308
40
0.274019
50
180.4316517
51
213.2713999
0
ARC
8
DEFAULT_255_1_234
10
4.4332434
20
37.254611
40
0.33158
50
179.9992944
51
181.1655061
0
ARC
8
DEFAULT_255_1_234
10
4.4741851
20
37.2580561
40
0.3725376
50
164.6186108
51
180.5292368
0
ARC
8
DEFAULT_255_1_234
10
4.3843714
20
37.2822101
40
0.2795349
50
132.2454369
51
164.5092287
0
ARC
8
DEFAULT_255_1_234
10
4.4130818
20
37.2497028
40
0.3229019
50
100.7052766
51
132.1387266
0
ARC
8
DEFAULT_255_1_234
10
4.443579
20
37.1119086
40
0.4639835
50
89.6732617
51
101.2449487
0
ARC
8
DEFAULT_255_1_234
10
4.4497988
20
37.129399
40
0.4464999
50
76.2876631
51
90.4586123
0
ARC
8
DEFAULT_255_1_234
10
4.480422
20
37.251622
40
0.3205023
50
47.8240157
51
76.4266918
0
ARC
8
DEFAULT_255_1_234
10
4.502677
20
37.277659
40
0.2862661
50
6.9168658
51
47.6261438
0
ARC
8
DEFAULT_255_1_234
10
4.3840173
20
37.255737
40
0.4067708
50
359.8419705
51
7.9694496
0
ARC
8
DEFAULT_255_1_234
10
4.418207
20
36.7116925
40
0.2513121
50
359.4454068
51
16.9256425
0
ARC
8
DEFAULT_255_1_234
10
4.4650881
20
36.7246033
40
0.2027071
50
17.292259
51
45.462717
0
ARC
8
DEFAULT_255_1_234
10
4.4596817
20
36.7199434
40
0.2098212
50
45.3028762
51
83.1921472
0
ARC
8
DEFAULT_255_1_234
10
4.4453501
20
36.6397895
40
0.2911472
50
82.2614531
51
90.143954
0
ARC
8
DEFAULT_255_1_234
10
4.4422621
20
36.663095
40
0.2678513
50
89.4959189
51
104.8579811
0
ARC
8
DEFAULT_255_1_234
10
4.424588
20
36.730089
40
0.1985654
50
104.8855873
51
135.2448349
0
ARC
8
DEFAULT_255_1_234
10
4.4295653
20
36.7256336
40
0.2052373
50
135.3398955
51
172.104394
0
ARC
8
DEFAULT_255_1_234
10
4.5102711
20
36.7101925
40
0.2873299
50
171.2651929
51
180.1859362
0
ARC
8
DEFAULT_255_1_234
10
4.4933412
20
36.7069733
40
0.2704083
50
179.515471
51
193.6466734
0
ARC
8
DEFAULT_255_1_234
10
4.4117181
20
36.6861777
40
0.1861855
50
193.3540587
51
225.8256931
0
ARC
8
DEFAULT_255_1_234
10
4.4157938
20
36.6932524
40
0.1941102
50
226.418029
51
255.8553723
0
ARC
8
DEFAULT_255_1_234
10
4.4414371
20
36.7868998
40
0.2911917
50
255.4655572
51
268.7985967
0
ARC
8
DEFAULT_255_1_234
10
4.4461563
20
36.8707491
40
0.3751331
50
268.3464808
51
270.0104874
0
ARC
8
DEFAULT_255_1_234
10
4.4484951
20
36.8023138
40
0.3067064
50
269.575914
51
282.0823146
0
ARC
8
DEFAULT_255_1_234
10
4.470986
20
36.7028803
40
0.2047712
50
281.7522535
51
306.6056425
0
ARC
8
DEFAULT_255_1_234
10
4.4808286
20
36.6867487
40
0.1859604
50
307.1350025
51
314.0277951
0
ARC
8
DEFAULT_255_1_234
10
4.477237
20
36.6893766
40
0.1903475
50
314.2553419
51
350.169324
0
ARC
8
DEFAULT_255_1_234
10
4.3920839
20
36.7078409
40
0.2774269
50
349.4145679
51
0.2930737
0
ARC
8
DEFAULT_255_1_234
10
4.4441272
20
37.2237353
40
0.2300764
50
89.477591
51
105.729794
0
ARC
8
DEFAULT_255_1_234
10
4.4305185
20
37.2742637
40
0.1777519
50
105.922966
51
135.1662921
0
ARC
8
DEFAULT_255_1_234
10
4.4325688
20
37.2728419
40
0.1802087
50
135.3053131
51
168.9882338
0
ARC
8
DEFAULT_255_1_234
10
4.515326
20
37.2538721
40
0.2650806
50
168.3802067
51
180.3602358
0
ARC
8
DEFAULT_255_1_234
10
4.492484
20
37.2501041
40
0.2422425
50
179.5029707
51
194.9126783
0
ARC
8
DEFAULT_255_1_234
10
4.4339501
20
37.234711
40
0.1817188
50
194.9722181
51
224.1943972
0
ARC
8
DEFAULT_255_1_234
10
4.4311368
20
37.2324169
40
0.1781027
50
224.2961434
51
262.0157375
0
ARC
8
DEFAULT_255_1_234
10
4.4453611
20
37.3055661
40
0.2525492
50
261.1250369
51
270.1959853
0
ARC
8
DEFAULT_255_1_234
10
4.4483366
20
37.2868339
40
0.233825
50
269.4825617
51
285.0988277
0
ARC
8
DEFAULT_255_1_234
10
4.4637525
20
37.228999
40
0.1739712
50
285.1585659
51
315.9484648
0
ARC
8
DEFAULT_255_1_234
10
4.4548537
20
37.2371886
40
0.1860616
50
316.0412958
51
351.9162715
0
ARC
8
DEFAULT_255_1_234
10
4.3815492
20
37.2513245
40
0.2606517
50
351.1056823
51
0.1936567
0
ARC
8
DEFAULT_255_1_234
10
4.4078321
20
37.2543369
40
0.234377
50
359.4789506
51
16.0679113
0
ARC
8
DEFAULT_255_1_234
10
4.455428
20
37.267181
40
0.1850875
50
16.3251951
51
44.791304
0
ARC
8
DEFAULT_255_1_234
10
4.4536561
20
37.2672339
40
0.186312
50
44.3958661
51
88.2498933
0
ARC
8
DEFAULT_255_1_234
10
4.4463115
20
37.2061154
40
0.2476868
50
86.9833827
51
90.0200148
0
LINE
8
DEFAULT_255_1_234
10
5.3297162
20
36.9478026
11
5.3297162
21
36.8265234
0
LINE
8
DEFAULT_255_1_234
10
5.3297162
20
36.8265234
11
4.9377673
21
36.8265234
0
LINE
8
DEFAULT_255_1_234
10
4.9377673
20
36.8265234
11
4.9377673
21
36.9478026
0
LINE
8
DEFAULT_255_1_234
10
4.9377673
20
36.9478026
11
5.3297162
21
36.9478026
0
ARC
8
DEFAULT_255_1_234
10
4.4804624
20
45.1895703
40
0.2822356
50
338.8763615
51
0.5166041
0
ARC
8
DEFAULT_255_1_234
10
4.4973278
20
45.1850208
40
0.2648703
50
325.8412414
51
338.4795939
0
ARC
8
DEFAULT_255_1_234
10
4.4582646
20
45.2121042
40
0.3124019
50
296.7586019
51
325.753654
0
ARC
8
DEFAULT_255_1_234
10
4.4294754
20
45.2605789
40
0.368668
50
296.0902311
51
297.3618122
0
ARC
8
DEFAULT_255_1_234
10
4.4552212
20
44.6051041
40
0.3518806
50
47.9009248
51
67.1946869
0
ARC
8
DEFAULT_255_1_234
10
4.4748454
20
44.6297395
40
0.320451
50
35.236241
51
47.551371
0
ARC
8
DEFAULT_255_1_234
10
4.5010072
20
44.6471993
40
0.2890103
50
359.2759738
51
35.4014081
0
ARC
8
DEFAULT_255_1_234
10
4.4265103
20
44.6398826
40
0.3635026
50
343.1294516
51
0.5776525
0
ARC
8
DEFAULT_255_1_234
10
4.4989648
20
44.619933
40
0.2883832
50
310.8497458
51
342.744803
0
ARC
8
DEFAULT_255_1_234
10
4.4571761
20
44.6676294
40
0.3517954
50
281.5473923
51
310.9169905
0
ARC
8
DEFAULT_255_1_234
10
4.421521
20
44.8229084
40
0.5110832
50
269.6192722
51
281.9789957
0
ARC
8
DEFAULT_255_1_234
10
4.4143
20
44.8229828
40
0.5111606
50
257.4584469
51
270.4287458
0
ARC
8
DEFAULT_255_1_234
10
4.3762143
20
44.6626344
40
0.3463762
50
228.7553743
51
257.8484423
0
ARC
8
DEFAULT_255_1_234
10
4.3452341
20
44.6253442
40
0.297916
50
184.0104442
51
228.5071787
0
ARC
8
DEFAULT_255_1_234
10
4.4615285
20
44.6430512
40
0.4152734
50
179.9315461
51
185.3254504
0
ARC
8
DEFAULT_255_1_234
10
4.3438931
20
44.6467992
40
0.2976554
50
145.6795913
51
180.6259649
0
ARC
8
DEFAULT_255_1_234
10
4.360228
20
44.6353929
40
0.3175776
50
115.5537925
51
145.6416199
0
ARC
8
DEFAULT_255_1_234
10
4.394321
20
44.5743028
40
0.3874232
50
113.2437915
51
116.2054627
0
ARC
8
DEFAULT_255_1_234
10
4.3790423
20
45.214158
40
0.3154751
50
222.9548379
51
244.1372485
0
ARC
8
DEFAULT_255_1_234
10
4.3668498
20
45.2004834
40
0.2972382
50
213.3439227
51
222.6271327
0
ARC
8
DEFAULT_255_1_234
10
4.3476433
20
45.1874308
40
0.274019
50
180.4316517
51
213.2713999
0
ARC
8
DEFAULT_255_1_234
10
4.4051434
20
45.192111
40
0.33158
50
179.9992944
51
181.1655061
0
ARC
8
DEFAULT_255_1_234
10
4.4460851
20
45.1955561
40
0.3725376
50
164.6186108
51
180.5292368
0
ARC
8
DEFAULT_255_1_234
10
4.3562714
20
45.2197101
40
0.2795349
50
132.2454369
51
164.5092287
0
ARC
8
DEFAULT_255_1_234
10
4.3849818
20
45.1872028
40
0.3229019
50
100.7052766
51
132.1387266
0
ARC
8
DEFAULT_255_1_234
10
4.415479
20
45.0494086
40
0.4639835
50
89.6732617
51
101.2449487
0
ARC
8
DEFAULT_255_1_234
10
4.4216988
20
45.066899
40
0.4464999
50
76.2876631
51
90.4586123
0
ARC
8
DEFAULT_255_1_234
10
4.452322
20
45.189122
40
0.3205023
50
47.8240157
51
76.4266918
0
ARC
8
DEFAULT_255_1_234
10
4.474577
20
45.215159
40
0.2862661
50
6.9168658
51
47.6261438
0
ARC
8
DEFAULT_255_1_234
10
4.3559173
20
45.193237
40
0.4067708
50
359.8419705
51
7.9694496
0
ARC
8
DEFAULT_255_1_234
10
4.390107
20
44.6491925
40
0.2513121
50
359.4454068
51
16.9256425
0
ARC
8
DEFAULT_255_1_234
10
4.4369881
20
44.6621033
40
0.2027071
50
17.292259
51
45.462717
0
ARC
8
DEFAULT_255_1_234
10
4.4315817
20
44.6574434
40
0.2098212
50
45.3028762
51
83.1921472
0
ARC
8
DEFAULT_255_1_234
10
4.4172501
20
44.5772895
40
0.2911472
50
82.2614531
51
90.143954
0
ARC
8
DEFAULT_255_1_234
10
4.4141621
20
44.600595
40
0.2678513
50
89.4959189
51
104.8579811
0
ARC
8
DEFAULT_255_1_234
10
4.396488
20
44.667589
40
0.1985654
50
104.8855873
51
135.2448349
0
ARC
8
DEFAULT_255_1_234
10
4.4014653
20
44.6631336
40
0.2052373
50
135.3398955
51
172.104394
0
ARC
8
DEFAULT_255_1_234
10
4.4821711
20
44.6476925
40
0.2873299
50
171.2651929
51
180.1859362
0
ARC
8
DEFAULT_255_1_234
10
4.4652412
20
44.6444733
40
0.2704083
50
179.515471
51
193.6466734
0
ARC
8
DEFAULT_255_1_234
10
4.3836181
20
44.6236777
40
0.1861855
50
193.3540587
51
225.8256931
0
ARC
8
DEFAULT_255_1_234
10
4.3876938
20
44.6307524
40
0.1941102
50
226.418029
51
255.8553723
0
ARC
8
DEFAULT_255_1_234
10
4.4133371
20
44.7243998
40
0.2911917
50
255.4655572
51
268.7985967
0
ARC
8
DEFAULT_255_1_234
10
4.4180563
20
44.8082491
40
0.3751331
50
268.3464808
51
270.0104874
0
ARC
8
DEFAULT_255_1_234
10
4.4203951
20
44.7398138
40
0.3067064
50
269.575914
51
282.0823146
0
ARC
8
DEFAULT_255_1_234
10
4.442886
20
44.6403803
40
0.2047712
50
281.7522535
51
306.6056425
0
ARC
8
DEFAULT_255_1_234
10
4.4527286
20
44.6242487
40
0.1859604
50
307.1350025
51
314.0277951
0
ARC
8
DEFAULT_255_1_234
10
4.449137
20
44.6268766
40
0.1903475
50
314.2553419
51
350.169324
0
ARC
8
DEFAULT_255_1_234
10
4.3639839
20
44.6453409
40
0.2774269
50
349.4145679
51
0.2930737
0
ARC
8
DEFAULT_255_1_234
10
4.4160272
20
45.1612353
40
0.2300764
50
89.477591
51
105.729794
0
ARC
8
DEFAULT_255_1_234
10
4.4024185
20
45.2117637
40
0.1777519
50
105.922966
51
135.1662921
0
ARC
8
DEFAULT_255_1_234
10
4.4044688
20
45.2103419
40
0.1802087
50
135.3053131
51
168.9882338
0
ARC
8
DEFAULT_255_1_234
10
4.487226
20
45.1913721
40
0.2650806
50
168.3802067
51
180.3602358
0
ARC
8
DEFAULT_255_1_234
10
4.464384
20
45.1876041
40
0.2422425
50
179.5029707
51
194.9126783
0
ARC
8
DEFAULT_255_1_234
10
4.4058501
20
45.172211
40
0.1817188
50
194.9722181
51
224.1943972
0
ARC
8
DEFAULT_255_1_234
10
4.4030368
20
45.1699169
40
0.1781027
50
224.2961434
51
262.0157375
0
ARC
8
DEFAULT_255_1_234
10
4.4172611
20
45.2430661
40
0.2525492
50
261.1250369
51
270.1959853
0
ARC
8
DEFAULT_255_1_234
10
4.4202366
20
45.2243339
40
0.233825
50
269.4825617
51
285.0988277
0
ARC
8
DEFAULT_255_1_234
10
4.4356525
20
45.166499
40
0.1739712
50
285.1585659
51
315.9484648
0
ARC
8
DEFAULT_255_1_234
10
4.4267537
20
45.1746886
40
0.1860616
50
316.0412958
51
351.9162715
0
ARC
8
DEFAULT_255_1_234
10
4.3534492
20
45.1888245
40
0.2606517
50
351.1056823
51
0.1936567
0
ARC
8
DEFAULT_255_1_234
10
4.3797321
20
45.1918369
40
0.234377
50
359.4789506
51
16.0679113
0
ARC
8
DEFAULT_255_1_234
10
4.427328
20
45.204681
40
0.1850875
50
16.3251951
51
44.791304
0
ARC
8
DEFAULT_255_1_234
10
4.4255561
20
45.2047339
40
0.186312
50
44.3958661
51
88.2498933
0
ARC
8
DEFAULT_255_1_234
10
4.4182115
20
45.1436154
40
0.2476868
50
86.9833827
51
90.0200148
0
LINE
8
DEFAULT_255_1_234
10
5.4180764
20
45.2965276
11
5.4180764
21
44.9551788
0
LINE
8
DEFAULT_255_1_234
10
5.4180764
20
44.9551788
11
5.7441649
21
44.9551788
0
LINE
8
DEFAULT_255_1_234
10
5.7441649
20
44.9551788
11
5.7441649
21
44.8146233
0
LINE
8
DEFAULT_255_1_234
10
5.7441649
20
44.8146233
11
5.4180764
21
44.8146233
0
LINE
8
DEFAULT_255_1_234
10
5.4180764
20
44.8146233
11
5.4180764
21
44.4451634
0
LINE
8
DEFAULT_255_1_234
10
5.4180764
20
44.4451634
11
5.268686
21
44.4451634
0
LINE
8
DEFAULT_255_1_234
10
5.268686
20
44.4451634
11
5.268686
21
44.8146233
0
LINE
8
DEFAULT_255_1_234
10
5.268686
20
44.8146233
11
4.9425975
21
44.8146233
0
LINE
8
DEFAULT_255_1_234
10
4.9425975
20
44.8146233
11
4.9425975
21
44.9551788
0
LINE
8
DEFAULT_255_1_234
10
4.9425975
20
44.9551788
11
5.268686
21
44.9551788
0
LINE
8
DEFAULT_255_1_234
10
5.268686
20
44.9551788
11
5.268686
21
45.2965276
0
LINE
8
DEFAULT_255_1_234
10
5.268686
20
45.2965276
11
5.4180764
21
45.2965276
0
LINE
8
DEFAULT_255_1_234
10
4.8365674
20
53.4348211
11
4.8365674
21
53.351291
0
LINE
8
DEFAULT_255_1_234
10
4.8365674
20
53.351291
11
4.3522536
21
52.2654
0
LINE
8
DEFAULT_255_1_234
10
4.3522536
20
52.2654
11
4.1964379
21
52.2654
0
LINE
8
DEFAULT_255_1_234
10
4.1964379
20
52.2654
11
4.6791454
21
53.3127387
0
LINE
8
DEFAULT_255_1_234
10
4.6791454
20
53.3127387
11
4.0462444
21
53.3127387
0
LINE
8
DEFAULT_255_1_234
10
4.0462444
20
53.3127387
11
4.0462444
21
53.4348211
0
LINE
8
DEFAULT_255_1_234
10
4.0462444
20
53.4348211
11
4.8365674
21
53.4348211
0
LINE
8
DEFAULT_255_1_234
10
5.3297162
20
52.8228026
11
5.3297162
21
52.7015234
0
LINE
8
DEFAULT_255_1_234
10
5.3297162
20
52.7015234
11
4.9377673
21
52.7015234
0
LINE
8
DEFAULT_255_1_234
10
4.9377673
20
52.7015234
11
4.9377673
21
52.8228026
0
LINE
8
DEFAULT_255_1_234
10
4.9377673
20
52.8228026
11
5.3297162
21
52.8228026
0
LINE
8
DEFAULT_255_1_234
10
4.8084674
20
61.3723211
11
4.8084674
21
61.288791
0
LINE
8
DEFAULT_255_1_234
10
4.8084674
20
61.288791
11
4.3241536
21
60.2029
0
LINE
8
DEFAULT_255_1_234
10
4.3241536
20
60.2029
11
4.1683379
21
60.2029
0
LINE
8
DEFAULT_255_1_234
10
4.1683379
20
60.2029
11
4.6510454
21
61.2502387
0
LINE
8
DEFAULT_255_1_234
10
4.6510454
20
61.2502387
11
4.0181444
21
61.2502387
0
LINE
8
DEFAULT_255_1_234
10
4.0181444
20
61.2502387
11
4.0181444
21
61.3723211
0
LINE
8
DEFAULT_255_1_234
10
4.0181444
20
61.3723211
11
4.8084674
21
61.3723211
0
LINE
8
DEFAULT_255_1_234
10
5.4180764
20
61.1715276
11
5.4180764
21
60.8301788
0
LINE
8
DEFAULT_255_1_234
10
5.4180764
20
60.8301788
11
5.7441649
21
60.8301788
0
LINE
8
DEFAULT_255_1_234
10
5.7441649
20
60.8301788
11
5.7441649
21
60.6896233
0
LINE
8
DEFAULT_255_1_234
10
5.7441649
20
60.6896233
11
5.4180764
21
60.6896233
0
LINE
8
DEFAULT_255_1_234
10
5.4180764
20
60.6896233
11
5.4180764
21
60.3201634
0
LINE
8
DEFAULT_255_1_234
10
5.4180764
20
60.3201634
11
5.268686
21
60.3201634
0
LINE
8
DEFAULT_255_1_234
10
5.268686
20
60.3201634
11
5.268686
21
60.6896233
0
LINE
8
DEFAULT_255_1_234
10
5.268686
20
60.6896233
11
4.9425975
21
60.6896233
0
LINE
8
DEFAULT_255_1_234
10
4.9425975
20
60.6896233
11
4.9425975
21
60.8301788
0
LINE
8
DEFAULT_255_1_234
10
4.9425975
20
60.8301788
11
5.268686
21
60.8301788
0
LINE
8
DEFAULT_255_1_234
10
5.268686
20
60.8301788
11
5.268686
21
61.1715276
0
LINE
8
DEFAULT_255_1_234
10
5.268686
20
61.1715276
11
5.4180764
21
61.1715276
0
LINE
8
DEFAULT_255_1_234
10
4.6381835
20
69.3106243
11
4.6646882
21
69.3106243
0
LINE
8
DEFAULT_255_1_234
10
4.6646882
20
69.3106243
11
4.6646882
21
69.184526
0
LINE
8
DEFAULT_255_1_234
10
4.6646882
20
69.184526
11
4.6373803
21
69.184526
0
LINE
8
DEFAULT_255_1_234
10
4.0904189
20
68.5853583
11
4.0904189
21
68.6423836
0
LINE
8
DEFAULT_255_1_234
10
4.2398093
20
68.6231075
11
4.2398093
21
68.5684917
0
ARC
8
DEFAULT_255_1_234
10
4.6426151
20
68.6847455
40
0.4998079
50
90.6001036
51
104.514704
0
ARC
8
DEFAULT_255_1_234
10
4.6037667
20
68.8292131
40
0.3502176
50
104.2855254
51
133.862935
0
ARC
8
DEFAULT_255_1_234
10
4.6201424
20
68.818383
40
0.3693984
50
134.5302688
51
161.6210873
0
ARC
8
DEFAULT_255_1_234
10
4.7854613
20
68.7600895
40
0.5446739
50
161.2849839
51
174.2076652
0
ARC
8
DEFAULT_255_1_234
10
4.926155
20
68.7406787
40
0.6866274
50
173.7810589
51
174.9254635
0
ARC
8
DEFAULT_255_1_234
10
4.4711382
20
68.6023839
40
0.3033419
50
95.8330959
51
138.9954921
0
ARC
8
DEFAULT_255_1_234
10
4.4934738
20
68.4745375
40
0.4328947
50
89.8753725
51
97.0544009
0
ARC
8
DEFAULT_255_1_234
10
4.4982204
20
68.5580748
40
0.3493769
50
71.6407809
51
90.6240094
0
ARC
8
DEFAULT_255_1_234
10
4.5132777
20
68.6135082
40
0.2920396
50
39.6367836
51
71.019018
0
ARC
8
DEFAULT_255_1_234
10
4.449625
20
68.5584998
40
0.3761538
50
10.658731
51
39.9043955
0
ARC
8
DEFAULT_255_1_234
10
4.2948333
20
68.5248686
40
0.5345136
50
359.682601
51
11.132623
0
ARC
8
DEFAULT_255_1_234
10
4.2908464
20
68.517801
40
0.5385081
50
347.2486944
51
0.4369317
0
ARC
8
DEFAULT_255_1_234
10
4.4575941
20
68.4776807
40
0.3670249
50
318.1409698
51
347.6118597
0
ARC
8
DEFAULT_255_1_234
10
4.4900934
20
68.4509702
40
0.3250007
50
275.6342139
51
317.8248465
0
ARC
8
DEFAULT_255_1_234
10
4.4680045
20
68.5809219
40
0.4565864
50
269.8874292
51
276.7917694
0
ARC
8
DEFAULT_255_1_234
10
4.4625116
20
68.4783743
40
0.3540676
50
246.9140195
51
270.7437342
0
ARC
8
DEFAULT_255_1_234
10
4.4631506
20
68.4641384
40
0.3412781
50
218.1665114
51
245.878116
0
ARC
8
DEFAULT_255_1_234
10
4.5510967
20
68.5377279
40
0.455911
50
191.4115814
51
218.6077802
0
ARC
8
DEFAULT_255_1_234
10
4.7449056
20
68.5811833
40
0.6545001
50
179.6345085
51
191.7836486
0
ARC
8
DEFAULT_255_1_234
10
5.3031393
20
68.6490697
40
1.2127388
50
171.4525249
51
180.3158839
0
ARC
8
DEFAULT_255_1_234
10
4.8636269
20
68.7174608
40
0.7679464
50
157.9802646
51
171.6246686
0
ARC
8
DEFAULT_255_1_234
10
4.642229
20
68.8057421
40
0.5296008
50
141.4298019
51
157.854097
0
ARC
8
DEFAULT_255_1_234
10
4.578061
20
68.8511381
40
0.4511509
50
102.8715806
51
140.8564722
0
ARC
8
DEFAULT_255_1_234
10
4.6428226
20
68.6071552
40
0.7034845
50
90.3778349
51
103.5869322
0
ARC
8
DEFAULT_255_1_234
10
4.4690002
20
68.546673
40
0.2370698
50
89.8751008
51
126.2071704
0
ARC
8
DEFAULT_255_1_234
10
4.4735792
20
68.5312303
40
0.2522934
50
124.9745049
51
144.895901
0
ARC
8
DEFAULT_255_1_234
10
4.4559982
20
68.545556
40
0.2296779
50
145.2974905
51
160.2660252
0
ARC
8
DEFAULT_255_1_234
10
4.7632521
20
68.5653071
40
0.5234525
50
179.6514266
51
190.2855912
0
ARC
8
DEFAULT_255_1_234
10
4.5938658
20
68.5333786
40
0.3510893
50
190.0945431
51
207.5098196
0
ARC
8
DEFAULT_255_1_234
10
4.5372928
20
68.5064623
40
0.288489
50
207.9583163
51
216.3251085
0
ARC
8
DEFAULT_255_1_234
10
4.5033036
20
68.4785105
40
0.2445587
50
215.7661442
51
232.5456785
0
ARC
8
DEFAULT_255_1_234
10
4.4650019
20
68.4298482
40
0.1826382
50
232.8005391
51
270.6605633
0
ARC
8
DEFAULT_255_1_234
10
4.469572
20
68.4662612
40
0.2190529
50
269.35537
51
288.4744281
0
ARC
8
DEFAULT_255_1_234
10
4.4788617
20
68.4313118
40
0.1829749
50
289.1833337
51
322.9683818
0
ARC
8
DEFAULT_255_1_234
10
4.4177139
20
68.4795391
40
0.2608399
50
322.6007884
51
346.5182367
0
ARC
8
DEFAULT_255_1_234
10
4.3019735
20
68.5090616
40
0.3802777
50
346.2582162
51
358.7741648
0
ARC
8
DEFAULT_255_1_234
10
4.2001404
20
68.5145965
40
0.4822176
50
358.3755224
51
0.0098023
0
ARC
8
DEFAULT_255_1_234
10
4.2757591
20
68.5173657
40
0.4066078
50
359.6214041
51
11.2839074
0
ARC
8
DEFAULT_255_1_234
10
4.4034738
20
68.5440066
40
0.2761514
50
11.0482309
51
31.8146458
0
ARC
8
DEFAULT_255_1_234
10
4.4343781
20
68.5607584
40
0.2410679
50
32.3035391
51
38.082671
0
ARC
8
DEFAULT_255_1_234
10
4.4764441
20
68.5988662
40
0.1844966
50
36.825067
51
85.7415724
0
ARC
8
DEFAULT_255_1_234
10
4.4697274
20
68.5488301
40
0.2349122
50
85.0140713
51
90.0513278
0
LINE
8
DEFAULT_255_1_234
10
5.3297162
20
68.6978026
11
5.3297162
21
68.5765234
0
LINE
8
DEFAULT_255_1_234
10
5.3297162
20
68.5765234
11
4.9377673
21
68.5765234
0
LINE
8
DEFAULT_255_1_234
10
4.9377673
20
68.5765234
11
4.9377673
21
68.6978026
0
LINE
8
DEFAULT_255_1_234
10
4.9377673
20
68.6978026
11
5.3297162
21
68.6978026
0
LINE
8
DEFAULT_255_1_234
10
4.6100835
20
77.2481243
11
4.6365882
21
77.2481243
0
LINE
8
DEFAULT_255_1_234
10
4.6365882
20
77.2481243
11
4.6365882
21
77.122026
0
LINE
8
DEFAULT_255_1_234
10
4.6365882
20
77.122026
11
4.6092803
21
77.122026
0
LINE
8
DEFAULT_255_1_234
10
4.0623189
20
76.5228583
11
4.0623189
21
76.5798836
0
LINE
8
DEFAULT_255_1_234
10
4.2117093
20
76.5606075
11
4.2117093
21
76.5059917
0
ARC
8
DEFAULT_255_1_234
10
4.6145151
20
76.6222455
40
0.4998079
50
90.6001036
51
104.514704
0
ARC
8
DEFAULT_255_1_234
10
4.5756667
20
76.7667131
40
0.3502176
50
104.2855254
51
133.862935
0
ARC
8
DEFAULT_255_1_234
10
4.5920424
20
76.755883
40
0.3693984
50
134.5302688
51
161.6210873
0
ARC
8
DEFAULT_255_1_234
10
4.7573613
20
76.6975895
40
0.5446739
50
161.2849839
51
174.2076652
0
ARC
8
DEFAULT_255_1_234
10
4.898055
20
76.6781787
40
0.6866274
50
173.7810589
51
174.9254635
0
ARC
8
DEFAULT_255_1_234
10
4.4430382
20
76.5398839
40
0.3033419
50
95.8330959
51
138.9954921
0
ARC
8
DEFAULT_255_1_234
10
4.4653738
20
76.4120375
40
0.4328947
50
89.8753725
51
97.0544009
0
ARC
8
DEFAULT_255_1_234
10
4.4701204
20
76.4955748
40
0.3493769
50
71.6407809
51
90.6240094
0
ARC
8
DEFAULT_255_1_234
10
4.4851777
20
76.5510082
40
0.2920396
50
39.6367836
51
71.019018
0
ARC
8
DEFAULT_255_1_234
10
4.421525
20
76.4959998
40
0.3761538
50
10.658731
51
39.9043955
0
ARC
8
DEFAULT_255_1_234
10
4.2667333
20
76.4623686
40
0.5345136
50
359.682601
51
11.132623
0
ARC
8
DEFAULT_255_1_234
10
4.2627464
20
76.455301
40
0.5385081
50
347.2486944
51
0.4369317
0
ARC
8
DEFAULT_255_1_234
10
4.4294941
20
76.4151807
40
0.3670249
50
318.1409698
51
347.6118597
0
ARC
8
DEFAULT_255_1_234
10
4.4619934
20
76.3884702
40
0.3250007
50
275.6342139
51
317.8248465
0
ARC
8
DEFAULT_255_1_234
10
4.4399045
20
76.5184219
40
0.4565864
50
269.8874292
51
276.7917694
0
ARC
8
DEFAULT_255_1_234
10
4.4344116
20
76.4158743
40
0.3540676
50
246.9140195
51
270.7437342
0
ARC
8
DEFAULT_255_1_234
10
4.4350506
20
76.4016384
40
0.3412781
50
218.1665114
51
245.878116
0
ARC
8
DEFAULT_255_1_234
10
4.5229967
20
76.4752279
40
0.455911
50
191.4115814
51
218.6077802
0
ARC
8
DEFAULT_255_1_234
10
4.7168056
20
76.5186833
40
0.6545001
50
179.6345085
51
191.7836486
0
ARC
8
DEFAULT_255_1_234
10
5.2750393
20
76.5865697
40
1.2127388
50
171.4525249
51
180.3158839
0
ARC
8
DEFAULT_255_1_234
10
4.8355269
20
76.6549608
40
0.7679464
50
157.9802646
51
171.6246686
0
ARC
8
DEFAULT_255_1_234
10
4.614129
20
76.7432421
40
0.5296008
50
141.4298019
51
157.854097
0
ARC
8
DEFAULT_255_1_234
10
4.549961
20
76.7886381
40
0.4511509
50
102.8715806
51
140.8564722
0
ARC
8
DEFAULT_255_1_234
10
4.6147226
20
76.5446552
40
0.7034845
50
90.3778349
51
103.5869322
0
ARC
8
DEFAULT_255_1_234
10
4.4409002
20
76.484173
40
0.2370698
50
89.8751008
51
126.2071704
0
ARC
8
DEFAULT_255_1_234
10
4.4454792
20
76.4687303
40
0.2522934
50
124.9745049
51
144.895901
0
ARC
8
DEFAULT_255_1_234
10
4.4278982
20
76.483056
40
0.2296779
50
145.2974905
51
160.2660252
0
ARC
8
DEFAULT_255_1_234
10
4.7351521
20
76.5028071
40
0.5234525
50
179.6514266
51
190.2855912
0
ARC
8
DEFAULT_255_1_234
10
4.5657658
20
76.4708786
40
0.3510893
50
190.0945431
51
207.5098196
0
ARC
8
DEFAULT_255_1_234
10
4.5091928
20
76.4439623
40
0.288489
50
207.9583163
51
216.3251085
0
ARC
8
DEFAULT_255_1_234
10
4.4752036
20
76.4160105
40
0.2445587
50
215.7661442
51
232.5456785
0
ARC
8
DEFAULT_255_1_234
10
4.4369019
20
76.3673482
40
0.1826382
50
232.8005391
51
270.6605633
0
ARC
8
DEFAULT_255_1_234
10
4.441472
20
76.4037612
40
0.2190529
50
269.35537
51
288.4744281
0
ARC
8
DEFAULT_255_1_234
10
4.4507617
20
76.3688118
40
0.1829749
50
289.1833337
51
322.9683818
0
ARC
8
DEFAULT_255_1_234
10
4.3896139
20
76.4170391
40
0.2608399
50
322.6007884
51
346.5182367
0
ARC
8
DEFAULT_255_1_234
10
4.2738735
20
76.4465616
40
0.3802777
50
346.2582162
51
358.7741648
0
ARC
8
DEFAULT_255_1_234
10
4.1720404
20
76.4520965
40
0.4822176
50
358.3755224
51
0.0098023
0
ARC
8
DEFAULT_255_1_234
10
4.2476591
20
76.4548657
40
0.4066078
50
359.6214041
51
11.2839074
0
ARC
8
DEFAULT_255_1_234
10
4.3753738
20
76.4815066
40
0.2761514
50
11.0482309
51
31.8146458
0
ARC
8
DEFAULT_255_1_234
10
4.4062781
20
76.4982584
40
0.2410679
50
32.3035391
51
38.082671
0
ARC
8
DEFAULT_255_1_234
10
4.4483441
20
76.5363662
40
0.1844966
50
36.825067
51
85.7415724
0
ARC
8
DEFAULT_255_1_234
10
4.4416274
20
76.4863301
40
0.2349122
50
85.0140713
51
90.0513278
0
LINE
8
DEFAULT_255_1_234
10
5.4180764
20
77.0465276
11
5.4180764
21
76.7051788
0
LINE
8
DEFAULT_255_1_234
10
5.4180764
20
76.7051788
11
5.7441649
21
76.7051788
0
LINE
8
DEFAULT_255_1_234
10
5.7441649
20
76.7051788
11
5.7441649
21
76.5646233
0
LINE
8
DEFAULT_255_1_234
10
5.7441649
20
76.5646233
11
5.4180764
21
76.5646233
0
LINE
8
DEFAULT_255_1_234
10
5.4180764
20
76.5646233
11
5.4180764
21
76.1951634
0
LINE
8
DEFAULT_255_1_234
10
5.4180764
20
76.1951634
11
5.268686
21
76.1951634
0
LINE
8
DEFAULT_255_1_234
10
5.268686
20
76.1951634
11
5.268686
21
76.5646233
0
LINE
8
DEFAULT_255_1_234
10
5.268686
20
76.5646233
11
4.9425975
21
76.5646233
0
LINE
8
DEFAULT_255_1_234
10
4.9425975
20
76.5646233
11
4.9425975
21
76.7051788
0
LINE
8
DEFAULT_255_1_234
10
4.9425975
20
76.7051788
11
5.268686
21
76.7051788
0
LINE
8
DEFAULT_255_1_234
10
5.268686
20
76.7051788
11
5.268686
21
77.0465276
0
LINE
8
DEFAULT_255_1_234
10
5.268686
20
77.0465276
11
5.4180764
21
77.0465276
0
LINE
8
DEFAULT_255_1_234
10
4.2687235
20
84.5711963
11
4.1498538
21
84.6017169
0
LINE
8
DEFAULT_255_1_234
10
4.1498538
20
84.6017169
11
4.2092887
21
85.1848211
0
LINE
8
DEFAULT_255_1_234
10
4.2092887
20
85.1848211
11
4.8084563
21
85.1848211
0
LINE
8
DEFAULT_255_1_234
10
4.8084563
20
85.1848211
11
4.8084563
21
85.0474784
0
LINE
8
DEFAULT_255_1_234
10
4.8084563
20
85.0474784
11
4.335387
21
85.0474784
0
LINE
8
DEFAULT_255_1_234
10
4.335387
20
85.0474784
11
4.3000473
21
84.7286184
0
LINE
8
DEFAULT_255_1_234
10
4.1080888
20
84.3230156
11
4.2486442
21
84.3230156
0
LINE
8
DEFAULT_255_1_234
10
4.3080791
20
84.6033232
11
4.2687235
21
84.5711963
0
ARC
8
DEFAULT_255_1_234
10
4.4855257
20
84.410623
40
0.3681349
50
93.7182161
51
120.2538958
0
ARC
8
DEFAULT_255_1_234
10
4.494952
20
84.3298394
40
0.449379
50
89.9660152
51
94.2496022
0
ARC
8
DEFAULT_255_1_234
10
4.4990254
20
84.3887549
40
0.390482
50
73.8043271
51
90.5585896
0
ARC
8
DEFAULT_255_1_234
10
4.5225151
20
84.4745602
40
0.3015334
50
41.3071453
51
73.5430202
0
ARC
8
DEFAULT_255_1_234
10
4.4808978
20
84.4387324
40
0.3564457
50
13.5075983
51
41.2174222
0
ARC
8
DEFAULT_255_1_234
10
4.3167182
20
84.3957486
40
0.5261351
50
1.1331335
51
13.8829381
0
ARC
8
DEFAULT_255_1_234
10
4.1755551
20
84.3881665
40
0.6674378
50
359.9919444
51
1.544251
0
ARC
8
DEFAULT_255_1_234
10
4.3032377
20
84.384028
40
0.5397702
50
347.8572367
51
0.4293338
0
ARC
8
DEFAULT_255_1_234
10
4.4782695
20
84.3443736
40
0.3603188
50
323.673004
51
348.1672506
0
ARC
8
DEFAULT_255_1_234
10
4.5077203
20
84.3264168
40
0.3259678
50
316.8171152
51
323.1492751
0
ARC
8
DEFAULT_255_1_234
10
4.5138392
20
84.322746
40
0.3189975
50
281.8396411
51
316.5457803
0
ARC
8
DEFAULT_255_1_234
10
4.4762656
20
84.4782762
40
0.4789527
50
269.5770101
51
282.4214771
0
ARC
8
DEFAULT_255_1_234
10
4.4691467
20
84.4569125
40
0.45759
50
256.2427136
51
270.4486331
0
ARC
8
DEFAULT_255_1_234
10
4.439237
20
84.3369229
40
0.3339303
50
228.9023911
51
256.3314342
0
ARC
8
DEFAULT_255_1_234
10
4.4318602
20
84.3252746
40
0.32031
50
193.753695
51
228.5271154
0
ARC
8
DEFAULT_255_1_234
10
4.5556556
20
84.36158
40
0.4492253
50
184.924711
51
194.497588
0
ARC
8
DEFAULT_255_1_234
10
4.5749123
20
84.3651591
40
0.3289787
50
187.3600538
51
198.6732863
0
ARC
8
DEFAULT_255_1_234
10
4.4699417
20
84.3287674
40
0.217884
50
198.4451669
51
217.794479
0
ARC
8
DEFAULT_255_1_234
10
4.4403592
20
84.3078085
40
0.1816698
50
218.2887171
51
228.5612368
0
ARC
8
DEFAULT_255_1_234
10
4.4501379
20
84.3209963
40
0.1980329
50
228.9654866
51
258.1234728
0
ARC
8
DEFAULT_255_1_234
10
4.4707089
20
84.4090833
40
0.2884748
50
257.7258293
51
270.401361
0
ARC
8
DEFAULT_255_1_234
10
4.4751975
20
84.3645821
40
0.2439788
50
269.4204404
51
286.4209037
0
ARC
8
DEFAULT_255_1_234
10
4.4900463
20
84.3106657
40
0.1880666
50
286.7251356
51
320.600362
0
ARC
8
DEFAULT_255_1_234
10
4.4517288
20
84.3417595
40
0.2374121
50
320.6712579
51
344.5441685
0
ARC
8
DEFAULT_255_1_234
10
4.3360614
20
84.3757045
40
0.3579479
50
344.2412205
51
356.7357071
0
ARC
8
DEFAULT_255_1_234
10
4.2111763
20
84.3860444
40
0.4832297
50
356.3548756
51
0.0500261
0
ARC
8
DEFAULT_255_1_234
10
4.3448272
20
84.389165
40
0.3495889
50
359.5576869
51
12.953486
0
ARC
8
DEFAULT_255_1_234
10
4.4503169
20
84.4147434
40
0.2410532
50
12.6490276
51
41.6081334
0
ARC
8
DEFAULT_255_1_234
10
4.473354
20
84.4343321
40
0.2108218
50
41.7850273
51
85.9892764
0
ARC
8
DEFAULT_255_1_234
10
4.4610277
20
84.3530462
40
0.2928454
50
84.6957577
51
90.0676183
0
ARC
8
DEFAULT_255_1_234
10
4.4586761
20
84.2861716
40
0.3597255
50
89.6804936
51
99.1614436
0
ARC
8
DEFAULT_255_1_234
10
4.4381392
20
84.4089131
40
0.235281
50
98.9830931
51
113.8908934
0
ARC
8
DEFAULT_255_1_234
10
4.4151802
20
84.4630587
40
0.176479
50
114.1950727
51
127.3641004
0
LINE
8
DEFAULT_255_1_234
10
5.3297162
20
84.5728026
11
5.3297162
21
84.4515234
0
LINE
8
DEFAULT_255_1_234
10
5.3297162
20
84.4515234
11
4.9377673
21
84.4515234
0
LINE
8
DEFAULT_255_1_234
10
4.9377673
20
84.4515234
11
4.9377673
21
84.5728026
0
LINE
8
DEFAULT_255_1_234
10
4.9377673
20
84.5728026
11
5.3297162
21
84.5728026
0
LINE
8
DEFAULT_255_1_234
10
4.2406235
20
92.5086963
11
4.1217538
21
92.5392169
0
LINE
8
DEFAULT_255_1_234
10
4.1217538
20
92.5392169
11
4.1811887
21
93.1223211
0
LINE
8
DEFAULT_255_1_234
10
4.1811887
20
93.1223211
11
4.7803563
21
93.1223211
0
LINE
8
DEFAULT_255_1_234
10
4.7803563
20
93.1223211
11
4.7803563
21
92.9849784
0
LINE
8
DEFAULT_255_1_234
10
4.7803563
20
92.9849784
11
4.307287
21
92.9849784
0
LINE
8
DEFAULT_255_1_234
10
4.307287
20
92.9849784
11
4.2719473
21
92.6661184
0
LINE
8
DEFAULT_255_1_234
10
4.0799888
20
92.2605156
11
4.2205442
21
92.2605156
0
LINE
8
DEFAULT_255_1_234
10
4.2799791
20
92.5408232
11
4.2406235
21
92.5086963
0
ARC
8
DEFAULT_255_1_234
10
4.4574257
20
92.348123
40
0.3681349
50
93.7182161
51
120.2538958
0
ARC
8
DEFAULT_255_1_234
10
4.466852
20
92.2673394
40
0.449379
50
89.9660152
51
94.2496022
0
ARC
8
DEFAULT_255_1_234
10
4.4709254
20
92.3262549
40
0.390482
50
73.8043271
51
90.5585896
0
ARC
8
DEFAULT_255_1_234
10
4.4944151
20
92.4120602
40
0.3015334
50
41.3071453
51
73.5430202
0
ARC
8
DEFAULT_255_1_234
10
4.4527978
20
92.3762324
40
0.3564457
50
13.5075983
51
41.2174222
0
ARC
8
DEFAULT_255_1_234
10
4.2886182
20
92.3332486
40
0.5261351
50
1.1331335
51
13.8829381
0
ARC
8
DEFAULT_255_1_234
10
4.1474551
20
92.3256665
40
0.6674378
50
359.9919444
51
1.544251
0
ARC
8
DEFAULT_255_1_234
10
4.2751377
20
92.321528
40
0.5397702
50
347.8572367
51
0.4293338
0
ARC
8
DEFAULT_255_1_234
10
4.4501695
20
92.2818736
40
0.3603188
50
323.673004
51
348.1672506
0
ARC
8
DEFAULT_255_1_234
10
4.4796203
20
92.2639168
40
0.3259678
50
316.8171152
51
323.1492751
0
ARC
8
DEFAULT_255_1_234
10
4.4857392
20
92.260246
40
0.3189975
50
281.8396411
51
316.5457803
0
ARC
8
DEFAULT_255_1_234
10
4.4481656
20
92.4157762
40
0.4789527
50
269.5770101
51
282.4214771
0
ARC
8
DEFAULT_255_1_234
10
4.4410467
20
92.3944125
40
0.45759
50
256.2427136
51
270.4486331
0
ARC
8
DEFAULT_255_1_234
10
4.411137
20
92.2744229
40
0.3339303
50
228.9023911
51
256.3314342
0
ARC
8
DEFAULT_255_1_234
10
4.4037602
20
92.2627746
40
0.32031
50
193.753695
51
228.5271154
0
ARC
8
DEFAULT_255_1_234
10
4.5275556
20
92.29908
40
0.4492253
50
184.924711
51
194.497588
0
ARC
8
DEFAULT_255_1_234
10
4.5468123
20
92.3026591
40
0.3289787
50
187.3600538
51
198.6732863
0
ARC
8
DEFAULT_255_1_234
10
4.4418417
20
92.2662674
40
0.217884
50
198.4451669
51
217.794479
0
ARC
8
DEFAULT_255_1_234
10
4.4122592
20
92.2453085
40
0.1816698
50
218.2887171
51
228.5612368
0
ARC
8
DEFAULT_255_1_234
10
4.4220379
20
92.2584963
40
0.1980329
50
228.9654866
51
258.1234728
0
ARC
8
DEFAULT_255_1_234
10
4.4426089
20
92.3465833
40
0.2884748
50
257.7258293
51
270.401361
0
ARC
8
DEFAULT_255_1_234
10
4.4470975
20
92.3020821
40
0.2439788
50
269.4204404
51
286.4209037
0
ARC
8
DEFAULT_255_1_234
10
4.4619463
20
92.2481657
40
0.1880666
50
286.7251356
51
320.600362
0
ARC
8
DEFAULT_255_1_234
10
4.4236288
20
92.2792595
40
0.2374121
50
320.6712579
51
344.5441685
0
ARC
8
DEFAULT_255_1_234
10
4.3079614
20
92.3132045
40
0.3579479
50
344.2412205
51
356.7357071
0
ARC
8
DEFAULT_255_1_234
10
4.1830763
20
92.3235444
40
0.4832297
50
356.3548756
51
0.0500261
0
ARC
8
DEFAULT_255_1_234
10
4.3167272
20
92.326665
40
0.3495889
50
359.5576869
51
12.953486
0
ARC
8
DEFAULT_255_1_234
10
4.4222169
20
92.3522434
40
0.2410532
50
12.6490276
51
41.6081334
0
ARC
8
DEFAULT_255_1_234
10
4.445254
20
92.3718321
40
0.2108218
50
41.7850273
51
85.9892764
0
ARC
8
DEFAULT_255_1_234
10
4.4329277
20
92.2905462
40
0.2928454
50
84.6957577
51
90.0676183
0
ARC
8
DEFAULT_255_1_234
10
4.4305761
20
92.2236716
40
0.3597255
50
89.6804936
51
99.1614436
0
ARC
8
DEFAULT_255_1_234
10
4.4100392
20
92.3464131
40
0.235281
50
98.9830931
51
113.8908934
0
ARC
8
DEFAULT_255_1_234
10
4.3870802
20
92.4005587
40
0.176479
50
114.1950727
51
127.3641004
0
LINE
8
DEFAULT_255_1_234
10
5.4180764
20
92.9215276
11
5.4180764
21
92.5801788
0
LINE
8
DEFAULT_255_1_234
10
5.4180764
20
92.5801788
11
5.7441649
21
92.5801788
0
LINE
8
DEFAULT_255_1_234
10
5.7441649
20
92.5801788
11
5.7441649
21
92.4396233
0
LINE
8
DEFAULT_255_1_234
10
5.7441649
20
92.4396233
11
5.4180764
21
92.4396233
0
LINE
8
DEFAULT_255_1_234
10
5.4180764
20
92.4396233
11
5.4180764
21
92.0701634
0
LINE
8
DEFAULT_255_1_234
10
5.4180764
20
92.0701634
11
5.268686
21
92.0701634
0
LINE
8
DEFAULT_255_1_234
10
5.268686
20
92.0701634
11
5.268686
21
92.4396233
0
LINE
8
DEFAULT_255_1_234
10
5.268686
20
92.4396233
11
4.9425975
21
92.4396233
0
LINE
8
DEFAULT_255_1_234
10
4.9425975
20
92.4396233
11
4.9425975
21
92.5801788
0
LINE
8
DEFAULT_255_1_234
10
4.9425975
20
92.5801788
11
5.268686
21
92.5801788
0
LINE
8
DEFAULT_255_1_234
10
5.268686
20
92.5801788
11
5.268686
21
92.9215276
0
LINE
8
DEFAULT_255_1_234
10
5.268686
20
92.9215276
11
5.4180764
21
92.9215276
0
LINE
8
DEFAULT_255_1_234
10
4.8146628
20
101.0598211
11
4.8146628
21
100.283152
0
LINE
8
DEFAULT_255_1_234
10
4.8146628
20
100.283152
11
4.9769039
21
100.283152
0
LINE
8
DEFAULT_255_1_234
10
4.9769039
20
100.283152
11
4.9769039
21
100.1618728
0
LINE
8
DEFAULT_255_1_234
10
4.9769039
20
100.1618728
11
4.8146628
21
100.1618728
0
LINE
8
DEFAULT_255_1_234
10
4.8146628
20
100.1618728
11
4.8146628
21
99.8904
0
LINE
8
DEFAULT_255_1_234
10
4.8146628
20
99.8904
11
4.6652725
21
99.8904
0
LINE
8
DEFAULT_255_1_234
10
4.6652725
20
99.8904
11
4.6652725
21
100.1618728
0
LINE
8
DEFAULT_255_1_234
10
4.6652725
20
100.1618728
11
4.1327682
21
100.1618728
0
LINE
8
DEFAULT_255_1_234
10
4.1327682
20
100.1618728
11
4.1327682
21
100.2494187
0
LINE
8
DEFAULT_255_1_234
10
4.1327682
20
100.2494187
11
4.6564375
21
101.0598211
0
LINE
8
DEFAULT_255_1_234
10
4.6564375
20
101.0598211
11
4.8146628
21
101.0598211
0
LINE
8
DEFAULT_255_1_234
10
4.6476026
20
100.8244912
11
4.3014347
21
100.283152
0
LINE
8
DEFAULT_255_1_234
10
4.3014347
20
100.283152
11
4.6652725
21
100.283152
0
LINE
8
DEFAULT_255_1_234
10
4.6652725
20
100.283152
11
4.6652725
21
100.8566181
0
LINE
8
DEFAULT_255_1_234
10
4.6652725
20
100.8566181
11
4.6476026
21
100.8244912
0
LINE
8
DEFAULT_255_1_234
10
5.4355162
20
100.4478026
11
5.4355162
21
100.3265234
0
LINE
8
DEFAULT_255_1_234
10
5.4355162
20
100.3265234
11
5.0435673
21
100.3265234
0
LINE
8
DEFAULT_255_1_234
10
5.0435673
20
100.3265234
11
5.0435673
21
100.4478026
0
LINE
8
DEFAULT_255_1_234
10
5.0435673
20
100.4478026
11
5.4355162
21
100.4478026
0
LINE
8
DEFAULT_255_1_234
10
4.7865628
20
108.9973211
11
4.7865628
21
108.220652
0
LINE
8
DEFAULT_255_1_234
10
4.7865628
20
108.220652
11
4.9488039
21
108.220652
0
LINE
8
DEFAULT_255_1_234
10
4.9488039
20
108.220652
11
4.9488039
21
108.0993728
0
LINE
8
DEFAULT_255_1_234
10
4.9488039
20
108.0993728
11
4.7865628
21
108.0993728
0
LINE
8
DEFAULT_255_1_234
10
4.7865628
20
108.0993728
11
4.7865628
21
107.8279
0
LINE
8
DEFAULT_255_1_234
10
4.7865628
20
107.8279
11
4.6371725
21
107.8279
0
LINE
8
DEFAULT_255_1_234
10
4.6371725
20
107.8279
11
4.6371725
21
108.0993728
0
LINE
8
DEFAULT_255_1_234
10
4.6371725
20
108.0993728
11
4.1046682
21
108.0993728
0
LINE
8
DEFAULT_255_1_234
10
4.1046682
20
108.0993728
11
4.1046682
21
108.1869187
0
LINE
8
DEFAULT_255_1_234
10
4.1046682
20
108.1869187
11
4.6283375
21
108.9973211
0
LINE
8
DEFAULT_255_1_234
10
4.6283375
20
108.9973211
11
4.7865628
21
108.9973211
0
LINE
8
DEFAULT_255_1_234
10
4.6195026
20
108.7619912
11
4.2733347
21
108.220652
0
LINE
8
DEFAULT_255_1_234
10
4.2733347
20
108.220652
11
4.6371725
21
108.220652
0
LINE
8
DEFAULT_255_1_234
10
4.6371725
20
108.220652
11
4.6371725
21
108.7941181
0
LINE
8
DEFAULT_255_1_234
10
4.6371725
20
108.7941181
11
4.6195026
21
108.7619912
0
LINE
8
DEFAULT_255_1_234
10
5.5238764
20
108.7965276
11
5.5238764
21
108.4551788
0
LINE
8
DEFAULT_255_1_234
10
5.5238764
20
108.4551788
11
5.8499649
21
108.4551788
0
LINE
8
DEFAULT_255_1_234
10
5.8499649
20
108.4551788
11
5.8499649
21
108.3146233
0
LINE
8
DEFAULT_255_1_234
10
5.8499649
20
108.3146233
11
5.5238764
21
108.3146233
0
LINE
8
DEFAULT_255_1_234
10
5.5238764
20
108.3146233
11
5.5238764
21
107.9451634
0
LINE
8
DEFAULT_255_1_234
10
5.5238764
20
107.9451634
11
5.374486
21
107.9451634
0
LINE
8
DEFAULT_255_1_234
10
5.374486
20
107.9451634
11
5.374486
21
108.3146233
0
LINE
8
DEFAULT_255_1_234
10
5.374486
20
108.3146233
11
5.0483975
21
108.3146233
0
LINE
8
DEFAULT_255_1_234
10
5.0483975
20
108.3146233
11
5.0483975
21
108.4551788
0
LINE
8
DEFAULT_255_1_234
10
5.0483975
20
108.4551788
11
5.374486
21
108.4551788
0
LINE
8
DEFAULT_255_1_234
10
5.374486
20
108.4551788
11
5.374486
21
108.7965276
0
LINE
8
DEFAULT_255_1_234
10
5.374486
20
108.7965276
11
5.5238764
21
108.7965276
0
LINE
8
DEFAULT_255_1_234
10
4.2976378
20
116.3011169
11
4.2976378
21
116.4223962
0
LINE
8
DEFAULT_255_1_234
10
4.2976378
20
116.4223962
11
4.409279
21
116.4223962
0
LINE
8
DEFAULT_255_1_234
10
4.2189268
20
116.6280087
11
4.0703396
21
116.6280087
0
LINE
8
DEFAULT_255_1_234
10
4.0598983
20
116.0738188
11
4.2092887
21
116.0738188
0
LINE
8
DEFAULT_255_1_234
10
4.409279
20
116.3011169
11
4.2976378
21
116.3011169
0
ARC
8
DEFAULT_255_1_234
10
4.4063656
20
116.7616713
40
0.3392876
50
270.4919872
51
281.8951556
0
ARC
8
DEFAULT_255_1_234
10
4.4304918
20
116.6514702
40
0.2264817
50
281.6691735
51
301.2943132
0
ARC
8
DEFAULT_255_1_234
10
4.4475128
20
116.6203304
40
0.1910381
50
301.7833094
51
311.7545298
0
ARC
8
DEFAULT_255_1_234
10
4.4566704
20
116.6101748
40
0.1773635
50
311.7323931
51
354.2802411
0
ARC
8
DEFAULT_255_1_234
10
4.3840329
20
116.6226722
40
0.2509385
50
353.0937916
51
0.1181479
0
ARC
8
DEFAULT_255_1_234
10
4.3379114
20
116.6274386
40
0.2970898
50
359.1805295
51
15.0453146
0
ARC
8
DEFAULT_255_1_234
10
4.4724951
20
116.6666992
40
0.1569564
50
13.9577229
51
77.6713066
0
ARC
8
DEFAULT_255_1_234
10
4.433848
20
116.5281949
40
0.3006298
50
76.1116566
51
90.7026153
0
ARC
8
DEFAULT_255_1_234
10
4.4279318
20
116.5555545
40
0.2732568
50
89.5324876
51
103.531937
0
ARC
8
DEFAULT_255_1_234
10
4.4078762
20
116.6354884
40
0.1908508
50
103.2931773
51
133.5619022
0
ARC
8
DEFAULT_255_1_234
10
4.4034251
20
116.6414375
40
0.1834746
50
133.8349307
51
173.5344437
0
ARC
8
DEFAULT_255_1_234
10
4.4757294
20
116.6286213
40
0.2568033
50
172.5096846
51
180.1366907
0
ARC
8
DEFAULT_255_1_234
10
4.3806188
20
116.6320622
40
0.3103056
50
155.3484492
51
180.7484736
0
ARC
8
DEFAULT_255_1_234
10
4.3757277
20
116.6291846
40
0.3070957
50
131.5744599
51
154.4798489
0
ARC
8
DEFAULT_255_1_234
10
4.4070424
20
116.597531
40
0.3515643
50
96.9875458
51
131.9690667
0
ARC
8
DEFAULT_255_1_234
10
4.4289904
20
116.4729636
40
0.4779224
50
89.8596053
51
97.7825159
0
ARC
8
DEFAULT_255_1_234
10
4.4337967
20
116.4467616
40
0.5041361
50
78.3655447
51
90.4131539
0
ARC
8
DEFAULT_255_1_234
10
4.4695885
20
116.6126887
40
0.3344039
50
56.6229102
51
78.638727
0
ARC
8
DEFAULT_255_1_234
10
4.4910829
20
116.6502805
40
0.2912001
50
47.0253525
51
56.0854072
0
ARC
8
DEFAULT_255_1_234
10
4.4930609
20
116.6542223
40
0.2869704
50
10.9208013
51
46.7778124
0
ARC
8
DEFAULT_255_1_234
10
4.3566675
20
116.6226857
40
0.426899
50
359.6364486
51
11.6087304
0
ARC
8
DEFAULT_255_1_234
10
4.5401519
20
116.6211752
40
0.243409
50
332.3549906
51
359.7179418
0
ARC
8
DEFAULT_255_1_234
10
4.4751121
20
116.6520142
40
0.3153459
50
325.2333722
51
332.8745602
0
ARC
8
DEFAULT_255_1_234
10
4.4903744
20
116.6413828
40
0.2967456
50
292.9802137
51
325.2392345
0
ARC
8
DEFAULT_255_1_234
10
4.4629118
20
116.6947863
40
0.3566604
50
292.5402179
51
293.6924929
0
ARC
8
DEFAULT_255_1_234
10
4.5021714
20
116.0493091
40
0.3307468
50
57.6435486
51
72.8625112
0
ARC
8
DEFAULT_255_1_234
10
4.5376214
20
116.1067549
40
0.2632492
50
36.7248896
51
57.4697979
0
ARC
8
DEFAULT_255_1_234
10
4.5364847
20
116.108022
40
0.2634081
50
8.0545065
51
36.356114
0
ARC
8
DEFAULT_255_1_234
10
4.4502032
20
116.0925174
40
0.3510261
50
359.8320645
51
8.5869982
0
ARC
8
DEFAULT_255_1_234
10
4.4126808
20
116.0877101
40
0.3885653
50
343.9829931
51
0.5571613
0
ARC
8
DEFAULT_255_1_234
10
4.5013005
20
116.0634438
40
0.2966924
50
311.6359546
51
343.7651759
0
ARC
8
DEFAULT_255_1_234
10
4.4634574
20
116.1061102
40
0.3537231
50
279.7829875
51
311.6255694
0
ARC
8
DEFAULT_255_1_234
10
4.4333351
20
116.249828
40
0.5004971
50
269.7286406
51
280.3856417
0
ARC
8
DEFAULT_255_1_234
10
4.4271423
20
116.2456996
40
0.4963778
50
256.6828919
51
270.4412052
0
ARC
8
DEFAULT_255_1_234
10
4.3932719
20
116.1072394
40
0.3538406
50
229.4223008
51
256.8556159
0
ARC
8
DEFAULT_255_1_234
10
4.3518112
20
116.0605736
40
0.2914296
50
181.818294
51
229.6455059
0
ARC
8
DEFAULT_255_1_234
10
4.4558068
20
116.0736496
40
0.3959084
50
179.9755256
51
183.2323064
0
ARC
8
DEFAULT_255_1_234
10
4.4385814
20
116.0716037
40
0.2293034
50
179.4465117
51
196.2869258
0
ARC
8
DEFAULT_255_1_234
10
4.3898222
20
116.0582651
40
0.1787621
50
196.5661473
51
227.705904
0
ARC
8
DEFAULT_255_1_234
10
4.4062317
20
116.0766155
40
0.2033784
50
227.7652068
51
257.8762805
0
ARC
8
DEFAULT_255_1_234
10
4.4287287
20
116.1709156
40
0.3003081
50
257.4584385
51
270.426602
0
ARC
8
DEFAULT_255_1_234
10
4.4332853
20
116.1998996
40
0.329292
50
269.5962073
51
280.8789248
0
ARC
8
DEFAULT_255_1_234
10
4.4562382
20
116.0852685
40
0.2123908
50
280.6346389
51
299.8595945
0
ARC
8
DEFAULT_255_1_234
10
4.4753289
20
116.0490212
40
0.171457
50
300.3576302
51
314.5517981
0
ARC
8
DEFAULT_255_1_234
10
4.4670349
20
116.0550919
40
0.1816095
50
315.0728369
51
345.0431014
0
ARC
8
DEFAULT_255_1_234
10
4.3747163
20
116.0819841
40
0.2777492
50
344.5986631
51
357.9269593
0
ARC
8
DEFAULT_255_1_234
10
4.2851489
20
116.0881276
40
0.3674917
50
357.4748886
51
0.0231117
0
ARC
8
DEFAULT_255_1_234
10
4.3874599
20
116.0905679
40
0.2651907
50
359.5047933
51
13.4239635
0
ARC
8
DEFAULT_255_1_234
10
4.4741242
20
116.1127478
40
0.1757509
50
12.9498199
51
48.7551375
0
ARC
8
DEFAULT_255_1_234
10
4.4558976
20
116.08784
40
0.2065134
50
49.5088623
51
72.1836453
0
ARC
8
DEFAULT_255_1_234
10
4.4201129
20
115.9816291
40
0.3185836
50
71.9010081
51
84.3554254
0
ARC
8
DEFAULT_255_1_234
10
4.4039761
20
115.8455326
40
0.4556151
50
84.0193428
51
89.333121
0
LINE
8
DEFAULT_255_1_234
10
5.3297162
20
116.3228026
11
5.3297162
21
116.2015234
0
LINE
8
DEFAULT_255_1_234
10
5.3297162
20
116.2015234
11
4.9377673
21
116.2015234
0
LINE
8
DEFAULT_255_1_234
10
4.9377673
20
116.2015234
11
4.9377673
21
116.3228026
0
LINE
8
DEFAULT_255_1_234
10
4.9377673
20
116.3228026
11
5.3297162
21
116.3228026
0
LINE
8
DEFAULT_255_1_234
10
4.2695378
20
124.2386169
11
4.2695378
21
124.3598962
0
LINE
8
DEFAULT_255_1_234
10
4.2695378
20
124.3598962
11
4.381179
21
124.3598962
0
LINE
8
DEFAULT_255_1_234
10
4.1908268
20
124.5655087
11
4.0422396
21
124.5655087
0
LINE
8
DEFAULT_255_1_234
10
4.0317983
20
124.0113188
11
4.1811887
21
124.0113188
0
LINE
8
DEFAULT_255_1_234
10
4.381179
20
124.2386169
11
4.2695378
21
124.2386169
0
ARC
8
DEFAULT_255_1_234
10
4.3782656
20
124.6991713
40
0.3392876
50
270.4919872
51
281.8951556
0
ARC
8
DEFAULT_255_1_234
10
4.4023918
20
124.5889702
40
0.2264817
50
281.6691735
51
301.2943132
0
ARC
8
DEFAULT_255_1_234
10
4.4194128
20
124.5578304
40
0.1910381
50
301.7833094
51
311.7545298
0
ARC
8
DEFAULT_255_1_234
10
4.4285704
20
124.5476748
40
0.1773635
50
311.7323931
51
354.2802411
0
ARC
8
DEFAULT_255_1_234
10
4.3559329
20
124.5601722
40
0.2509385
50
353.0937916
51
0.1181479
0
ARC
8
DEFAULT_255_1_234
10
4.3098114
20
124.5649386
40
0.2970898
50
359.1805295
51
15.0453146
0
ARC
8
DEFAULT_255_1_234
10
4.4443951
20
124.6041992
40
0.1569564
50
13.9577229
51
77.6713066
0
ARC
8
DEFAULT_255_1_234
10
4.405748
20
124.4656949
40
0.3006298
50
76.1116566
51
90.7026153
0
ARC
8
DEFAULT_255_1_234
10
4.3998318
20
124.4930545
40
0.2732568
50
89.5324876
51
103.531937
0
ARC
8
DEFAULT_255_1_234
10
4.3797762
20
124.5729884
40
0.1908508
50
103.2931773
51
133.5619022
0
ARC
8
DEFAULT_255_1_234
10
4.3753251
20
124.5789375
40
0.1834746
50
133.8349307
51
173.5344437
0
ARC
8
DEFAULT_255_1_234
10
4.4476294
20
124.5661213
40
0.2568033
50
172.5096846
51
180.1366907
0
ARC
8
DEFAULT_255_1_234
10
4.3525188
20
124.5695622
40
0.3103056
50
155.3484492
51
180.7484736
0
ARC
8
DEFAULT_255_1_234
10
4.3476277
20
124.5666846
40
0.3070957
50
131.5744599
51
154.4798489
0
ARC
8
DEFAULT_255_1_234
10
4.3789424
20
124.535031
40
0.3515643
50
96.9875458
51
131.9690667
0
ARC
8
DEFAULT_255_1_234
10
4.4008904
20
124.4104636
40
0.4779224
50
89.8596053
51
97.7825159
0
ARC
8
DEFAULT_255_1_234
10
4.4056967
20
124.3842616
40
0.5041361
50
78.3655447
51
90.4131539
0
ARC
8
DEFAULT_255_1_234
10
4.4414885
20
124.5501887
40
0.3344039
50
56.6229102
51
78.638727
0
ARC
8
DEFAULT_255_1_234
10
4.4629829
20
124.5877805
40
0.2912001
50
47.0253525
51
56.0854072
0
ARC
8
DEFAULT_255_1_234
10
4.4649609
20
124.5917223
40
0.2869704
50
10.9208013
51
46.7778124
0
ARC
8
DEFAULT_255_1_234
10
4.3285675
20
124.5601857
40
0.426899
50
359.6364486
51
11.6087304
0
ARC
8
DEFAULT_255_1_234
10
4.5120519
20
124.5586752
40
0.243409
50
332.3549906
51
359.7179418
0
ARC
8
DEFAULT_255_1_234
10
4.4470121
20
124.5895142
40
0.3153459
50
325.2333722
51
332.8745602
0
ARC
8
DEFAULT_255_1_234
10
4.4622744
20
124.5788828
40
0.2967456
50
292.9802137
51
325.2392345
0
ARC
8
DEFAULT_255_1_234
10
4.4348118
20
124.6322863
40
0.3566604
50
292.5402179
51
293.6924929
0
ARC
8
DEFAULT_255_1_234
10
4.4740714
20
123.9868091
40
0.3307468
50
57.6435486
51
72.8625112
0
ARC
8
DEFAULT_255_1_234
10
4.5095214
20
124.0442549
40
0.2632492
50
36.7248896
51
57.4697979
0
ARC
8
DEFAULT_255_1_234
10
4.5083847
20
124.045522
40
0.2634081
50
8.0545065
51
36.356114
0
ARC
8
DEFAULT_255_1_234
10
4.4221032
20
124.0300174
40
0.3510261
50
359.8320645
51
8.5869982
0
ARC
8
DEFAULT_255_1_234
10
4.3845808
20
124.0252101
40
0.3885653
50
343.9829931
51
0.5571613
0
ARC
8
DEFAULT_255_1_234
10
4.4732005
20
124.0009438
40
0.2966924
50
311.6359546
51
343.7651759
0
ARC
8
DEFAULT_255_1_234
10
4.4353574
20
124.0436102
40
0.3537231
50
279.7829875
51
311.6255694
0
ARC
8
DEFAULT_255_1_234
10
4.4052351
20
124.187328
40
0.5004971
50
269.7286406
51
280.3856417
0
ARC
8
DEFAULT_255_1_234
10
4.3990423
20
124.1831996
40
0.4963778
50
256.6828919
51
270.4412052
0
ARC
8
DEFAULT_255_1_234
10
4.3651719
20
124.0447394
40
0.3538406
50
229.4223008
51
256.8556159
0
ARC
8
DEFAULT_255_1_234
10
4.3237112
20
123.9980736
40
0.2914296
50
181.818294
51
229.6455059
0
ARC
8
DEFAULT_255_1_234
10
4.4277068
20
124.0111496
40
0.3959084
50
179.9755256
51
183.2323064
0
ARC
8
DEFAULT_255_1_234
10
4.4104814
20
124.0091037
40
0.2293034
50
179.4465117
51
196.2869258
0
ARC
8
DEFAULT_255_1_234
10
4.3617222
20
123.9957651
40
0.1787621
50
196.5661473
51
227.705904
0
ARC
8
DEFAULT_255_1_234
10
4.3781317
20
124.0141155
40
0.2033784
50
227.7652068
51
257.8762805
0
ARC
8
DEFAULT_255_1_234
10
4.4006287
20
124.1084156
40
0.3003081
50
257.4584385
51
270.426602
0
ARC
8
DEFAULT_255_1_234
10
4.4051853
20
124.1373996
40
0.329292
50
269.5962073
51
280.8789248
0
ARC
8
DEFAULT_255_1_234
10
4.4281382
20
124.0227685
40
0.2123908
50
280.6346389
51
299.8595945
0
ARC
8
DEFAULT_255_1_234
10
4.4472289
20
123.9865212
40
0.171457
50
300.3576302
51
314.5517981
0
ARC
8
DEFAULT_255_1_234
10
4.4389349
20
123.9925919
40
0.1816095
50
315.0728369
51
345.0431014
0
ARC
8
DEFAULT_255_1_234
10
4.3466163
20
124.0194841
40
0.2777492
50
344.5986631
51
357.9269593
0
ARC
8
DEFAULT_255_1_234
10
4.2570489
20
124.0256276
40
0.3674917
50
357.4748886
51
0.0231117
0
ARC
8
DEFAULT_255_1_234
10
4.3593599
20
124.0280679
40
0.2651907
50
359.5047933
51
13.4239635
0
ARC
8
DEFAULT_255_1_234
10
4.4460242
20
124.0502478
40
0.1757509
50
12.9498199
51
48.7551375
0
ARC
8
DEFAULT_255_1_234
10
4.4277976
20
124.02534
40
0.2065134
50
49.5088623
51
72.1836453
0
ARC
8
DEFAULT_255_1_234
10
4.3920129
20
123.9191291
40
0.3185836
50
71.9010081
51
84.3554254
0
ARC
8
DEFAULT_255_1_234
10
4.3758761
20
123.7830326
40
0.4556151
50
84.0193428
51
89.333121
0
LINE
8
DEFAULT_255_1_234
10
5.4180764
20
124.6715276
11
5.4180764
21
124.3301788
0
LINE
8
DEFAULT_255_1_234
10
5.4180764
20
124.3301788
11
5.7441649
21
124.3301788
0
LINE
8
DEFAULT_255_1_234
10
5.7441649
20
124.3301788
11
5.7441649
21
124.1896233
0
LINE
8
DEFAULT_255_1_234
10
5.7441649
20
124.1896233
11
5.4180764
21
124.1896233
0
LINE
8
DEFAULT_255_1_234
10
5.4180764
20
124.1896233
11
5.4180764
21
123.8201634
0
LINE
8
DEFAULT_255_1_234
10
5.4180764
20
123.8201634
11
5.268686
21
123.8201634
0
LINE
8
DEFAULT_255_1_234
10
5.268686
20
123.8201634
11
5.268686
21
124.1896233
0
LINE
8
DEFAULT_255_1_234
10
5.268686
20
124.1896233
11
4.9425975
21
124.1896233
0
LINE
8
DEFAULT_255_1_234
10
4.9425975
20
124.1896233
11
4.9425975
21
124.3301788
0
LINE
8
DEFAULT_255_1_234
10
4.9425975
20
124.3301788
11
5.268686
21
124.3301788
0
LINE
8
DEFAULT_255_1_234
10
5.268686
20
124.3301788
11
5.268686
21
124.6715276
0
LINE
8
DEFAULT_255_1_234
10
5.268686
20
124.6715276
11
5.4180764
21
124.6715276
0
LINE
8
DEFAULT_255_1_234
10
4.8478119
20
131.7616792
11
4.8478119
21
131.6404
0
LINE
8
DEFAULT_255_1_234
10
4.8478119
20
131.6404
11
4.081584
21
131.6404
0
LINE
8
DEFAULT_255_1_234
10
4.081584
20
131.6404
11
4.081584
21
131.7472221
0
LINE
8
DEFAULT_255_1_234
10
4.081584
20
131.7472221
11
4.4863836
21
132.1969995
0
LINE
8
DEFAULT_255_1_234
10
4.2076823
20
132.4652595
11
4.0590952
21
132.4652595
0
LINE
8
DEFAULT_255_1_234
10
4.5739296
20
132.1014218
11
4.2606918
21
131.7616792
0
LINE
8
DEFAULT_255_1_234
10
4.2606918
20
131.7616792
11
4.8478119
21
131.7616792
0
ARC
8
DEFAULT_255_1_234
10
3.137367
20
133.3899527
40
1.8008286
50
318.5132453
51
320.7828378
0
ARC
8
DEFAULT_255_1_234
10
3.6660644
20
132.9596426
40
1.1191493
50
320.7372736
51
323.9737074
0
ARC
8
DEFAULT_255_1_234
10
4.0580501
20
132.6756361
40
0.6350923
50
323.8961724
51
328.6421089
0
ARC
8
DEFAULT_255_1_234
10
4.2627096
20
132.5494031
40
0.3946393
50
328.8299013
51
331.789948
0
ARC
8
DEFAULT_255_1_234
10
4.3624274
20
132.4979509
40
0.2824501
50
331.4255242
51
352.9364833
0
ARC
8
DEFAULT_255_1_234
10
4.3760775
20
132.4948976
40
0.2685315
50
353.2248685
51
0.0169286
0
ARC
8
DEFAULT_255_1_234
10
4.3970652
20
132.497195
40
0.2475536
50
359.4866256
51
15.9339782
0
ARC
8
DEFAULT_255_1_234
10
4.4477637
20
132.5108286
40
0.1950618
50
16.1714718
51
43.5284424
0
ARC
8
DEFAULT_255_1_234
10
4.4554946
20
132.5185573
40
0.184134
50
43.4415429
51
83.1661404
0
ARC
8
DEFAULT_255_1_234
10
4.4420864
20
132.4448771
40
0.258926
50
82.160215
51
90.1505798
0
ARC
8
DEFAULT_255_1_234
10
4.4389291
20
132.3911865
40
0.3126255
50
89.5460705
51
102.5418777
0
ARC
8
DEFAULT_255_1_234
10
4.4146377
20
132.4942665
40
0.2067346
50
102.1739365
51
129.2061916
0
ARC
8
DEFAULT_255_1_234
10
4.4067449
20
132.5067094
40
0.1921118
50
129.7279328
51
135.7542026
0
ARC
8
DEFAULT_255_1_234
10
4.4188977
20
132.4970045
40
0.2075944
50
136.175737
51
166.3674722
0
ARC
8
DEFAULT_255_1_234
10
4.5195896
20
132.4700182
40
0.3118201
50
165.9092917
51
178.8683903
0
ARC
8
DEFAULT_255_1_234
10
4.6060757
20
132.4653179
40
0.3983935
50
178.438168
51
180.0083905
0
ARC
8
DEFAULT_255_1_234
10
4.4659359
20
132.4692231
40
0.4068601
50
163.2878735
51
180.5581814
0
ARC
8
DEFAULT_255_1_234
10
4.3857621
20
132.491284
40
0.3237344
50
133.454115
51
162.9470031
0
ARC
8
DEFAULT_255_1_234
10
4.4036162
20
132.4723
40
0.349795
50
100.7869394
51
133.4384016
0
ARC
8
DEFAULT_255_1_234
10
4.4383934
20
132.3174319
40
0.5084616
50
89.6605301
51
101.3704185
0
ARC
8
DEFAULT_255_1_234
10
4.4450273
20
132.3235496
40
0.502348
50
78.2171172
51
90.4130393
0
ARC
8
DEFAULT_255_1_234
10
4.4805351
20
132.4859637
40
0.3361092
50
55.9268222
51
78.4888551
0
ARC
8
DEFAULT_255_1_234
10
4.5001791
20
132.5198324
40
0.2970617
50
47.9292255
51
55.4054003
0
ARC
8
DEFAULT_255_1_234
10
4.5103352
20
132.5301502
40
0.2825983
50
4.3347696
51
48.0560701
0
ARC
8
DEFAULT_255_1_234
10
4.4007745
20
132.5131601
40
0.393225
50
359.925209
51
5.5967654
0
ARC
8
DEFAULT_255_1_234
10
4.4436637
20
132.5187816
40
0.3503892
50
337.8914096
51
358.9967724
0
ARC
8
DEFAULT_255_1_234
10
4.1723049
20
132.6234706
40
0.6412172
50
326.9135351
51
338.3505194
0
ARC
8
DEFAULT_255_1_234
10
3.7737353
20
132.8789284
40
1.1146189
50
319.6472867
51
327.095818
0
ARC
8
DEFAULT_255_1_234
10
3.3904356
20
133.1951
40
1.6114559
50
317.2586784
51
319.9046139
0
LINE
8
DEFAULT_255_1_234
10
5.3297162
20
132.1978026
11
5.3297162
21
132.0765234
0
LINE
8
DEFAULT_255_1_234
10
5.3297162
20
132.0765234
11
4.9377673
21
132.0765234
0
LINE
8
DEFAULT_255_1_234
10
4.9377673
20
132.0765234
11
4.9377673
21
132.1978026
0
LINE
8
DEFAULT_255_1_234
10
4.9377673
20
132.1978026
11
5.3297162
21
132.1978026
0
LINE
8
DEFAULT_255_1_234
10
4.8197119
20
139.6991792
11
4.8197119
21
139.5779
0
LINE
8
DEFAULT_255_1_234
10
4.8197119
20
139.5779
11
4.053484
21
139.5779
0
LINE
8
DEFAULT_255_1_234
10
4.053484
20
139.5779
11
4.053484
21
139.6847221
0
LINE
8
DEFAULT_255_1_234
10
4.053484
20
139.6847221
11
4.4582836
21
140.1344995
0
LINE
8
DEFAULT_255_1_234
10
4.1795823
20
140.4027595
11
4.0309952
21
140.4027595
0
LINE
8
DEFAULT_255_1_234
10
4.5458296
20
140.0389218
11
4.2325918
21
139.6991792
0
LINE
8
DEFAULT_255_1_234
10
4.2325918
20
139.6991792
11
4.8197119
21
139.6991792
0
ARC
8
DEFAULT_255_1_234
10
3.109267
20
141.3274527
40
1.8008286
50
318.5132453
51
320.7828378
0
ARC
8
DEFAULT_255_1_234
10
3.6379644
20
140.8971426
40
1.1191493
50
320.7372736
51
323.9737074
0
ARC
8
DEFAULT_255_1_234
10
4.0299501
20
140.6131361
40
0.6350923
50
323.8961724
51
328.6421089
0
ARC
8
DEFAULT_255_1_234
10
4.2346096
20
140.4869031
40
0.3946393
50
328.8299013
51
331.789948
0
ARC
8
DEFAULT_255_1_234
10
4.3343274
20
140.4354509
40
0.2824501
50
331.4255242
51
352.9364833
0
ARC
8
DEFAULT_255_1_234
10
4.3479775
20
140.4323976
40
0.2685315
50
353.2248685
51
0.0169286
0
ARC
8
DEFAULT_255_1_234
10
4.3689652
20
140.434695
40
0.2475536
50
359.4866256
51
15.9339782
0
ARC
8
DEFAULT_255_1_234
10
4.4196637
20
140.4483286
40
0.1950618
50
16.1714718
51
43.5284424
0
ARC
8
DEFAULT_255_1_234
10
4.4273946
20
140.4560573
40
0.184134
50
43.4415429
51
83.1661404
0
ARC
8
DEFAULT_255_1_234
10
4.4139864
20
140.3823771
40
0.258926
50
82.160215
51
90.1505798
0
ARC
8
DEFAULT_255_1_234
10
4.4108291
20
140.3286865
40
0.3126255
50
89.5460705
51
102.5418777
0
ARC
8
DEFAULT_255_1_234
10
4.3865377
20
140.4317665
40
0.2067346
50
102.1739365
51
129.2061916
0
ARC
8
DEFAULT_255_1_234
10
4.3786449
20
140.4442094
40
0.1921118
50
129.7279328
51
135.7542026
0
ARC
8
DEFAULT_255_1_234
10
4.3907977
20
140.4345045
40
0.2075944
50
136.175737
51
166.3674722
0
ARC
8
DEFAULT_255_1_234
10
4.4914896
20
140.4075182
40
0.3118201
50
165.9092917
51
178.8683903
0
ARC
8
DEFAULT_255_1_234
10
4.5779757
20
140.4028179
40
0.3983935
50
178.438168
51
180.0083905
0
ARC
8
DEFAULT_255_1_234
10
4.4378359
20
140.4067231
40
0.4068601
50
163.2878735
51
180.5581814
0
ARC
8
DEFAULT_255_1_234
10
4.3576621
20
140.428784
40
0.3237344
50
133.454115
51
162.9470031
0
ARC
8
DEFAULT_255_1_234
10
4.3755162
20
140.4098
40
0.349795
50
100.7869394
51
133.4384016
0
ARC
8
DEFAULT_255_1_234
10
4.4102934
20
140.2549319
40
0.5084616
50
89.6605301
51
101.3704185
0
ARC
8
DEFAULT_255_1_234
10
4.4169273
20
140.2610496
40
0.502348
50
78.2171172
51
90.4130393
0
ARC
8
DEFAULT_255_1_234
10
4.4524351
20
140.4234637
40
0.3361092
50
55.9268222
51
78.4888551
0
ARC
8
DEFAULT_255_1_234
10
4.4720791
20
140.4573324
40
0.2970617
50
47.9292255
51
55.4054003
0
ARC
8
DEFAULT_255_1_234
10
4.4822352
20
140.4676502
40
0.2825983
50
4.3347696
51
48.0560701
0
ARC
8
DEFAULT_255_1_234
10
4.3726745
20
140.4506601
40
0.393225
50
359.925209
51
5.5967654
0
ARC
8
DEFAULT_255_1_234
10
4.4155637
20
140.4562816
40
0.3503892
50
337.8914096
51
358.9967724
0
ARC
8
DEFAULT_255_1_234
10
4.1442049
20
140.5609706
40
0.6412172
50
326.9135351
51
338.3505194
0
ARC
8
DEFAULT_255_1_234
10
3.7456353
20
140.8164284
40
1.1146189
50
319.6472867
51
327.095818
0
ARC
8
DEFAULT_255_1_234
10
3.3623356
20
141.1326
40
1.6114559
50
317.2586784
51
319.9046139
0
LINE
8
DEFAULT_255_1_234
10
5.4180764
20
140.5465276
11
5.4180764
21
140.2051788
0
LINE
8
DEFAULT_255_1_234
10
5.4180764
20
140.2051788
11
5.7441649
21
140.2051788
0
LINE
8
DEFAULT_255_1_234
10
5.7441649
20
140.2051788
11
5.7441649
21
140.0646233
0
LINE
8
DEFAULT_255_1_234
10
5.7441649
20
140.0646233
11
5.4180764
21
140.0646233
0
LINE
8
DEFAULT_255_1_234
10
5.4180764
20
140.0646233
11
5.4180764
21
139.6951634
0
LINE
8
DEFAULT_255_1_234
10
5.4180764
20
139.6951634
11
5.268686
21
139.6951634
0
LINE
8
DEFAULT_255_1_234
10
5.268686
20
139.6951634
11
5.268686
21
140.0646233
0
LINE
8
DEFAULT_255_1_234
10
5.268686
20
140.0646233
11
4.9425975
21
140.0646233
0
LINE
8
DEFAULT_255_1_234
10
4.9425975
20
140.0646233
11
4.9425975
21
140.2051788
0
LINE
8
DEFAULT_255_1_234
10
4.9425975
20
140.2051788
11
5.268686
21
140.2051788
0
LINE
8
DEFAULT_255_1_234
10
5.268686
20
140.2051788
11
5.268686
21
140.5465276
0
LINE
8
DEFAULT_255_1_234
10
5.268686
20
140.5465276
11
5.4180764
21
140.5465276
0
LINE
8
DEFAULT_255_1_234
10
4.5699137
20
148.6904433
11
4.5699137
21
147.5154
0
LINE
8
DEFAULT_255_1_234
10
4.5699137
20
147.5154
11
4.4205234
21
147.5154
0
LINE
8
DEFAULT_255_1_234
10
4.4205234
20
147.5154
11
4.4205234
21
148.5057133
0
LINE
8
DEFAULT_255_1_234
10
4.4205234
20
148.5057133
11
4.1209396
21
148.3956785
0
LINE
8
DEFAULT_255_1_234
10
4.1209396
20
148.3956785
11
4.1209396
21
148.5306117
0
LINE
8
DEFAULT_255_1_234
10
4.1209396
20
148.5306117
11
4.5466217
21
148.6904433
0
LINE
8
DEFAULT_255_1_234
10
4.5466217
20
148.6904433
11
4.5699137
21
148.6904433
0
LINE
8
DEFAULT_255_1_234
10
5.3297162
20
148.0728026
11
5.3297162
21
147.9515234
0
LINE
8
DEFAULT_255_1_234
10
5.3297162
20
147.9515234
11
4.9377673
21
147.9515234
0
LINE
8
DEFAULT_255_1_234
10
4.9377673
20
147.9515234
11
4.9377673
21
148.0728026
0
LINE
8
DEFAULT_255_1_234
10
4.9377673
20
148.0728026
11
5.3297162
21
148.0728026
0
LINE
8
DEFAULT_255_1_234
10
4.5418137
20
156.6279433
11
4.5418137
21
155.4529
0
LINE
8
DEFAULT_255_1_234
10
4.5418137
20
155.4529
11
4.3924234
21
155.4529
0
LINE
8
DEFAULT_255_1_234
10
4.3924234
20
155.4529
11
4.3924234
21
156.4432133
0
LINE
8
DEFAULT_255_1_234
10
4.3924234
20
156.4432133
11
4.0928396
21
156.3331785
0
LINE
8
DEFAULT_255_1_234
10
4.0928396
20
156.3331785
11
4.0928396
21
156.4681117
0
LINE
8
DEFAULT_255_1_234
10
4.0928396
20
156.4681117
11
4.5185217
21
156.6279433
0
LINE
8
DEFAULT_255_1_234
10
4.5185217
20
156.6279433
11
4.5418137
21
156.6279433
0
LINE
8
DEFAULT_255_1_234
10
5.4180764
20
156.4215276
11
5.4180764
21
156.0801788
0
LINE
8
DEFAULT_255_1_234
10
5.4180764
20
156.0801788
11
5.7441649
21
156.0801788
0
LINE
8
DEFAULT_255_1_234
10
5.7441649
20
156.0801788
11
5.7441649
21
155.9396233
0
LINE
8
DEFAULT_255_1_234
10
5.7441649
20
155.9396233
11
5.4180764
21
155.9396233
0
LINE
8
DEFAULT_255_1_234
10
5.4180764
20
155.9396233
11
5.4180764
21
155.5701634
0
LINE
8
DEFAULT_255_1_234
10
5.4180764
20
155.5701634
11
5.268686
21
155.5701634
0
LINE
8
DEFAULT_255_1_234
10
5.268686
20
155.5701634
11
5.268686
21
155.9396233
0
LINE
8
DEFAULT_255_1_234
10
5.268686
20
155.9396233
11
4.9425975
21
155.9396233
0
LINE
8
DEFAULT_255_1_234
10
4.9425975
20
155.9396233
11
4.9425975
21
156.0801788
0
LINE
8
DEFAULT_255_1_234
10
4.9425975
20
156.0801788
11
5.268686
21
156.0801788
0
LINE
8
DEFAULT_255_1_234
10
5.268686
20
156.0801788
11
5.268686
21
156.4215276
0
LINE
8
DEFAULT_255_1_234
10
5.268686
20
156.4215276
11
5.4180764
21
156.4215276
0
LINE
8
DEFAULT_255_1_234
10
23.1643817
20
164.0819327
11
23.1643817
21
163.8891709
0
LINE
8
DEFAULT_255_1_234
10
22.426265
20
163.8690916
11
22.426265
21
164.0674755
0
LINE
8
DEFAULT_255_1_234
10
23.0157946
20
163.8490123
11
23.0157946
21
164.0923739
0
LINE
8
DEFAULT_255_1_234
10
22.5748521
20
164.1036184
11
22.5748521
21
163.8658789
0
ARC
8
DEFAULT_255_1_234
10
21.9396707
20
163.8842805
40
1.2247208
50
353.8441951
51
0.2287902
0
ARC
8
DEFAULT_255_1_234
10
22.4036211
20
163.8324806
40
0.7578929
50
344.4934747
51
353.9765454
0
ARC
8
DEFAULT_255_1_234
10
22.7028801
20
163.7473981
40
0.4467846
50
329.2803592
51
344.7472793
0
ARC
8
DEFAULT_255_1_234
10
22.8021626
20
163.6929018
40
0.3336173
50
324.9352394
51
328.6160465
0
ARC
8
DEFAULT_255_1_234
10
22.8398734
20
163.6665427
40
0.2876076
50
280.580143
51
324.9173126
0
ARC
8
DEFAULT_255_1_234
10
22.7997527
20
163.8336099
40
0.4592847
50
269.5977311
51
281.6734359
0
ARC
8
DEFAULT_255_1_234
10
22.7925433
20
163.8216173
40
0.4472986
50
256.6228859
51
270.51044
0
ARC
8
DEFAULT_255_1_234
10
22.752341
20
163.6667877
40
0.2873874
50
215.8618325
51
257.2788573
0
ARC
8
DEFAULT_255_1_234
10
22.8544442
20
163.7352977
40
0.4102928
50
197.9693508
51
215.2623606
0
ARC
8
DEFAULT_255_1_234
10
23.1029558
20
163.8191709
40
0.6725652
50
187.8816417
51
198.2346507
0
ARC
8
DEFAULT_255_1_234
10
23.4987766
20
163.8763079
40
1.0724845
50
180.8976217
51
188.0055519
0
ARC
8
DEFAULT_255_1_234
10
23.7787954
20
163.8866777
40
1.3526448
50
180.7449369
51
181.1510016
0
ARC
8
DEFAULT_255_1_234
10
23.6210683
20
164.0723042
40
1.1948131
50
173.7675579
51
180.231553
0
ARC
8
DEFAULT_255_1_234
10
23.169283
20
164.1233666
40
0.7401564
50
164.3058563
51
173.9002247
0
ARC
8
DEFAULT_255_1_234
10
22.8780899
20
164.2072656
40
0.4371288
50
148.7922025
51
164.568378
0
ARC
8
DEFAULT_255_1_234
10
22.7829351
20
164.2603929
40
0.3282386
50
144.5883898
51
148.1176286
0
ARC
8
DEFAULT_255_1_234
10
22.7486249
20
164.2843315
40
0.2864044
50
101.6440918
51
144.514236
0
ARC
8
DEFAULT_255_1_234
10
22.7911315
20
164.1154069
40
0.4604934
50
89.5284041
51
102.5819763
0
ARC
8
DEFAULT_255_1_234
10
22.7990403
20
164.1115018
40
0.464401
50
77.0437873
51
90.5081339
0
ARC
8
DEFAULT_255_1_234
10
22.8392405
20
164.2757615
40
0.2953195
50
48.2778575
51
77.4994676
0
ARC
8
DEFAULT_255_1_234
10
22.8465036
20
164.2886746
40
0.2808655
50
36.3142134
51
47.6305865
0
ARC
8
DEFAULT_255_1_234
10
22.7596343
20
164.2301515
40
0.3855453
50
18.2931786
51
35.6769206
0
ARC
8
DEFAULT_255_1_234
10
22.5053102
20
164.1428593
40
0.654423
50
8.024666
51
18.5605216
0
ARC
8
DEFAULT_255_1_234
10
22.0890022
20
164.0813792
40
1.0752407
50
1.1274072
51
8.1718305
0
ARC
8
DEFAULT_255_1_234
10
21.7654213
20
164.0686885
40
1.3990231
50
0.5424119
51
1.3863029
0
ARC
8
DEFAULT_255_1_234
10
21.947559
20
164.0959342
40
1.0682415
50
359.8090433
51
4.9407866
0
ARC
8
DEFAULT_255_1_234
10
22.3685604
20
164.1335113
40
0.6455691
50
4.8362157
51
12.2904523
0
ARC
8
DEFAULT_255_1_234
10
22.6440719
20
164.1948965
40
0.3633074
50
12.0805627
51
23.8173984
0
ARC
8
DEFAULT_255_1_234
10
22.7614425
20
164.2445919
40
0.2358723
50
24.2871213
51
31.3935614
0
ARC
8
DEFAULT_255_1_234
10
22.8139122
20
164.2789233
40
0.1732111
50
30.7407893
51
82.4657128
0
ARC
8
DEFAULT_255_1_234
10
22.7959256
20
164.1905691
40
0.263235
50
81.1060089
51
90.2184952
0
ARC
8
DEFAULT_255_1_234
10
22.7923555
20
164.2163924
40
0.2374236
50
89.3806855
51
105.6762551
0
ARC
8
DEFAULT_255_1_234
10
22.7740186
20
164.2830567
40
0.1682847
50
105.7981136
51
149.7388061
0
ARC
8
DEFAULT_255_1_234
10
22.8804264
20
164.219095
40
0.2924306
50
149.4208916
51
163.6286378
0
ARC
8
DEFAULT_255_1_234
10
23.0895152
20
164.155325
40
0.5110213
50
163.3763315
51
172.1410975
0
ARC
8
DEFAULT_255_1_234
10
23.4195871
20
164.1080518
40
0.8444586
50
172.0259487
51
178.0703232
0
ARC
8
DEFAULT_255_1_234
10
23.722596
20
164.0936906
40
1.1477868
50
177.8631668
51
179.5044149
0
ARC
8
DEFAULT_255_1_234
10
23.6153365
20
163.8622389
40
1.0404907
50
179.7995573
51
185.2460446
0
ARC
8
DEFAULT_255_1_234
10
23.2110404
20
163.8239513
40
0.6343885
50
185.1411642
51
193.0079639
0
ARC
8
DEFAULT_255_1_234
10
22.9466877
20
163.7614641
40
0.3627568
50
192.7897626
51
205.2507664
0
ARC
8
DEFAULT_255_1_234
10
22.8420424
20
163.7147415
40
0.2481908
50
205.8005384
51
211.2537509
0
ARC
8
DEFAULT_255_1_234
10
22.7896864
20
163.679658
40
0.1852521
50
210.3789793
51
238.4008143
0
ARC
8
DEFAULT_255_1_234
10
22.7877386
20
163.6843376
40
0.1882621
50
239.6520629
51
265.9793761
0
ARC
8
DEFAULT_255_1_234
10
22.7962586
20
163.7515427
40
0.2559272
50
265.1315437
51
270.060332
0
ARC
8
DEFAULT_255_1_234
10
22.7991365
20
163.7191534
40
0.2235528
50
269.3314664
51
287.2178029
0
ARC
8
DEFAULT_255_1_234
10
22.8129217
20
163.6688279
40
0.1714108
50
287.7958004
51
329.080874
0
ARC
8
DEFAULT_255_1_234
10
22.7171674
20
163.728593
40
0.2842745
50
328.6634704
51
343.3325132
0
ARC
8
DEFAULT_255_1_234
10
22.4998694
20
163.7962863
40
0.5118644
50
343.0499468
51
351.9393422
0
ARC
8
DEFAULT_255_1_234
10
22.1531994
20
163.8473949
40
0.8622784
50
351.8069023
51
357.7959224
0
ARC
8
DEFAULT_255_1_234
10
21.829655
20
163.8641721
40
1.1862365
50
357.5871873
51
359.2677531
0
LINE
8
DEFAULT_255_1_234
10
23.4479021
20
164.5598211
11
23.7804161
21
163.5952093
0
LINE
8
DEFAULT_255_1_234
10
23.7804161
20
163.5952093
11
24.1145364
21
164.5598211
0
LINE
8
DEFAULT_255_1_234
10
24.1145364
20
164.5598211
11
24.2832029
21
164.5598211
0
LINE
8
DEFAULT_255_1_234
10
24.2832029
20
164.5598211
11
23.849489
21
163.3904
0
LINE
8
DEFAULT_255_1_234
10
23.849489
20
163.3904
11
23.7129495
21
163.3904
0
LINE
8
DEFAULT_255_1_234
10
23.7129495
20
163.3904
11
23.2800388
21
164.5598211
0
LINE
8
DEFAULT_255_1_234
10
23.2800388
20
164.5598211
11
23.4479021
21
164.5598211
0
ENDSEC
0
EOF