0
SECTION
2
HEADER
9
$MEASUREMENT
70
1
0
ENDSEC
0
SECTION
2
TABLES
0
TABLE
2
LTYPE
0
LTYPE
72
65
70
64
2
CONTINUOUS
3
______
73
0
40
0
0
ENDTAB
0
TABLE
2
LAYER
0
LAYER
2
DEFAULT_255_2_778
70
0
62
255
6
CONTINUOUS
0
LAYER
2
DEFAULT_255_2_778_1
70
0
62
255
6
CONTINUOUS
0
LAYER
2
DEFAULT_255_1_234
70
0
62
255
6
CONTINUOUS
0
ENDTAB
0
ENDSEC
0
SECTION
2
ENTITIES
0
ARC
8
DEFAULT_255_2_778
10
3.5700693
20
107.5552026
40
0.7914215
50
129.1312896
51
180.1450914
0
ARC
8
DEFAULT_255_2_778
10
3.5703345
20
107.5556897
40
0.7912112
50
89.854026
51
129.1684493
0
ARC
8
DEFAULT_255_2_778
10
25.7993937
20
107.5553762
40
0.7915249
50
39.4792447
51
90.147911
0
ARC
8
DEFAULT_255_2_778
10
25.7999935
20
107.5552229
40
0.7911595
50
359.8533901
51
39.5154338
0
ARC
8
DEFAULT_255_2_778
10
25.7996693
20
-1.9863497
40
0.7914836
50
309.4761667
51
0.1482649
0
ARC
8
DEFAULT_255_2_778
10
25.799398
20
-1.9867808
40
0.7913235
50
269.8517415
51
309.511178
0
ARC
8
DEFAULT_255_2_778
10
3.570342
20
-1.9867226
40
0.7913815
50
219.1282118
51
270.1454017
0
ARC
8
DEFAULT_255_2_778
10
3.5700247
20
-1.9863401
40
0.7913769
50
179.8524075
51
219.1641908
0
LINE
8
DEFAULT_255_2_778
10
3.5723503
20
108.3468985
11
25.7973503
21
108.3468985
0
LINE
8
DEFAULT_255_2_778
10
26.5911503
20
107.5531985
11
26.5911503
21
-1.9843015
0
LINE
8
DEFAULT_255_2_778
10
25.7973503
20
-2.7781015
11
3.5723503
21
-2.7781015
0
LINE
8
DEFAULT_255_2_778
10
2.7786503
20
-1.9843015
11
2.7786503
21
107.5531985
0
ARC
8
DEFAULT_255_2_778
10
15.2718323
20
106.111689
40
0.3782009
50
0.4397807
51
91.3045231
0
ARC
8
DEFAULT_255_2_778
10
15.2696879
20
106.1094064
40
0.3803695
50
269.0259909
51
0.7811192
0
ARC
8
DEFAULT_255_2_778
10
15.4288293
20
106.0969643
40
0.7639615
50
290.7362057
51
357.8000295
0
ARC
8
DEFAULT_255_2_778
10
15.3436031
20
106.1145235
40
0.8499188
50
356.8376875
51
0.0046095
0
ARC
8
DEFAULT_255_2_778
10
15.3422443
20
106.1145748
40
0.8512778
50
0.0011515
51
85.3589632
0
ARC
8
DEFAULT_255_2_778
10
15.3422371
20
106.0955092
40
0.8702827
50
85.4600549
51
90.0075769
0
ARC
8
DEFAULT_255_2_778
10
20.173385
20
106.1052426
40
0.3845507
50
1.3931151
51
90.158378
0
ARC
8
DEFAULT_255_2_778
10
20.2329096
20
106.0988635
40
0.8684198
50
359.7643557
51
42.1181505
0
ARC
8
DEFAULT_255_2_778
10
20.2353156
20
106.0992931
40
0.866348
50
42.2037872
51
87.9292218
0
ARC
8
DEFAULT_255_2_778
10
20.2305626
20
106.0580097
40
0.9077821
50
87.7235759
51
90.0025578
0
ARC
8
DEFAULT_255_2_778
10
12.9264947
20
106.1121344
40
0.3777354
50
0.3727528
51
91.1638813
0
ARC
8
DEFAULT_255_2_778
10
12.9805692
20
106.0988595
40
0.8684602
50
359.7646302
51
42.1161032
0
ARC
8
DEFAULT_255_2_778
10
12.9830774
20
106.0994127
40
0.8662296
50
42.2002176
51
87.9268901
0
ARC
8
DEFAULT_255_2_778
10
12.9783626
20
106.0583749
40
0.9074169
50
87.7231194
51
90.002558
0
ARC
8
DEFAULT_255_2_778
10
17.559042
20
105.7070858
40
1.2841942
50
233.3100129
51
270.0348017
0
ARC
8
DEFAULT_255_2_778
10
17.5711133
20
105.7274622
40
1.3077482
50
187.7860459
51
233.4193197
0
ARC
8
DEFAULT_255_2_778
10
17.5893588
20
105.7290185
40
1.3260368
50
179.9838663
51
187.7458681
0
ARC
8
DEFAULT_255_2_778
10
17.5478523
20
105.7296375
40
1.2845303
50
143.7084173
51
180.0109545
0
ARC
8
DEFAULT_255_2_778
10
17.5629238
20
105.7245899
40
1.2996747
50
94.9692901
51
143.9223324
0
ARC
8
DEFAULT_255_2_778
10
17.5597032
20
105.7252347
40
1.2987573
50
89.9947559
51
94.8302073
0
ARC
8
DEFAULT_255_2_778
10
17.5619339
20
105.7194304
40
1.3045632
50
58.1407344
51
90.0927508
0
ARC
8
DEFAULT_255_2_778
10
17.5700831
20
105.7250662
40
1.2954809
50
3.5056409
51
58.315291
0
ARC
8
DEFAULT_255_2_778
10
17.5711163
20
105.7291563
40
1.2942058
50
359.9971467
51
3.3277024
0
ARC
8
DEFAULT_255_2_778
10
17.3826088
20
105.7270483
40
1.4827147
50
0.006083
51
0.0789681
0
ARC
8
DEFAULT_255_2_778
10
17.5604187
20
105.7272022
40
1.3049047
50
315.0308293
51
0.0001529
0
ARC
8
DEFAULT_255_2_778
10
17.5609377
20
105.7269521
40
1.3043608
50
270.000667
51
315.0224921
0
LINE
8
DEFAULT_255_2_778
10
17.5609529
20
104.4225914
11
17.5598221
21
104.4225919
0
ARC
8
DEFAULT_255_2_778
10
17.5640812
20
105.7254112
40
0.7580313
50
269.6780691
51
315.5292436
0
ARC
8
DEFAULT_255_2_778
10
17.5610107
20
105.7246878
40
0.7597205
50
315.7303962
51
0.2857903
0
ARC
8
DEFAULT_255_2_778
10
17.8487376
20
105.7289382
40
0.4719845
50
359.944048
51
0.0186519
0
ARC
8
DEFAULT_255_2_778
10
17.5687772
20
105.7279605
40
0.7519457
50
0.086204
51
85.4319233
0
ARC
8
DEFAULT_255_2_778
10
17.5599609
20
105.6855338
40
0.7949581
50
85.0420495
51
90.0100075
0
ARC
8
DEFAULT_255_2_778
10
17.5579396
20
105.7422519
40
0.7382424
50
89.8538973
51
89.9999976
0
ARC
8
DEFAULT_255_2_778
10
17.558077
20
105.7293044
40
0.7511899
50
90.01048
51
134.9443097
0
ARC
8
DEFAULT_255_2_778
10
17.5582947
20
105.7291222
40
0.7514726
50
134.9462486
51
180.0023145
0
ARC
8
DEFAULT_255_2_778
10
17.5708624
20
105.7251875
40
0.7640503
50
179.7072119
51
222.5790813
0
ARC
8
DEFAULT_255_2_778
10
17.5579296
20
105.7141475
40
0.7470579
50
222.6267201
51
270.1451401
0
ARC
8
DEFAULT_255_2_778
10
9.564442
20
105.7070858
40
1.2841942
50
233.3100129
51
270.0348017
0
ARC
8
DEFAULT_255_2_778
10
9.5765133
20
105.7274622
40
1.3077482
50
187.7860459
51
233.4193197
0
ARC
8
DEFAULT_255_2_778
10
9.5947588
20
105.7290185
40
1.3260368
50
179.9838663
51
187.7458681
0
ARC
8
DEFAULT_255_2_778
10
9.5535129
20
105.7294961
40
1.2847909
50
143.1940819
51
180.0046489
0
ARC
8
DEFAULT_255_2_778
10
9.5683078
20
105.7248006
40
1.2994598
50
94.9233187
51
143.4191345
0
ARC
8
DEFAULT_255_2_778
10
9.5651008
20
105.725512
40
1.2984798
50
89.9946509
51
94.7850278
0
ARC
8
DEFAULT_255_2_778
10
9.5673902
20
105.7193441
40
1.3046496
50
58.1428905
51
90.0952196
0
ARC
8
DEFAULT_255_2_778
10
9.5758177
20
105.7254453
40
1.2950254
50
3.2656058
51
58.3171105
0
ARC
8
DEFAULT_255_2_778
10
9.5763693
20
105.7294485
40
1.2942527
50
359.997494
51
3.0900664
0
ARC
8
DEFAULT_255_2_778
10
9.5936718
20
105.7272448
40
1.276952
50
359.9949307
51
0.0963391
0
ARC
8
DEFAULT_255_2_778
10
9.5663093
20
105.7272585
40
1.3043147
50
315.0200668
51
359.994431
0
ARC
8
DEFAULT_255_2_778
10
9.5663338
20
105.72702
40
1.3041287
50
270.0008363
51
315.026719
0
LINE
8
DEFAULT_255_2_778
10
9.5663529
20
104.4228914
11
9.5652221
21
104.4228919
0
ARC
8
DEFAULT_255_2_778
10
9.5694412
20
105.7254135
40
0.7580334
50
269.6810953
51
315.6152252
0
ARC
8
DEFAULT_255_2_778
10
9.5663839
20
105.7247381
40
0.7597504
50
315.8129036
51
0.3254485
0
ARC
8
DEFAULT_255_2_778
10
9.5738176
20
105.7276565
40
0.7523058
50
0.1093155
51
85.7820321
0
ARC
8
DEFAULT_255_2_778
10
9.5653381
20
105.6861263
40
0.7943655
50
85.3923987
51
90.0083732
0
ARC
8
DEFAULT_255_2_778
10
9.5633385
20
105.7413348
40
0.7391595
50
89.8539942
51
89.9999859
0
ARC
8
DEFAULT_255_2_778
10
9.563405
20
105.7294783
40
0.7510159
50
90.0050654
51
134.9497993
0
ARC
8
DEFAULT_255_2_778
10
9.5632746
20
105.7292963
40
0.7510526
50
134.9329452
51
180.0155944
0
ARC
8
DEFAULT_255_2_778
10
9.5762945
20
105.7251612
40
0.7640826
50
179.7052536
51
222.5741919
0
ARC
8
DEFAULT_255_2_778
10
9.5632805
20
105.7141163
40
0.7470269
50
222.6256588
51
270.1489141
0
LINE
8
DEFAULT_255_2_778
10
14.0768221
20
106.9451919
11
14.0768221
21
104.4823919
0
LINE
8
DEFAULT_255_2_778
10
14.0768221
20
104.4823919
11
14.6203221
21
104.4823919
0
LINE
8
DEFAULT_255_2_778
10
14.6203221
20
104.4823919
11
14.6203221
21
106.4897919
0
LINE
8
DEFAULT_255_2_778
10
14.6203221
20
106.4897919
11
15.2632221
21
106.4897919
0
LINE
8
DEFAULT_255_2_778
10
15.2632221
20
105.7290919
11
14.7986221
21
105.7290919
0
LINE
8
DEFAULT_255_2_778
10
14.7986221
20
105.7290919
11
15.6397221
21
104.4820919
0
LINE
8
DEFAULT_255_2_778
10
15.6397221
20
104.4820919
11
16.3126221
21
104.4820919
0
LINE
8
DEFAULT_255_2_778
10
16.3126221
20
104.4820919
11
15.6993221
21
105.3824919
0
LINE
8
DEFAULT_255_2_778
10
15.3421221
20
106.9657919
11
14.6200221
21
106.9657919
0
LINE
8
DEFAULT_255_2_778
10
14.6200221
20
106.9657919
11
14.0766221
21
106.9451919
0
LINE
8
DEFAULT_255_2_778
10
14.0766221
20
106.9451919
11
14.0768221
21
106.9451919
0
LINE
8
DEFAULT_255_2_778
10
19.0142221
20
106.9451919
11
19.0142221
21
104.4823919
0
LINE
8
DEFAULT_255_2_778
10
19.0142221
20
104.4823919
11
19.5577221
21
104.4823919
0
LINE
8
DEFAULT_255_2_778
10
19.5577221
20
104.4823919
11
19.5577221
21
106.4897919
0
LINE
8
DEFAULT_255_2_778
10
19.5577221
20
106.4897919
11
20.1723221
21
106.4897919
0
LINE
8
DEFAULT_255_2_778
10
20.5578221
20
106.1145919
11
20.5578221
21
104.4823919
0
LINE
8
DEFAULT_255_2_778
10
20.5578221
20
104.4823919
11
21.1013221
21
104.4823919
0
LINE
8
DEFAULT_255_2_778
10
21.1013221
20
104.4823919
11
21.1013221
21
106.0952919
0
LINE
8
DEFAULT_255_2_778
10
20.2305221
20
106.9657919
11
19.5577221
21
106.9657919
0
LINE
8
DEFAULT_255_2_778
10
19.5577221
20
106.9657919
11
19.0142221
21
106.9451919
0
LINE
8
DEFAULT_255_2_778
10
19.0142221
20
106.9451919
11
19.0142221
21
106.9451919
0
LINE
8
DEFAULT_255_2_778
10
11.0196221
20
106.9451919
11
11.0196221
21
104.4823919
0
LINE
8
DEFAULT_255_2_778
10
11.0196221
20
104.4823919
11
11.5628221
21
104.4823919
0
LINE
8
DEFAULT_255_2_778
10
11.5628221
20
104.4823919
11
11.5628221
21
106.4897919
0
LINE
8
DEFAULT_255_2_778
10
11.5628221
20
106.4897919
11
12.1671221
21
106.4897919
0
LINE
8
DEFAULT_255_2_778
10
12.1671221
20
106.4897919
11
12.1671221
21
104.4823919
0
LINE
8
DEFAULT_255_2_778
10
12.1671221
20
104.4823919
11
12.7105221
21
104.4823919
0
LINE
8
DEFAULT_255_2_778
10
12.7105221
20
104.4823919
11
12.7105221
21
106.4897919
0
LINE
8
DEFAULT_255_2_778
10
12.7105221
20
106.4897919
11
12.9188221
21
106.4897919
0
LINE
8
DEFAULT_255_2_778
10
13.3042221
20
106.1145919
11
13.3042221
21
104.4823919
0
LINE
8
DEFAULT_255_2_778
10
13.3042221
20
104.4823919
11
13.8490221
21
104.4823919
0
LINE
8
DEFAULT_255_2_778
10
13.8490221
20
104.4823919
11
13.8490221
21
106.0952919
0
LINE
8
DEFAULT_255_2_778
10
12.9783221
20
106.9657919
11
11.5731221
21
106.9657919
0
LINE
8
DEFAULT_255_2_778
10
11.5731221
20
106.9657919
11
11.0193221
21
106.9451919
0
LINE
8
DEFAULT_255_2_778
10
11.0193221
20
106.9451919
11
11.0196221
21
106.9451919
0
LINE
8
DEFAULT_255_2_778
10
17.5598221
20
104.4225919
11
17.5598221
21
104.4228919
0
LINE
8
DEFAULT_255_2_778
10
9.5652221
20
104.4228919
11
9.5652221
21
104.4228919
0
LINE
8
DEFAULT_255_2_778
10
10.7161417
20
46.1697488
11
10.7161417
21
5.1593488
0
LINE
8
DEFAULT_255_2_778
10
10.7161417
20
5.1593488
11
9.3932417
21
5.1593488
0
LINE
8
DEFAULT_255_2_778
10
9.3932417
20
92.4718488
11
10.7161417
21
92.4718488
0
LINE
8
DEFAULT_255_2_778
10
10.7161417
20
92.4718488
11
10.7161417
21
51.4614488
0
LINE
8
DEFAULT_255_2_778
10
9.3932834
20
51.4614333
11
12.0390834
21
51.4614333
0
LINE
8
DEFAULT_255_2_778
10
12.0390834
20
51.4614333
11
12.0390834
21
46.1697333
0
LINE
8
DEFAULT_255_2_778
10
12.0390834
20
46.1697333
11
9.3932834
21
46.1697333
0
LINE
8
DEFAULT_255_2_778
10
9.3932834
20
46.1697333
11
9.3932834
21
51.4614333
0
ARC
8
DEFAULT_255_2_778_1
10
13.1928591
20
46.272177
40
4.816461
50
120.9442904
51
122.351755
0
ARC
8
DEFAULT_255_2_778_1
10
12.7462523
20
46.9758039
40
3.9830657
50
122.3407904
51
124.1946752
0
ARC
8
DEFAULT_255_2_778_1
10
12.3063464
20
47.6223306
40
3.2010724
50
124.1855758
51
126.4338849
0
ARC
8
DEFAULT_255_2_778_1
10
11.9204129
20
48.1450611
40
2.5513094
50
126.4326926
51
128.8877368
0
ARC
8
DEFAULT_255_2_778_1
10
11.5855968
20
48.5594658
40
2.0185498
50
128.8749205
51
131.8726567
0
ARC
8
DEFAULT_255_2_778_1
10
11.2884677
20
48.8904854
40
1.5737356
50
131.8616166
51
135.4168838
0
ARC
8
DEFAULT_255_2_778_1
10
11.025668
20
49.1486765
40
1.2053256
50
135.3893975
51
139.9687014
0
ARC
8
DEFAULT_255_2_778_1
10
10.7927889
20
49.3435102
40
0.9016937
50
139.9301659
51
145.9260426
0
ARC
8
DEFAULT_255_2_778_1
10
10.596654
20
49.4755104
40
0.6652776
50
145.8787362
51
153.8146208
0
ARC
8
DEFAULT_255_2_778_1
10
10.4445553
20
49.5498797
40
0.4959714
50
153.770634
51
164.3484794
0
ARC
8
DEFAULT_255_2_778_1
10
10.3432387
20
49.5780786
40
0.3908039
50
164.3220276
51
179.8083066
0
ARC
8
DEFAULT_255_2_778_1
10
10.3642789
20
49.586215
40
0.4118985
50
180.9499449
51
213.8111542
0
ARC
8
DEFAULT_255_2_778_1
10
10.6401828
20
49.7557896
40
0.73561
50
212.8271214
51
224.258472
0
ARC
8
DEFAULT_255_2_778_1
10
11.0230335
20
50.1251236
40
1.267567
50
224.1376218
51
231.4508261
0
ARC
8
DEFAULT_255_2_778_1
10
11.6657195
20
50.9281168
40
2.2960809
50
231.3955893
51
236.1256478
0
ARC
8
DEFAULT_255_2_778_1
10
13.4980223
20
53.6746293
40
5.5976905
50
236.2233172
51
239.1314682
0
ARC
8
DEFAULT_255_2_778_1
10
25.447927
20
73.4023568
40
28.6623793
50
238.8606853
51
239.0711101
0
ARC
8
DEFAULT_255_2_778_1
10
6.2757281
20
41.3052653
40
8.7248518
50
57.2420924
51
59.4062964
0
ARC
8
DEFAULT_255_2_778_1
10
9.5034241
20
46.3362102
40
2.747542
50
52.8289294
51
57.079028
0
ARC
8
DEFAULT_255_2_778_1
10
10.2780783
20
47.3565488
40
1.466457
50
46.3041868
51
52.8596521
0
ARC
8
DEFAULT_255_2_778_1
10
10.7103073
20
47.8066842
40
0.8424061
50
36.2174211
51
46.4090895
0
ARC
8
DEFAULT_255_2_778_1
10
10.9948088
20
48.0115128
40
0.4918609
50
17.400375
51
36.5489745
0
ARC
8
DEFAULT_255_2_778_1
10
11.1088994
20
48.0513754
40
0.3710912
50
0.0676858
51
16.7951297
0
ARC
8
DEFAULT_255_2_778_1
10
11.0878613
20
48.0532428
40
0.3921317
50
343.8035191
51
359.7912046
0
ARC
8
DEFAULT_255_2_778_1
10
10.9815912
20
48.0837167
40
0.5026844
50
333.2506233
51
343.8465691
0
ARC
8
DEFAULT_255_2_778_1
10
10.8277757
20
48.1604313
40
0.6745679
50
325.6600948
51
333.3122657
0
ARC
8
DEFAULT_255_2_778_1
10
10.6323344
20
48.2932296
40
0.9108568
50
319.7560915
51
325.6976089
0
ARC
8
DEFAULT_255_2_778_1
10
10.404199
20
48.4850002
40
1.2088854
50
315.4577584
51
319.8037947
0
ARC
8
DEFAULT_255_2_778_1
10
10.1408127
20
48.7438507
40
1.5781764
50
311.7298824
51
315.4670864
0
ARC
8
DEFAULT_255_2_778_1
10
9.8317879
20
49.0894074
40
2.0417554
50
308.723055
51
311.7470879
0
ARC
8
DEFAULT_255_2_778_1
10
9.477589
20
49.5306492
40
2.6075745
50
306.1165163
51
308.7300151
0
ARC
8
DEFAULT_255_2_778_1
10
9.0746091
20
50.0819523
40
3.2904564
50
303.9559446
51
306.1266333
0
ARC
8
DEFAULT_255_2_778_1
10
8.6630432
20
50.691215
40
4.0257023
50
302.3733397
51
303.9712246
0
ARC
8
DEFAULT_255_2_778_1
10
8.2434347
20
51.3527058
40
4.8090549
50
300.9434827
51
302.3758078
0
LINE
8
DEFAULT_255_1_234
10
10.168023
20
-0.2802337
11
10.3230355
21
-0.2802337
0
LINE
8
DEFAULT_255_1_234
10
9.4226777
20
-0.1212053
11
9.4226777
21
-0.0087609
0
LINE
8
DEFAULT_255_1_234
10
10.3230355
20
0.1422357
11
10.168023
21
0.1422357
0
LINE
8
DEFAULT_255_1_234
10
9.5776902
20
-0.0127768
11
9.5776902
21
-0.1260243
0
ARC
8
DEFAULT_255_1_234
10
9.7749742
20
-0.2205154
40
0.5513052
50
340.1774281
51
353.7814284
0
ARC
8
DEFAULT_255_1_234
10
9.9321095
20
-0.2790418
40
0.3836379
50
311.4558989
51
340.4421614
0
ARC
8
DEFAULT_255_1_234
10
9.9287763
20
-0.2679472
40
0.3941894
50
282.4333181
51
310.7513653
0
ARC
8
DEFAULT_255_1_234
10
9.8848502
20
-0.0864321
40
0.5809175
50
269.9358511
51
282.809604
0
ARC
8
DEFAULT_255_1_234
10
9.8796568
20
0.0593212
40
0.7266847
50
270.0021091
51
270.3581957
0
ARC
8
DEFAULT_255_1_234
10
9.8743985
20
-0.2007415
40
0.4666519
50
250.7884749
51
270.6489167
0
ARC
8
DEFAULT_255_1_234
10
9.857582
20
-0.2644681
40
0.4009729
50
219.3627325
51
250.0611886
0
ARC
8
DEFAULT_255_1_234
10
9.9405031
20
-0.1939958
40
0.5097822
50
193.5479632
51
219.5756669
0
ARC
8
DEFAULT_255_1_234
10
10.1776652
20
-0.1324081
40
0.7547848
50
181.1218675
51
193.87563
0
ARC
8
DEFAULT_255_1_234
10
10.3846833
20
-0.121342
40
0.9620055
50
179.9918545
51
181.5394234
0
ARC
8
DEFAULT_255_1_234
10
10.1995935
20
-0.0050212
40
0.7769248
50
169.5837241
51
180.2757934
0
ARC
8
DEFAULT_255_1_234
10
10.0158873
20
0.0289229
40
0.590109
50
155.0365899
51
169.6003176
0
ARC
8
DEFAULT_255_1_234
10
9.9023337
20
0.0836677
40
0.4640625
50
136.783148
51
155.2472683
0
ARC
8
DEFAULT_255_1_234
10
9.8633814
20
0.1167562
40
0.4130255
50
121.7633186
51
136.428115
0
ARC
8
DEFAULT_255_1_234
10
9.8768776
20
0.0918227
40
0.4413323
50
95.6459699
51
121.5490577
0
ARC
8
DEFAULT_255_1_234
10
9.8926058
20
-0.0190051
40
0.55319
50
89.924208
51
96.1377933
0
ARC
8
DEFAULT_255_1_234
10
9.8976491
20
-0.0071458
40
0.5413475
50
76.6779277
51
90.4563316
0
ARC
8
DEFAULT_255_1_234
10
9.9370114
20
0.1519114
40
0.3775041
50
47.485847
51
76.9287264
0
ARC
8
DEFAULT_255_1_234
10
9.9223087
20
0.1419159
40
0.3948286
50
16.5424086
51
46.8933463
0
ARC
8
DEFAULT_255_1_234
10
9.7615244
20
0.0890861
40
0.564021
50
5.4072051
51
17.0365086
0
ARC
8
DEFAULT_255_1_234
10
9.6176261
20
0.0659679
40
0.5556559
50
7.8891745
51
15.9239216
0
ARC
8
DEFAULT_255_1_234
10
9.8163274
20
0.1236631
40
0.3487515
50
15.7653144
51
27.9410532
0
ARC
8
DEFAULT_255_1_234
10
9.9267492
20
0.182779
40
0.2235026
50
27.8166557
51
46.4008329
0
ARC
8
DEFAULT_255_1_234
10
9.9317135
20
0.1822082
40
0.2205286
50
47.4371857
51
75.0698205
0
ARC
8
DEFAULT_255_1_234
10
9.9008529
20
0.0747765
40
0.3322915
50
74.7008593
51
87.8124495
0
ARC
8
DEFAULT_255_1_234
10
9.8935217
20
-0.0308156
40
0.4380987
50
87.3814673
51
90.0240855
0
ARC
8
DEFAULT_255_1_234
10
9.889676
20
0.0869291
40
0.3203749
50
89.3451631
51
108.5745436
0
ARC
8
DEFAULT_255_1_234
10
9.8759865
20
0.1382908
40
0.2673494
50
109.2998449
51
143.3037509
0
ARC
8
DEFAULT_255_1_234
10
9.9521938
20
0.0796881
40
0.3634757
50
143.0753173
51
163.1916937
0
ARC
8
DEFAULT_255_1_234
10
10.1473666
20
0.0180967
40
0.5681262
50
162.9373603
51
174.6208611
0
ARC
8
DEFAULT_255_1_234
10
10.4099708
20
-0.010699
40
0.8322832
50
174.3419979
51
180.1430411
0
ARC
8
DEFAULT_255_1_234
10
10.3168864
20
-0.1301302
40
0.7392076
50
179.6817502
51
189.150529
0
ARC
8
DEFAULT_255_1_234
10
10.0668112
20
-0.171781
40
0.4856932
50
188.9910863
51
203.5773039
0
ARC
8
DEFAULT_255_1_234
10
9.9588445
20
-0.2165789
40
0.3688271
50
203.9077269
51
215.1312379
0
ARC
8
DEFAULT_255_1_234
10
9.8665539
20
-0.2881059
40
0.2522457
50
213.9071664
51
263.8849284
0
ARC
8
DEFAULT_255_1_234
10
9.8790868
20
-0.2096482
40
0.3316174
50
263.1758525
51
270.1031083
0
ARC
8
DEFAULT_255_1_234
10
9.882296
20
-0.0849635
40
0.4563091
50
269.6719807
51
279.0609165
0
ARC
8
DEFAULT_255_1_234
10
9.9089728
20
-0.2462093
40
0.2928759
50
278.8750225
51
293.6346586
0
ARC
8
DEFAULT_255_1_234
10
9.9409936
20
-0.32141
40
0.2111472
50
293.8553404
51
310.0518804
0
ARC
8
DEFAULT_255_1_234
10
9.941479
20
-0.3276484
40
0.2060917
50
311.0646779
51
332.0108348
0
ARC
8
DEFAULT_255_1_234
10
9.8222517
20
-0.2619022
40
0.3422352
50
331.6588543
51
343.2878891
0
ARC
8
DEFAULT_255_1_234
10
9.6160032
20
-0.1985202
40
0.5580003
50
343.1446044
51
351.010618
0
ARC
8
DEFAULT_255_1_234
10
9.4618678
20
-0.1704129
40
0.7146438
50
350.7157277
51
351.1602153
0
LINE
8
DEFAULT_255_1_234
10
11.309333
20
0.1799849
11
11.1543205
21
0.1799849
0
LINE
8
DEFAULT_255_1_234
10
10.4619846
20
-0.3123606
11
10.6169972
21
-0.3123606
0
ARC
8
DEFAULT_255_1_234
10
11.2202017
20
1.0746768
40
1.252368
50
248.9199003
51
254.1439814
0
ARC
8
DEFAULT_255_1_234
10
11.0521512
20
0.6420234
40
0.788226
50
241.633709
51
249.0064503
0
ARC
8
DEFAULT_255_1_234
10
10.8992907
20
0.3619317
40
0.4691427
50
230.498225
51
241.8087113
0
ARC
8
DEFAULT_255_1_234
10
10.8208481
20
0.2619906
40
0.3421437
50
227.4064532
51
229.9881192
0
ARC
8
DEFAULT_255_1_234
10
10.7721002
20
0.2144088
40
0.2741476
50
200.6781896
51
228.1763934
0
ARC
8
DEFAULT_255_1_234
10
10.7793312
20
0.2129077
40
0.2804109
50
179.5061581
51
199.8694617
0
ARC
8
DEFAULT_255_1_234
10
10.7784064
20
0.220321
40
0.2795204
50
132.4834203
51
181.0242172
0
ARC
8
DEFAULT_255_1_234
10
10.8379646
20
0.1640704
40
0.3612768
50
129.2532479
51
133.4242687
0
ARC
8
DEFAULT_255_1_234
10
10.8526096
20
0.1420965
40
0.3875675
50
101.98776
51
128.8742646
0
ARC
8
DEFAULT_255_1_234
10
10.8924706
20
-0.0300259
40
0.5642249
50
89.5906553
51
102.3169264
0
ARC
8
DEFAULT_255_1_234
10
10.8995199
20
0.0018148
40
0.5323783
50
77.2360837
51
90.3248275
0
ARC
8
DEFAULT_255_1_234
10
10.9202278
20
0.09854
40
0.4334697
50
63.837784
51
77.0809408
0
ARC
8
DEFAULT_255_1_234
10
10.9480039
20
0.1502911
40
0.3747796
50
45.9864267
51
64.1607727
0
ARC
8
DEFAULT_255_1_234
10
10.9740921
20
0.1800866
40
0.3352302
50
32.2747395
51
45.6547121
0
ARC
8
DEFAULT_255_1_234
10
10.9807361
20
0.181988
40
0.328603
50
359.6507365
51
32.6130309
0
ARC
8
DEFAULT_255_1_234
10
10.8864457
20
0.182466
40
0.2678863
50
359.469343
51
14.9832209
0
ARC
8
DEFAULT_255_1_234
10
10.9569519
20
0.2013539
40
0.1948938
50
14.9781179
51
48.2004265
0
ARC
8
DEFAULT_255_1_234
10
10.9405163
20
0.1806983
40
0.2212521
50
48.5927837
51
74.1241538
0
ARC
8
DEFAULT_255_1_234
10
10.9071653
20
0.0706248
40
0.3362561
50
73.7888341
51
86.6652678
0
ARC
8
DEFAULT_255_1_234
10
10.8969218
20
-0.0501119
40
0.4573953
50
86.2640471
51
90.0526343
0
ARC
8
DEFAULT_255_1_234
10
10.8940931
20
-0.0105808
40
0.4178709
50
89.6697524
51
99.2309573
0
ARC
8
DEFAULT_255_1_234
10
10.8698382
20
0.1338964
40
0.2713749
50
99.069534
51
113.7658566
0
ARC
8
DEFAULT_255_1_234
10
10.8424573
20
0.1984677
40
0.2012469
50
114.0401004
51
127.9850673
0
ARC
8
DEFAULT_255_1_234
10
10.8184137
20
0.228073
40
0.1631167
50
127.7287463
51
176.7105154
0
ARC
8
DEFAULT_255_1_234
10
10.8862854
20
0.2179693
40
0.2315392
50
175.1779447
51
180.0581938
0
ARC
8
DEFAULT_255_1_234
10
10.8019701
20
0.2167428
40
0.1472271
50
179.6142195
51
228.1246017
0
ARC
8
DEFAULT_255_1_234
10
10.846137
20
0.2576308
40
0.2072299
50
226.5779593
51
230.8800004
0
ARC
8
DEFAULT_255_1_234
10
10.8932448
20
0.3201636
40
0.2854818
50
231.4635071
51
241.9260842
0
ARC
8
DEFAULT_255_1_234
10
11.0129626
20
0.54048
40
0.53622
50
241.7178533
51
248.3259551
0
ARC
8
DEFAULT_255_1_234
10
11.1514998
20
0.8837064
40
0.9063478
50
248.2007737
51
252.4528373
0
ARC
8
DEFAULT_255_1_234
10
11.2718723
20
1.2558441
40
1.2974635
50
252.3391078
51
254.3469452
0
ARC
8
DEFAULT_255_1_234
10
10.5176426
20
-1.4418852
40
1.5037162
50
71.0197183
51
74.4087047
0
ARC
8
DEFAULT_255_1_234
10
10.6871111
20
-0.9526889
40
0.9859993
50
66.1847285
51
71.086374
0
ARC
8
DEFAULT_255_1_234
10
10.8427423
20
-0.60228
40
0.6025855
50
59.3536294
51
66.2691831
0
ARC
8
DEFAULT_255_1_234
10
10.9316076
20
-0.4519391
40
0.4279449
50
49.1020879
51
59.3293958
0
ARC
8
DEFAULT_255_1_234
10
11.0134816
20
-0.3586166
40
0.3038015
50
32.7919921
51
49.2505539
0
ARC
8
DEFAULT_255_1_234
10
11.0455906
20
-0.3357809
40
0.264448
50
31.1181161
51
32.4005348
0
ARC
8
DEFAULT_255_1_234
10
11.0367443
20
-0.3393221
40
0.2738556
50
8.1116974
51
30.7958831
0
ARC
8
DEFAULT_255_1_234
10
10.9557111
20
-0.3531247
40
0.3560327
50
359.8389159
51
8.4706516
0
ARC
8
DEFAULT_255_1_234
10
11.0182903
20
-0.3579863
40
0.2934776
50
337.4731098
51
0.7537279
0
ARC
8
DEFAULT_255_1_234
10
11.0361598
20
-0.3599613
40
0.2762607
50
307.5917067
51
336.4315538
0
ARC
8
DEFAULT_255_1_234
10
10.9901426
20
-0.3086898
40
0.3449979
50
307.6551545
51
308.4529766
0
ARC
8
DEFAULT_255_1_234
10
10.9671145
20
-0.273175
40
0.3871988
50
284.3734338
51
307.1424381
0
ARC
8
DEFAULT_255_1_234
10
10.9175975
20
-0.0910068
40
0.5759636
50
272.4382747
51
284.646547
0
ARC
8
DEFAULT_255_1_234
10
10.9049184
20
0.0889893
40
0.7563528
50
269.9708387
51
272.8178037
0
ARC
8
DEFAULT_255_1_234
10
10.9006223
20
-0.1148284
40
0.5525489
50
248.2707594
51
270.4055579
0
ARC
8
DEFAULT_255_1_234
10
10.8951964
20
-0.1338808
40
0.5328452
50
246.1383403
51
248.0542782
0
ARC
8
DEFAULT_255_1_234
10
10.8533343
20
-0.2218157
40
0.4355005
50
233.1670131
51
246.4950969
0
ARC
8
DEFAULT_255_1_234
10
10.7979248
20
-0.2966188
40
0.3424126
50
215.3403242
51
233.0843104
0
ARC
8
DEFAULT_255_1_234
10
10.7706679
20
-0.3164451
40
0.3087104
50
179.2419209
51
215.2648451
0
ARC
8
DEFAULT_255_1_234
10
10.8474273
20
-0.3150334
40
0.2304457
50
179.335461
51
199.1045811
0
ARC
8
DEFAULT_255_1_234
10
10.814195
20
-0.3237234
40
0.1962176
50
199.8828939
51
232.7063202
0
ARC
8
DEFAULT_255_1_234
10
10.8614218
20
-0.2643212
40
0.2720938
50
232.3738199
51
255.5136649
0
ARC
8
DEFAULT_255_1_234
10
10.8955085
20
-0.1399165
40
0.4010747
50
255.2446292
51
267.5320849
0
ARC
8
DEFAULT_255_1_234
10
10.9042708
20
-0.0166298
40
0.5246356
50
267.1557994
51
270.0286766
0
ARC
8
DEFAULT_255_1_234
10
10.907048
20
-0.061005
40
0.4802668
50
269.7000017
51
278.1660162
0
ARC
8
DEFAULT_255_1_234
10
10.9326485
20
-0.2340485
40
0.3053425
50
278.0231263
51
290.625471
0
ARC
8
DEFAULT_255_1_234
10
10.9674172
20
-0.3267975
40
0.206291
50
290.6619762
51
307.0370976
0
ARC
8
DEFAULT_255_1_234
10
10.9974562
20
-0.3636496
40
0.1587906
50
306.3943566
51
355.3030547
0
ARC
8
DEFAULT_255_1_234
10
10.9462493
20
-0.3559887
40
0.2104809
50
354.3660432
51
0.0698737
0
ARC
8
DEFAULT_255_1_234
10
10.9604838
20
-0.3537383
40
0.1962563
50
359.417946
51
16.1971788
0
ARC
8
DEFAULT_255_1_234
10
11.0060149
20
-0.3412582
40
0.149053
50
16.4723299
51
52.6262157
0
ARC
8
DEFAULT_255_1_234
10
10.9239202
20
-0.4496567
40
0.2850296
50
52.7386432
51
62.4979148
0
ARC
8
DEFAULT_255_1_234
10
10.7854279
20
-0.7102717
40
0.5801521
50
62.2515216
51
68.1220564
0
ARC
8
DEFAULT_255_1_234
10
10.613419
20
-1.1330128
40
1.0365451
50
68.0062803
51
71.8053402
0
ARC
8
DEFAULT_255_1_234
10
10.4338562
20
-1.6715242
40
1.6042013
50
71.7183119
51
73.9258742
0
LINE
8
DEFAULT_255_1_234
10
11.9591006
20
0.5237433
11
11.9591006
21
-0.6513
0
LINE
8
DEFAULT_255_1_234
10
11.9591006
20
-0.6513
11
11.8097103
21
-0.6513
0
LINE
8
DEFAULT_255_1_234
10
11.8097103
20
-0.6513
11
11.8097103
21
0.3390133
0
LINE
8
DEFAULT_255_1_234
10
11.8097103
20
0.3390133
11
11.5101265
21
0.2289785
0
LINE
8
DEFAULT_255_1_234
10
11.5101265
20
0.2289785
11
11.5101265
21
0.3639117
0
LINE
8
DEFAULT_255_1_234
10
11.5101265
20
0.3639117
11
11.9358086
21
0.5237433
0
LINE
8
DEFAULT_255_1_234
10
11.9358086
20
0.5237433
11
11.9591006
21
0.5237433
0
LINE
8
DEFAULT_255_1_234
10
12.5004398
20
0.5181211
11
12.6851698
21
-0.2826432
0
LINE
8
DEFAULT_255_1_234
10
12.6851698
20
-0.2826432
11
12.7076586
21
-0.4368526
0
LINE
8
DEFAULT_255_1_234
10
12.7076586
20
-0.4368526
11
12.7405888
21
-0.2979035
0
LINE
8
DEFAULT_255_1_234
10
12.7405888
20
-0.2979035
11
12.9719028
21
0.5181211
0
LINE
8
DEFAULT_255_1_234
10
12.9719028
20
0.5181211
11
13.102017
21
0.5181211
0
LINE
8
DEFAULT_255_1_234
10
13.102017
20
0.5181211
11
13.3277088
21
-0.2979035
0
LINE
8
DEFAULT_255_1_234
10
13.3277088
20
-0.2979035
11
13.3598358
21
-0.4392621
0
LINE
8
DEFAULT_255_1_234
10
13.3598358
20
-0.4392621
11
13.3847342
21
-0.28184
0
LINE
8
DEFAULT_255_1_234
10
13.3847342
20
-0.28184
11
13.5662515
21
0.5181211
0
LINE
8
DEFAULT_255_1_234
10
13.5662515
20
0.5181211
11
13.721264
21
0.5181211
0
LINE
8
DEFAULT_255_1_234
10
13.721264
20
0.5181211
11
13.4377437
21
-0.6513
0
LINE
8
DEFAULT_255_1_234
10
13.4377437
20
-0.6513
11
13.2971882
21
-0.6513
0
LINE
8
DEFAULT_255_1_234
10
13.2971882
20
-0.6513
11
13.0562361
21
0.2008674
0
LINE
8
DEFAULT_255_1_234
10
13.0562361
20
0.2008674
11
13.0377631
21
0.2900197
0
LINE
8
DEFAULT_255_1_234
10
13.0377631
20
0.2900197
11
13.0192901
21
0.2008674
0
LINE
8
DEFAULT_255_1_234
10
13.0192901
20
0.2008674
11
12.769503
21
-0.6513
0
LINE
8
DEFAULT_255_1_234
10
12.769503
20
-0.6513
11
12.6289476
21
-0.6513
0
LINE
8
DEFAULT_255_1_234
10
12.6289476
20
-0.6513
11
12.3462304
21
0.5181211
0
LINE
8
DEFAULT_255_1_234
10
12.3462304
20
0.5181211
11
12.5004398
21
0.5181211
0
LINE
8
DEFAULT_255_1_234
10
14.1300795
20
-0.0938974
11
14.1300795
21
-0.2151766
0
LINE
8
DEFAULT_255_1_234
10
14.1300795
20
-0.2151766
11
13.7381307
21
-0.2151766
0
LINE
8
DEFAULT_255_1_234
10
13.7381307
20
-0.2151766
11
13.7381307
21
-0.0938974
0
LINE
8
DEFAULT_255_1_234
10
13.7381307
20
-0.0938974
11
14.1300795
21
-0.0938974
0
LINE
8
DEFAULT_255_1_234
10
14.7276408
20
-0.1934909
11
14.4521522
21
-0.1934909
0
LINE
8
DEFAULT_255_1_234
10
14.4521522
20
-0.1934909
11
14.4521522
21
-0.6513
0
LINE
8
DEFAULT_255_1_234
10
14.4521522
20
-0.6513
11
14.2979428
21
-0.6513
0
LINE
8
DEFAULT_255_1_234
10
14.2979428
20
-0.6513
11
14.2979428
21
0.5181211
0
LINE
8
DEFAULT_255_1_234
10
14.2979428
20
0.5181211
11
14.7292472
21
0.5181211
0
LINE
8
DEFAULT_255_1_234
10
14.4521522
20
0.3912196
11
14.4521522
21
-0.0673926
0
LINE
8
DEFAULT_255_1_234
10
14.4521522
20
-0.0673926
11
14.7292472
21
-0.0673926
0
LINE
8
DEFAULT_255_1_234
10
14.7380821
20
0.3912196
11
14.4521522
21
0.3912196
0
ARC
8
DEFAULT_255_1_234
10
14.7334599
20
-0.0877805
40
0.6059162
50
78.8378113
51
90.3983573
0
ARC
8
DEFAULT_255_1_234
10
14.7750612
20
0.1142879
40
0.3996205
50
58.9632738
51
79.0810598
0
ARC
8
DEFAULT_255_1_234
10
14.8052154
20
0.1702721
40
0.3361177
50
48.0197965
51
58.447194
0
ARC
8
DEFAULT_255_1_234
10
14.8141015
20
0.1788225
40
0.3238191
50
3.3375044
51
48.1766626
0
ARC
8
DEFAULT_255_1_234
10
14.6910855
20
0.1611171
40
0.4477806
50
359.9477528
51
4.6829065
0
ARC
8
DEFAULT_255_1_234
10
14.7034172
20
0.1568628
40
0.4354656
50
346.1877825
51
0.5060252
0
ARC
8
DEFAULT_255_1_234
10
14.8393039
20
0.1215731
40
0.295089
50
310.8831995
51
346.5426355
0
ARC
8
DEFAULT_255_1_234
10
14.8084459
20
0.1632695
40
0.3468331
50
286.6925341
51
310.2288297
0
ARC
8
DEFAULT_255_1_234
10
14.751529
20
0.3422882
40
0.5346654
50
274.6850312
51
287.0245141
0
ARC
8
DEFAULT_255_1_234
10
14.7290013
20
0.5631932
40
0.7566852
50
269.8969846
51
275.018904
0
ARC
8
DEFAULT_255_1_234
10
14.7317604
20
0.3552707
40
0.4226708
50
269.6593078
51
279.4153575
0
ARC
8
DEFAULT_255_1_234
10
14.757488
20
0.2062133
40
0.2714146
50
279.2049762
51
294.9900808
0
ARC
8
DEFAULT_255_1_234
10
14.7865205
20
0.1414508
40
0.2004525
50
295.2888114
51
311.2911209
0
ARC
8
DEFAULT_255_1_234
10
14.79361
20
0.130922
40
0.1878703
50
311.7854996
51
347.2861051
0
ARC
8
DEFAULT_255_1_234
10
14.6952258
20
0.1562092
40
0.2894234
50
346.6893224
51
0.1059443
0
ARC
8
DEFAULT_255_1_234
10
14.6197153
20
0.1590685
40
0.3649409
50
359.6350983
51
0.0053152
0
ARC
8
DEFAULT_255_1_234
10
14.7167482
20
0.1615937
40
0.2679199
50
359.4672059
51
15.5933957
0
ARC
8
DEFAULT_255_1_234
10
14.779237
20
0.1784779
40
0.2031932
50
15.7442113
51
46.6203375
0
ARC
8
DEFAULT_255_1_234
10
14.7644591
20
0.1614484
40
0.2257226
50
46.8628658
51
75.6676503
0
ARC
8
DEFAULT_255_1_234
10
14.7350412
20
0.0555718
40
0.3355939
50
75.276167
51
88.2915297
0
ARC
8
DEFAULT_255_1_234
10
14.7292118
20
-0.0322476
40
0.4235602
50
87.8575022
51
88.8000139
0
LINE
8
DEFAULT_255_1_234
10
16.1436363
20
0.5181211
11
16.1436363
21
0.3912196
0
LINE
8
DEFAULT_255_1_234
10
16.1436363
20
0.3912196
11
15.7677509
21
0.3912196
0
LINE
8
DEFAULT_255_1_234
10
15.7677509
20
0.3912196
11
15.7677509
21
-0.6513
0
LINE
8
DEFAULT_255_1_234
10
15.7677509
20
-0.6513
11
15.6143447
21
-0.6513
0
LINE
8
DEFAULT_255_1_234
10
15.6143447
20
-0.6513
11
15.6143447
21
0.3912196
0
LINE
8
DEFAULT_255_1_234
10
15.6143447
20
0.3912196
11
15.2392625
21
0.3912196
0
LINE
8
DEFAULT_255_1_234
10
15.2392625
20
0.3912196
11
15.2392625
21
0.5181211
0
LINE
8
DEFAULT_255_1_234
10
15.2392625
20
0.5181211
11
16.1436363
21
0.5181211
0
LINE
8
DEFAULT_255_1_234
10
17.080137
20
0.1799849
11
16.9251244
21
0.1799849
0
LINE
8
DEFAULT_255_1_234
10
16.2327886
20
-0.3123606
11
16.3878011
21
-0.3123606
0
ARC
8
DEFAULT_255_1_234
10
16.9910057
20
1.0746768
40
1.252368
50
248.9199003
51
254.1439814
0
ARC
8
DEFAULT_255_1_234
10
16.8229552
20
0.6420234
40
0.788226
50
241.633709
51
249.0064503
0
ARC
8
DEFAULT_255_1_234
10
16.6700946
20
0.3619317
40
0.4691427
50
230.498225
51
241.8087113
0
ARC
8
DEFAULT_255_1_234
10
16.591652
20
0.2619906
40
0.3421437
50
227.4064532
51
229.9881192
0
ARC
8
DEFAULT_255_1_234
10
16.5429041
20
0.2144088
40
0.2741476
50
200.6781896
51
228.1763934
0
ARC
8
DEFAULT_255_1_234
10
16.5501352
20
0.2129077
40
0.2804109
50
179.5061581
51
199.8694617
0
ARC
8
DEFAULT_255_1_234
10
16.5492103
20
0.220321
40
0.2795204
50
132.4834203
51
181.0242172
0
ARC
8
DEFAULT_255_1_234
10
16.6087686
20
0.1640704
40
0.3612768
50
129.2532479
51
133.4242687
0
ARC
8
DEFAULT_255_1_234
10
16.6234135
20
0.1420965
40
0.3875675
50
101.98776
51
128.8742646
0
ARC
8
DEFAULT_255_1_234
10
16.6632746
20
-0.0300259
40
0.5642249
50
89.5906553
51
102.3169264
0
ARC
8
DEFAULT_255_1_234
10
16.6703238
20
0.0018148
40
0.5323783
50
77.2360837
51
90.3248275
0
ARC
8
DEFAULT_255_1_234
10
16.6910317
20
0.09854
40
0.4334697
50
63.837784
51
77.0809408
0
ARC
8
DEFAULT_255_1_234
10
16.7188079
20
0.1502911
40
0.3747796
50
45.9864267
51
64.1607727
0
ARC
8
DEFAULT_255_1_234
10
16.744896
20
0.1800866
40
0.3352302
50
32.2747395
51
45.6547121
0
ARC
8
DEFAULT_255_1_234
10
16.7515401
20
0.181988
40
0.328603
50
359.6507365
51
32.6130309
0
ARC
8
DEFAULT_255_1_234
10
16.6572496
20
0.182466
40
0.2678863
50
359.469343
51
14.9832209
0
ARC
8
DEFAULT_255_1_234
10
16.7277559
20
0.2013539
40
0.1948938
50
14.9781179
51
48.2004265
0
ARC
8
DEFAULT_255_1_234
10
16.7113203
20
0.1806983
40
0.2212521
50
48.5927837
51
74.1241538
0
ARC
8
DEFAULT_255_1_234
10
16.6779692
20
0.0706248
40
0.3362561
50
73.7888341
51
86.6652678
0
ARC
8
DEFAULT_255_1_234
10
16.6677258
20
-0.0501119
40
0.4573953
50
86.2640471
51
90.0526343
0
ARC
8
DEFAULT_255_1_234
10
16.6648971
20
-0.0105808
40
0.4178709
50
89.6697524
51
99.2309573
0
ARC
8
DEFAULT_255_1_234
10
16.6406421
20
0.1338964
40
0.2713749
50
99.069534
51
113.7658566
0
ARC
8
DEFAULT_255_1_234
10
16.6132613
20
0.1984677
40
0.2012469
50
114.0401004
51
127.9850673
0
ARC
8
DEFAULT_255_1_234
10
16.5892177
20
0.228073
40
0.1631167
50
127.7287463
51
176.7105154
0
ARC
8
DEFAULT_255_1_234
10
16.6570894
20
0.2179693
40
0.2315392
50
175.1779447
51
180.0581938
0
ARC
8
DEFAULT_255_1_234
10
16.5727741
20
0.2167428
40
0.1472271
50
179.6142195
51
228.1246017
0
ARC
8
DEFAULT_255_1_234
10
16.6169409
20
0.2576308
40
0.2072299
50
226.5779593
51
230.8800004
0
ARC
8
DEFAULT_255_1_234
10
16.6640488
20
0.3201636
40
0.2854818
50
231.4635071
51
241.9260842
0
ARC
8
DEFAULT_255_1_234
10
16.7837666
20
0.54048
40
0.53622
50
241.7178533
51
248.3259551
0
ARC
8
DEFAULT_255_1_234
10
16.9223038
20
0.8837064
40
0.9063478
50
248.2007737
51
252.4528373
0
ARC
8
DEFAULT_255_1_234
10
17.0426763
20
1.2558441
40
1.2974635
50
252.3391078
51
254.3469452
0
ARC
8
DEFAULT_255_1_234
10
16.2884465
20
-1.4418852
40
1.5037162
50
71.0197183
51
74.4087047
0
ARC
8
DEFAULT_255_1_234
10
16.4579151
20
-0.9526889
40
0.9859993
50
66.1847285
51
71.086374
0
ARC
8
DEFAULT_255_1_234
10
16.6135463
20
-0.60228
40
0.6025855
50
59.3536294
51
66.2691831
0
ARC
8
DEFAULT_255_1_234
10
16.7024115
20
-0.4519391
40
0.4279449
50
49.1020879
51
59.3293958
0
ARC
8
DEFAULT_255_1_234
10
16.7842855
20
-0.3586166
40
0.3038015
50
32.7919921
51
49.2505539
0
ARC
8
DEFAULT_255_1_234
10
16.8163945
20
-0.3357809
40
0.264448
50
31.1181161
51
32.4005348
0
ARC
8
DEFAULT_255_1_234
10
16.8075483
20
-0.3393221
40
0.2738556
50
8.1116974
51
30.7958831
0
ARC
8
DEFAULT_255_1_234
10
16.7265151
20
-0.3531247
40
0.3560327
50
359.8389159
51
8.4706516
0
ARC
8
DEFAULT_255_1_234
10
16.7890943
20
-0.3579863
40
0.2934776
50
337.4731098
51
0.7537279
0
ARC
8
DEFAULT_255_1_234
10
16.8069637
20
-0.3599613
40
0.2762607
50
307.5917067
51
336.4315538
0
ARC
8
DEFAULT_255_1_234
10
16.7609465
20
-0.3086898
40
0.3449979
50
307.6551545
51
308.4529766
0
ARC
8
DEFAULT_255_1_234
10
16.7379184
20
-0.273175
40
0.3871988
50
284.3734338
51
307.1424381
0
ARC
8
DEFAULT_255_1_234
10
16.6884014
20
-0.0910068
40
0.5759636
50
272.4382747
51
284.646547
0
ARC
8
DEFAULT_255_1_234
10
16.6757223
20
0.0889893
40
0.7563528
50
269.9708387
51
272.8178037
0
ARC
8
DEFAULT_255_1_234
10
16.6714263
20
-0.1148284
40
0.5525489
50
248.2707594
51
270.4055579
0
ARC
8
DEFAULT_255_1_234
10
16.6660004
20
-0.1338808
40
0.5328452
50
246.1383403
51
248.0542782
0
ARC
8
DEFAULT_255_1_234
10
16.6241383
20
-0.2218157
40
0.4355005
50
233.1670131
51
246.4950969
0
ARC
8
DEFAULT_255_1_234
10
16.5687288
20
-0.2966188
40
0.3424126
50
215.3403242
51
233.0843104
0
ARC
8
DEFAULT_255_1_234
10
16.5414719
20
-0.3164451
40
0.3087104
50
179.2419209
51
215.2648451
0
ARC
8
DEFAULT_255_1_234
10
16.6182313
20
-0.3150334
40
0.2304457
50
179.335461
51
199.1045811
0
ARC
8
DEFAULT_255_1_234
10
16.5849989
20
-0.3237234
40
0.1962176
50
199.8828939
51
232.7063202
0
ARC
8
DEFAULT_255_1_234
10
16.6322258
20
-0.2643212
40
0.2720938
50
232.3738199
51
255.5136649
0
ARC
8
DEFAULT_255_1_234
10
16.6663124
20
-0.1399165
40
0.4010747
50
255.2446292
51
267.5320849
0
ARC
8
DEFAULT_255_1_234
10
16.6750748
20
-0.0166298
40
0.5246356
50
267.1557994
51
270.0286766
0
ARC
8
DEFAULT_255_1_234
10
16.677852
20
-0.061005
40
0.4802668
50
269.7000017
51
278.1660162
0
ARC
8
DEFAULT_255_1_234
10
16.7034525
20
-0.2340485
40
0.3053425
50
278.0231263
51
290.625471
0
ARC
8
DEFAULT_255_1_234
10
16.7382212
20
-0.3267975
40
0.206291
50
290.6619762
51
307.0370976
0
ARC
8
DEFAULT_255_1_234
10
16.7682601
20
-0.3636496
40
0.1587906
50
306.3943566
51
355.3030547
0
ARC
8
DEFAULT_255_1_234
10
16.7170533
20
-0.3559887
40
0.2104809
50
354.3660432
51
0.0698737
0
ARC
8
DEFAULT_255_1_234
10
16.7312878
20
-0.3537383
40
0.1962563
50
359.417946
51
16.1971788
0
ARC
8
DEFAULT_255_1_234
10
16.7768188
20
-0.3412582
40
0.149053
50
16.4723299
51
52.6262157
0
ARC
8
DEFAULT_255_1_234
10
16.6947242
20
-0.4496567
40
0.2850296
50
52.7386432
51
62.4979148
0
ARC
8
DEFAULT_255_1_234
10
16.5562319
20
-0.7102717
40
0.5801521
50
62.2515216
51
68.1220564
0
ARC
8
DEFAULT_255_1_234
10
16.384223
20
-1.1330128
40
1.0365451
50
68.0062803
51
71.8053402
0
ARC
8
DEFAULT_255_1_234
10
16.2046601
20
-1.6715242
40
1.6042013
50
71.7183119
51
73.9258742
0
LINE
8
DEFAULT_255_1_234
10
17.4287144
20
-0.0955037
11
17.3098447
21
-0.0649831
0
LINE
8
DEFAULT_255_1_234
10
17.3098447
20
-0.0649831
11
17.3692795
21
0.5181211
0
LINE
8
DEFAULT_255_1_234
10
17.3692795
20
0.5181211
11
17.9684472
21
0.5181211
0
LINE
8
DEFAULT_255_1_234
10
17.9684472
20
0.5181211
11
17.9684472
21
0.3807784
0
LINE
8
DEFAULT_255_1_234
10
17.9684472
20
0.3807784
11
17.4953778
21
0.3807784
0
LINE
8
DEFAULT_255_1_234
10
17.4953778
20
0.3807784
11
17.4600382
21
0.0619184
0
LINE
8
DEFAULT_255_1_234
10
17.2680796
20
-0.3436844
11
17.4086351
21
-0.3436844
0
LINE
8
DEFAULT_255_1_234
10
17.4680699
20
-0.0633768
11
17.4287144
21
-0.0955037
0
ARC
8
DEFAULT_255_1_234
10
17.6455166
20
-0.256077
40
0.3681349
50
93.7182161
51
120.2538958
0
ARC
8
DEFAULT_255_1_234
10
17.6549429
20
-0.3368606
40
0.449379
50
89.9660152
51
94.2496022
0
ARC
8
DEFAULT_255_1_234
10
17.6590163
20
-0.2779451
40
0.390482
50
73.8043271
51
90.5585896
0
ARC
8
DEFAULT_255_1_234
10
17.682506
20
-0.1921398
40
0.3015334
50
41.3071453
51
73.5430202
0
ARC
8
DEFAULT_255_1_234
10
17.6408887
20
-0.2279676
40
0.3564457
50
13.5075983
51
41.2174222
0
ARC
8
DEFAULT_255_1_234
10
17.4767091
20
-0.2709514
40
0.5261351
50
1.1331335
51
13.8829381
0
ARC
8
DEFAULT_255_1_234
10
17.335546
20
-0.2785335
40
0.6674378
50
359.9919444
51
1.544251
0
ARC
8
DEFAULT_255_1_234
10
17.4632286
20
-0.282672
40
0.5397702
50
347.8572367
51
0.4293338
0
ARC
8
DEFAULT_255_1_234
10
17.6382604
20
-0.3223264
40
0.3603188
50
323.673004
51
348.1672506
0
ARC
8
DEFAULT_255_1_234
10
17.6677112
20
-0.3402832
40
0.3259678
50
316.8171152
51
323.1492751
0
ARC
8
DEFAULT_255_1_234
10
17.6738301
20
-0.343954
40
0.3189975
50
281.8396411
51
316.5457803
0
ARC
8
DEFAULT_255_1_234
10
17.6362564
20
-0.1884238
40
0.4789527
50
269.5770101
51
282.4214771
0
ARC
8
DEFAULT_255_1_234
10
17.6291376
20
-0.2097875
40
0.45759
50
256.2427136
51
270.4486331
0
ARC
8
DEFAULT_255_1_234
10
17.5992278
20
-0.3297771
40
0.3339303
50
228.9023911
51
256.3314342
0
ARC
8
DEFAULT_255_1_234
10
17.5918511
20
-0.3414254
40
0.32031
50
193.753695
51
228.5271154
0
ARC
8
DEFAULT_255_1_234
10
17.7156465
20
-0.30512
40
0.4492253
50
184.924711
51
194.497588
0
ARC
8
DEFAULT_255_1_234
10
17.7349032
20
-0.3015409
40
0.3289787
50
187.3600538
51
198.6732863
0
ARC
8
DEFAULT_255_1_234
10
17.6299326
20
-0.3379326
40
0.217884
50
198.4451669
51
217.794479
0
ARC
8
DEFAULT_255_1_234
10
17.6003501
20
-0.3588915
40
0.1816698
50
218.2887171
51
228.5612368
0
ARC
8
DEFAULT_255_1_234
10
17.6101288
20
-0.3457037
40
0.1980329
50
228.9654866
51
258.1234728
0
ARC
8
DEFAULT_255_1_234
10
17.6306998
20
-0.2576167
40
0.2884748
50
257.7258293
51
270.401361
0
ARC
8
DEFAULT_255_1_234
10
17.6351884
20
-0.3021179
40
0.2439788
50
269.4204404
51
286.4209037
0
ARC
8
DEFAULT_255_1_234
10
17.6500372
20
-0.3560343
40
0.1880666
50
286.7251356
51
320.600362
0
ARC
8
DEFAULT_255_1_234
10
17.6117197
20
-0.3249405
40
0.2374121
50
320.6712579
51
344.5441685
0
ARC
8
DEFAULT_255_1_234
10
17.4960523
20
-0.2909955
40
0.3579479
50
344.2412205
51
356.7357071
0
ARC
8
DEFAULT_255_1_234
10
17.3711671
20
-0.2806556
40
0.4832297
50
356.3548756
51
0.0500261
0
ARC
8
DEFAULT_255_1_234
10
17.5048181
20
-0.277535
40
0.3495889
50
359.5576869
51
12.953486
0
ARC
8
DEFAULT_255_1_234
10
17.6103078
20
-0.2519566
40
0.2410532
50
12.6490276
51
41.6081334
0
ARC
8
DEFAULT_255_1_234
10
17.6333449
20
-0.2323679
40
0.2108218
50
41.7850273
51
85.9892764
0
ARC
8
DEFAULT_255_1_234
10
17.6210186
20
-0.3136538
40
0.2928454
50
84.6957577
51
90.0676183
0
ARC
8
DEFAULT_255_1_234
10
17.618667
20
-0.3805284
40
0.3597255
50
89.6804936
51
99.1614436
0
ARC
8
DEFAULT_255_1_234
10
17.5981301
20
-0.2577869
40
0.235281
50
98.9830931
51
113.8908934
0
ARC
8
DEFAULT_255_1_234
10
17.5751711
20
-0.2036413
40
0.176479
50
114.1950727
51
127.3641004
0
LINE
8
DEFAULT_255_1_234
10
18.9314526
20
-0.5300208
11
18.9314526
21
-0.6513
0
LINE
8
DEFAULT_255_1_234
10
18.9314526
20
-0.6513
11
18.1652248
21
-0.6513
0
LINE
8
DEFAULT_255_1_234
10
18.1652248
20
-0.6513
11
18.1652248
21
-0.5444779
0
LINE
8
DEFAULT_255_1_234
10
18.1652248
20
-0.5444779
11
18.5700244
21
-0.0947005
0
LINE
8
DEFAULT_255_1_234
10
18.2913231
20
0.1735595
11
18.1427359
21
0.1735595
0
LINE
8
DEFAULT_255_1_234
10
18.6575704
20
-0.1902782
11
18.3443326
21
-0.5300208
0
LINE
8
DEFAULT_255_1_234
10
18.3443326
20
-0.5300208
11
18.9314526
21
-0.5300208
0
ARC
8
DEFAULT_255_1_234
10
17.2210077
20
1.0982527
40
1.8008286
50
318.5132453
51
320.7828378
0
ARC
8
DEFAULT_255_1_234
10
17.7497052
20
0.6679426
40
1.1191493
50
320.7372736
51
323.9737074
0
ARC
8
DEFAULT_255_1_234
10
18.1416908
20
0.3839361
40
0.6350923
50
323.8961724
51
328.6421089
0
ARC
8
DEFAULT_255_1_234
10
18.3463504
20
0.2577031
40
0.3946393
50
328.8299013
51
331.789948
0
ARC
8
DEFAULT_255_1_234
10
18.4460682
20
0.2062509
40
0.2824501
50
331.4255242
51
352.9364833
0
ARC
8
DEFAULT_255_1_234
10
18.4597183
20
0.2031976
40
0.2685315
50
353.2248685
51
0.0169286
0
ARC
8
DEFAULT_255_1_234
10
18.480706
20
0.205495
40
0.2475536
50
359.4866256
51
15.9339782
0
ARC
8
DEFAULT_255_1_234
10
18.5314045
20
0.2191286
40
0.1950618
50
16.1714718
51
43.5284424
0
ARC
8
DEFAULT_255_1_234
10
18.5391353
20
0.2268573
40
0.184134
50
43.4415429
51
83.1661404
0
ARC
8
DEFAULT_255_1_234
10
18.5257272
20
0.1531771
40
0.258926
50
82.160215
51
90.1505798
0
ARC
8
DEFAULT_255_1_234
10
18.5225699
20
0.0994865
40
0.3126255
50
89.5460705
51
102.5418777
0
ARC
8
DEFAULT_255_1_234
10
18.4982785
20
0.2025665
40
0.2067346
50
102.1739365
51
129.2061916
0
ARC
8
DEFAULT_255_1_234
10
18.4903857
20
0.2150094
40
0.1921118
50
129.7279328
51
135.7542026
0
ARC
8
DEFAULT_255_1_234
10
18.5025384
20
0.2053045
40
0.2075944
50
136.175737
51
166.3674722
0
ARC
8
DEFAULT_255_1_234
10
18.6032304
20
0.1783182
40
0.3118201
50
165.9092917
51
178.8683903
0
ARC
8
DEFAULT_255_1_234
10
18.6897165
20
0.1736179
40
0.3983935
50
178.438168
51
180.0083905
0
ARC
8
DEFAULT_255_1_234
10
18.5495767
20
0.1775231
40
0.4068601
50
163.2878735
51
180.5581814
0
ARC
8
DEFAULT_255_1_234
10
18.4694028
20
0.199584
40
0.3237344
50
133.454115
51
162.9470031
0
ARC
8
DEFAULT_255_1_234
10
18.487257
20
0.1806
40
0.349795
50
100.7869394
51
133.4384016
0
ARC
8
DEFAULT_255_1_234
10
18.5220341
20
0.0257319
40
0.5084616
50
89.6605301
51
101.3704185
0
ARC
8
DEFAULT_255_1_234
10
18.528668
20
0.0318496
40
0.502348
50
78.2171172
51
90.4130393
0
ARC
8
DEFAULT_255_1_234
10
18.5641758
20
0.1942637
40
0.3361092
50
55.9268222
51
78.4888551
0
ARC
8
DEFAULT_255_1_234
10
18.5838199
20
0.2281324
40
0.2970617
50
47.9292255
51
55.4054003
0
ARC
8
DEFAULT_255_1_234
10
18.5939759
20
0.2384502
40
0.2825983
50
4.3347696
51
48.0560701
0
ARC
8
DEFAULT_255_1_234
10
18.4844153
20
0.2214601
40
0.393225
50
359.925209
51
5.5967654
0
ARC
8
DEFAULT_255_1_234
10
18.5273045
20
0.2270816
40
0.3503892
50
337.8914096
51
358.9967724
0
ARC
8
DEFAULT_255_1_234
10
18.2559457
20
0.3317706
40
0.6412172
50
326.9135351
51
338.3505194
0
ARC
8
DEFAULT_255_1_234
10
17.8573761
20
0.5872284
40
1.1146189
50
319.6472867
51
327.095818
0
ARC
8
DEFAULT_255_1_234
10
17.4740764
20
0.9034
40
1.6114559
50
317.2586784
51
319.9046139
0
LINE
8
DEFAULT_255_1_234
10
11.488823
20
102.2457663
11
11.6438355
21
102.2457663
0
LINE
8
DEFAULT_255_1_234
10
10.7434777
20
102.4047947
11
10.7434777
21
102.5172391
0
LINE
8
DEFAULT_255_1_234
10
11.6438355
20
102.6682357
11
11.488823
21
102.6682357
0
LINE
8
DEFAULT_255_1_234
10
10.8984902
20
102.5132232
11
10.8984902
21
102.3999757
0
ARC
8
DEFAULT_255_1_234
10
11.0957742
20
102.3054846
40
0.5513052
50
340.1774281
51
353.7814284
0
ARC
8
DEFAULT_255_1_234
10
11.2529095
20
102.2469582
40
0.3836379
50
311.4558989
51
340.4421614
0
ARC
8
DEFAULT_255_1_234
10
11.2495763
20
102.2580528
40
0.3941894
50
282.4333181
51
310.7513653
0
ARC
8
DEFAULT_255_1_234
10
11.2056502
20
102.4395679
40
0.5809175
50
269.9358511
51
282.809604
0
ARC
8
DEFAULT_255_1_234
10
11.2004568
20
102.5853212
40
0.7266847
50
270.0021091
51
270.3581957
0
ARC
8
DEFAULT_255_1_234
10
11.1951985
20
102.3252585
40
0.4666519
50
250.7884749
51
270.6489167
0
ARC
8
DEFAULT_255_1_234
10
11.178382
20
102.2615319
40
0.4009729
50
219.3627325
51
250.0611886
0
ARC
8
DEFAULT_255_1_234
10
11.2613031
20
102.3320042
40
0.5097822
50
193.5479632
51
219.5756669
0
ARC
8
DEFAULT_255_1_234
10
11.4984652
20
102.3935919
40
0.7547848
50
181.1218675
51
193.87563
0
ARC
8
DEFAULT_255_1_234
10
11.7054833
20
102.404658
40
0.9620055
50
179.9918545
51
181.5394234
0
ARC
8
DEFAULT_255_1_234
10
11.5203935
20
102.5209788
40
0.7769248
50
169.5837241
51
180.2757934
0
ARC
8
DEFAULT_255_1_234
10
11.3366873
20
102.5549229
40
0.590109
50
155.0365899
51
169.6003176
0
ARC
8
DEFAULT_255_1_234
10
11.2231337
20
102.6096677
40
0.4640625
50
136.783148
51
155.2472683
0
ARC
8
DEFAULT_255_1_234
10
11.1841814
20
102.6427562
40
0.4130255
50
121.7633186
51
136.428115
0
ARC
8
DEFAULT_255_1_234
10
11.1976776
20
102.6178227
40
0.4413323
50
95.6459699
51
121.5490577
0
ARC
8
DEFAULT_255_1_234
10
11.2134058
20
102.5069949
40
0.55319
50
89.924208
51
96.1377933
0
ARC
8
DEFAULT_255_1_234
10
11.2184491
20
102.5188542
40
0.5413475
50
76.6779277
51
90.4563316
0
ARC
8
DEFAULT_255_1_234
10
11.2578114
20
102.6779114
40
0.3775041
50
47.485847
51
76.9287264
0
ARC
8
DEFAULT_255_1_234
10
11.2431087
20
102.6679159
40
0.3948286
50
16.5424086
51
46.8933463
0
ARC
8
DEFAULT_255_1_234
10
11.0823244
20
102.6150861
40
0.564021
50
5.4072051
51
17.0365086
0
ARC
8
DEFAULT_255_1_234
10
10.9384261
20
102.5919679
40
0.5556559
50
7.8891745
51
15.9239216
0
ARC
8
DEFAULT_255_1_234
10
11.1371274
20
102.6496631
40
0.3487515
50
15.7653144
51
27.9410532
0
ARC
8
DEFAULT_255_1_234
10
11.2475492
20
102.708779
40
0.2235026
50
27.8166557
51
46.4008329
0
ARC
8
DEFAULT_255_1_234
10
11.2525135
20
102.7082082
40
0.2205286
50
47.4371857
51
75.0698205
0
ARC
8
DEFAULT_255_1_234
10
11.2216529
20
102.6007765
40
0.3322915
50
74.7008593
51
87.8124495
0
ARC
8
DEFAULT_255_1_234
10
11.2143217
20
102.4951844
40
0.4380987
50
87.3814673
51
90.0240855
0
ARC
8
DEFAULT_255_1_234
10
11.210476
20
102.6129291
40
0.3203749
50
89.3451631
51
108.5745436
0
ARC
8
DEFAULT_255_1_234
10
11.1967865
20
102.6642908
40
0.2673494
50
109.2998449
51
143.3037509
0
ARC
8
DEFAULT_255_1_234
10
11.2729938
20
102.6056881
40
0.3634757
50
143.0753173
51
163.1916937
0
ARC
8
DEFAULT_255_1_234
10
11.4681666
20
102.5440967
40
0.5681262
50
162.9373603
51
174.6208611
0
ARC
8
DEFAULT_255_1_234
10
11.7307708
20
102.515301
40
0.8322832
50
174.3419979
51
180.1430411
0
ARC
8
DEFAULT_255_1_234
10
11.6376864
20
102.3958698
40
0.7392076
50
179.6817502
51
189.150529
0
ARC
8
DEFAULT_255_1_234
10
11.3876112
20
102.354219
40
0.4856932
50
188.9910863
51
203.5773039
0
ARC
8
DEFAULT_255_1_234
10
11.2796445
20
102.3094211
40
0.3688271
50
203.9077269
51
215.1312379
0
ARC
8
DEFAULT_255_1_234
10
11.1873539
20
102.2378941
40
0.2522457
50
213.9071664
51
263.8849284
0
ARC
8
DEFAULT_255_1_234
10
11.1998868
20
102.3163518
40
0.3316174
50
263.1758525
51
270.1031083
0
ARC
8
DEFAULT_255_1_234
10
11.203096
20
102.4410365
40
0.4563091
50
269.6719807
51
279.0609165
0
ARC
8
DEFAULT_255_1_234
10
11.2297728
20
102.2797907
40
0.2928759
50
278.8750225
51
293.6346586
0
ARC
8
DEFAULT_255_1_234
10
11.2617936
20
102.20459
40
0.2111472
50
293.8553404
51
310.0518804
0
ARC
8
DEFAULT_255_1_234
10
11.262279
20
102.1983516
40
0.2060917
50
311.0646779
51
332.0108348
0
ARC
8
DEFAULT_255_1_234
10
11.1430517
20
102.2640978
40
0.3422352
50
331.6588543
51
343.2878891
0
ARC
8
DEFAULT_255_1_234
10
10.9368032
20
102.3274798
40
0.5580003
50
343.1446044
51
351.010618
0
ARC
8
DEFAULT_255_1_234
10
10.7826678
20
102.3555871
40
0.7146438
50
350.7157277
51
351.1602153
0
LINE
8
DEFAULT_255_1_234
10
12.630133
20
102.7059849
11
12.4751205
21
102.7059849
0
LINE
8
DEFAULT_255_1_234
10
11.7827846
20
102.2136394
11
11.9377972
21
102.2136394
0
ARC
8
DEFAULT_255_1_234
10
12.5410017
20
103.6006768
40
1.252368
50
248.9199003
51
254.1439814
0
ARC
8
DEFAULT_255_1_234
10
12.3729512
20
103.1680234
40
0.788226
50
241.633709
51
249.0064503
0
ARC
8
DEFAULT_255_1_234
10
12.2200907
20
102.8879317
40
0.4691427
50
230.498225
51
241.8087113
0
ARC
8
DEFAULT_255_1_234
10
12.1416481
20
102.7879906
40
0.3421437
50
227.4064532
51
229.9881192
0
ARC
8
DEFAULT_255_1_234
10
12.0929002
20
102.7404088
40
0.2741476
50
200.6781896
51
228.1763934
0
ARC
8
DEFAULT_255_1_234
10
12.1001312
20
102.7389077
40
0.2804109
50
179.5061581
51
199.8694617
0
ARC
8
DEFAULT_255_1_234
10
12.0992064
20
102.746321
40
0.2795204
50
132.4834203
51
181.0242172
0
ARC
8
DEFAULT_255_1_234
10
12.1587646
20
102.6900704
40
0.3612768
50
129.2532479
51
133.4242687
0
ARC
8
DEFAULT_255_1_234
10
12.1734096
20
102.6680965
40
0.3875675
50
101.98776
51
128.8742646
0
ARC
8
DEFAULT_255_1_234
10
12.2132706
20
102.4959741
40
0.5642249
50
89.5906553
51
102.3169264
0
ARC
8
DEFAULT_255_1_234
10
12.2203199
20
102.5278148
40
0.5323783
50
77.2360837
51
90.3248275
0
ARC
8
DEFAULT_255_1_234
10
12.2410278
20
102.62454
40
0.4334697
50
63.837784
51
77.0809408
0
ARC
8
DEFAULT_255_1_234
10
12.2688039
20
102.6762911
40
0.3747796
50
45.9864267
51
64.1607727
0
ARC
8
DEFAULT_255_1_234
10
12.2948921
20
102.7060866
40
0.3352302
50
32.2747395
51
45.6547121
0
ARC
8
DEFAULT_255_1_234
10
12.3015361
20
102.707988
40
0.328603
50
359.6507365
51
32.6130309
0
ARC
8
DEFAULT_255_1_234
10
12.2072457
20
102.708466
40
0.2678863
50
359.469343
51
14.9832209
0
ARC
8
DEFAULT_255_1_234
10
12.2777519
20
102.7273539
40
0.1948938
50
14.9781179
51
48.2004265
0
ARC
8
DEFAULT_255_1_234
10
12.2613163
20
102.7066983
40
0.2212521
50
48.5927837
51
74.1241538
0
ARC
8
DEFAULT_255_1_234
10
12.2279653
20
102.5966248
40
0.3362561
50
73.7888341
51
86.6652678
0
ARC
8
DEFAULT_255_1_234
10
12.2177218
20
102.4758881
40
0.4573953
50
86.2640471
51
90.0526343
0
ARC
8
DEFAULT_255_1_234
10
12.2148931
20
102.5154192
40
0.4178709
50
89.6697524
51
99.2309573
0
ARC
8
DEFAULT_255_1_234
10
12.1906382
20
102.6598964
40
0.2713749
50
99.069534
51
113.7658566
0
ARC
8
DEFAULT_255_1_234
10
12.1632573
20
102.7244677
40
0.2012469
50
114.0401004
51
127.9850673
0
ARC
8
DEFAULT_255_1_234
10
12.1392137
20
102.754073
40
0.1631167
50
127.7287463
51
176.7105154
0
ARC
8
DEFAULT_255_1_234
10
12.2070854
20
102.7439693
40
0.2315392
50
175.1779447
51
180.0581938
0
ARC
8
DEFAULT_255_1_234
10
12.1227701
20
102.7427428
40
0.1472271
50
179.6142195
51
228.1246017
0
ARC
8
DEFAULT_255_1_234
10
12.166937
20
102.7836308
40
0.2072299
50
226.5779593
51
230.8800004
0
ARC
8
DEFAULT_255_1_234
10
12.2140448
20
102.8461636
40
0.2854818
50
231.4635071
51
241.9260842
0
ARC
8
DEFAULT_255_1_234
10
12.3337626
20
103.06648
40
0.53622
50
241.7178533
51
248.3259551
0
ARC
8
DEFAULT_255_1_234
10
12.4722998
20
103.4097064
40
0.9063478
50
248.2007737
51
252.4528373
0
ARC
8
DEFAULT_255_1_234
10
12.5926723
20
103.7818441
40
1.2974635
50
252.3391078
51
254.3469452
0
ARC
8
DEFAULT_255_1_234
10
11.8384426
20
101.0841148
40
1.5037162
50
71.0197183
51
74.4087047
0
ARC
8
DEFAULT_255_1_234
10
12.0079111
20
101.5733111
40
0.9859993
50
66.1847285
51
71.086374
0
ARC
8
DEFAULT_255_1_234
10
12.1635423
20
101.92372
40
0.6025855
50
59.3536294
51
66.2691831
0
ARC
8
DEFAULT_255_1_234
10
12.2524076
20
102.0740609
40
0.4279449
50
49.1020879
51
59.3293958
0
ARC
8
DEFAULT_255_1_234
10
12.3342816
20
102.1673834
40
0.3038015
50
32.7919921
51
49.2505539
0
ARC
8
DEFAULT_255_1_234
10
12.3663906
20
102.1902191
40
0.264448
50
31.1181161
51
32.4005348
0
ARC
8
DEFAULT_255_1_234
10
12.3575443
20
102.1866779
40
0.2738556
50
8.1116974
51
30.7958831
0
ARC
8
DEFAULT_255_1_234
10
12.2765111
20
102.1728753
40
0.3560327
50
359.8389159
51
8.4706516
0
ARC
8
DEFAULT_255_1_234
10
12.3390903
20
102.1680137
40
0.2934776
50
337.4731098
51
0.7537279
0
ARC
8
DEFAULT_255_1_234
10
12.3569598
20
102.1660387
40
0.2762607
50
307.5917067
51
336.4315538
0
ARC
8
DEFAULT_255_1_234
10
12.3109426
20
102.2173102
40
0.3449979
50
307.6551545
51
308.4529766
0
ARC
8
DEFAULT_255_1_234
10
12.2879145
20
102.252825
40
0.3871988
50
284.3734338
51
307.1424381
0
ARC
8
DEFAULT_255_1_234
10
12.2383975
20
102.4349932
40
0.5759636
50
272.4382747
51
284.646547
0
ARC
8
DEFAULT_255_1_234
10
12.2257184
20
102.6149893
40
0.7563528
50
269.9708387
51
272.8178037
0
ARC
8
DEFAULT_255_1_234
10
12.2214223
20
102.4111716
40
0.5525489
50
248.2707594
51
270.4055579
0
ARC
8
DEFAULT_255_1_234
10
12.2159964
20
102.3921192
40
0.5328452
50
246.1383403
51
248.0542782
0
ARC
8
DEFAULT_255_1_234
10
12.1741343
20
102.3041843
40
0.4355005
50
233.1670131
51
246.4950969
0
ARC
8
DEFAULT_255_1_234
10
12.1187248
20
102.2293812
40
0.3424126
50
215.3403242
51
233.0843104
0
ARC
8
DEFAULT_255_1_234
10
12.0914679
20
102.2095549
40
0.3087104
50
179.2419209
51
215.2648451
0
ARC
8
DEFAULT_255_1_234
10
12.1682273
20
102.2109666
40
0.2304457
50
179.335461
51
199.1045811
0
ARC
8
DEFAULT_255_1_234
10
12.134995
20
102.2022766
40
0.1962176
50
199.8828939
51
232.7063202
0
ARC
8
DEFAULT_255_1_234
10
12.1822218
20
102.2616788
40
0.2720938
50
232.3738199
51
255.5136649
0
ARC
8
DEFAULT_255_1_234
10
12.2163085
20
102.3860835
40
0.4010747
50
255.2446292
51
267.5320849
0
ARC
8
DEFAULT_255_1_234
10
12.2250708
20
102.5093702
40
0.5246356
50
267.1557994
51
270.0286766
0
ARC
8
DEFAULT_255_1_234
10
12.227848
20
102.464995
40
0.4802668
50
269.7000017
51
278.1660162
0
ARC
8
DEFAULT_255_1_234
10
12.2534485
20
102.2919515
40
0.3053425
50
278.0231263
51
290.625471
0
ARC
8
DEFAULT_255_1_234
10
12.2882172
20
102.1992025
40
0.206291
50
290.6619762
51
307.0370976
0
ARC
8
DEFAULT_255_1_234
10
12.3182562
20
102.1623504
40
0.1587906
50
306.3943566
51
355.3030547
0
ARC
8
DEFAULT_255_1_234
10
12.2670493
20
102.1700113
40
0.2104809
50
354.3660432
51
0.0698737
0
ARC
8
DEFAULT_255_1_234
10
12.2812838
20
102.1722617
40
0.1962563
50
359.417946
51
16.1971788
0
ARC
8
DEFAULT_255_1_234
10
12.3268149
20
102.1847418
40
0.149053
50
16.4723299
51
52.6262157
0
ARC
8
DEFAULT_255_1_234
10
12.2447202
20
102.0763433
40
0.2850296
50
52.7386432
51
62.4979148
0
ARC
8
DEFAULT_255_1_234
10
12.1062279
20
101.8157283
40
0.5801521
50
62.2515216
51
68.1220564
0
ARC
8
DEFAULT_255_1_234
10
11.934219
20
101.3929872
40
1.0365451
50
68.0062803
51
71.8053402
0
ARC
8
DEFAULT_255_1_234
10
11.7546562
20
100.8544758
40
1.6042013
50
71.7183119
51
73.9258742
0
LINE
8
DEFAULT_255_1_234
10
13.1160532
20
102.4321026
11
13.1160532
21
102.3108234
0
LINE
8
DEFAULT_255_1_234
10
13.1160532
20
102.3108234
11
12.7241043
21
102.3108234
0
LINE
8
DEFAULT_255_1_234
10
12.7241043
20
102.3108234
11
12.7241043
21
102.4321026
0
LINE
8
DEFAULT_255_1_234
10
12.7241043
20
102.4321026
11
13.1160532
21
102.4321026
0
LINE
8
DEFAULT_255_1_234
10
14.0597824
20
102.7059849
11
13.9047699
21
102.7059849
0
LINE
8
DEFAULT_255_1_234
10
13.212434
20
102.2136394
11
13.3674466
21
102.2136394
0
ARC
8
DEFAULT_255_1_234
10
13.9706512
20
103.6006768
40
1.252368
50
248.9199003
51
254.1439814
0
ARC
8
DEFAULT_255_1_234
10
13.8026006
20
103.1680234
40
0.788226
50
241.633709
51
249.0064503
0
ARC
8
DEFAULT_255_1_234
10
13.6497401
20
102.8879317
40
0.4691427
50
230.498225
51
241.8087113
0
ARC
8
DEFAULT_255_1_234
10
13.5712975
20
102.7879906
40
0.3421437
50
227.4064532
51
229.9881192
0
ARC
8
DEFAULT_255_1_234
10
13.5225496
20
102.7404088
40
0.2741476
50
200.6781896
51
228.1763934
0
ARC
8
DEFAULT_255_1_234
10
13.5297806
20
102.7389077
40
0.2804109
50
179.5061581
51
199.8694617
0
ARC
8
DEFAULT_255_1_234
10
13.5288558
20
102.746321
40
0.2795204
50
132.4834203
51
181.0242172
0
ARC
8
DEFAULT_255_1_234
10
13.588414
20
102.6900704
40
0.3612768
50
129.2532479
51
133.4242687
0
ARC
8
DEFAULT_255_1_234
10
13.603059
20
102.6680965
40
0.3875675
50
101.98776
51
128.8742646
0
ARC
8
DEFAULT_255_1_234
10
13.6429201
20
102.4959741
40
0.5642249
50
89.5906553
51
102.3169264
0
ARC
8
DEFAULT_255_1_234
10
13.6499693
20
102.5278148
40
0.5323783
50
77.2360837
51
90.3248275
0
ARC
8
DEFAULT_255_1_234
10
13.6706772
20
102.62454
40
0.4334697
50
63.837784
51
77.0809408
0
ARC
8
DEFAULT_255_1_234
10
13.6984534
20
102.6762911
40
0.3747796
50
45.9864267
51
64.1607727
0
ARC
8
DEFAULT_255_1_234
10
13.7245415
20
102.7060866
40
0.3352302
50
32.2747395
51
45.6547121
0
ARC
8
DEFAULT_255_1_234
10
13.7311856
20
102.707988
40
0.328603
50
359.6507365
51
32.6130309
0
ARC
8
DEFAULT_255_1_234
10
13.6368951
20
102.708466
40
0.2678863
50
359.469343
51
14.9832209
0
ARC
8
DEFAULT_255_1_234
10
13.7074013
20
102.7273539
40
0.1948938
50
14.9781179
51
48.2004265
0
ARC
8
DEFAULT_255_1_234
10
13.6909657
20
102.7066983
40
0.2212521
50
48.5927837
51
74.1241538
0
ARC
8
DEFAULT_255_1_234
10
13.6576147
20
102.5966248
40
0.3362561
50
73.7888341
51
86.6652678
0
ARC
8
DEFAULT_255_1_234
10
13.6473713
20
102.4758881
40
0.4573953
50
86.2640471
51
90.0526343
0
ARC
8
DEFAULT_255_1_234
10
13.6445425
20
102.5154192
40
0.4178709
50
89.6697524
51
99.2309573
0
ARC
8
DEFAULT_255_1_234
10
13.6202876
20
102.6598964
40
0.2713749
50
99.069534
51
113.7658566
0
ARC
8
DEFAULT_255_1_234
10
13.5929067
20
102.7244677
40
0.2012469
50
114.0401004
51
127.9850673
0
ARC
8
DEFAULT_255_1_234
10
13.5688631
20
102.754073
40
0.1631167
50
127.7287463
51
176.7105154
0
ARC
8
DEFAULT_255_1_234
10
13.6367348
20
102.7439693
40
0.2315392
50
175.1779447
51
180.0581938
0
ARC
8
DEFAULT_255_1_234
10
13.5524195
20
102.7427428
40
0.1472271
50
179.6142195
51
228.1246017
0
ARC
8
DEFAULT_255_1_234
10
13.5965864
20
102.7836308
40
0.2072299
50
226.5779593
51
230.8800004
0
ARC
8
DEFAULT_255_1_234
10
13.6436943
20
102.8461636
40
0.2854818
50
231.4635071
51
241.9260842
0
ARC
8
DEFAULT_255_1_234
10
13.7634121
20
103.06648
40
0.53622
50
241.7178533
51
248.3259551
0
ARC
8
DEFAULT_255_1_234
10
13.9019492
20
103.4097064
40
0.9063478
50
248.2007737
51
252.4528373
0
ARC
8
DEFAULT_255_1_234
10
14.0223217
20
103.7818441
40
1.2974635
50
252.3391078
51
254.3469452
0
ARC
8
DEFAULT_255_1_234
10
13.268092
20
101.0841148
40
1.5037162
50
71.0197183
51
74.4087047
0
ARC
8
DEFAULT_255_1_234
10
13.4375605
20
101.5733111
40
0.9859993
50
66.1847285
51
71.086374
0
ARC
8
DEFAULT_255_1_234
10
13.5931918
20
101.92372
40
0.6025855
50
59.3536294
51
66.2691831
0
ARC
8
DEFAULT_255_1_234
10
13.682057
20
102.0740609
40
0.4279449
50
49.1020879
51
59.3293958
0
ARC
8
DEFAULT_255_1_234
10
13.763931
20
102.1673834
40
0.3038015
50
32.7919921
51
49.2505539
0
ARC
8
DEFAULT_255_1_234
10
13.79604
20
102.1902191
40
0.264448
50
31.1181161
51
32.4005348
0
ARC
8
DEFAULT_255_1_234
10
13.7871938
20
102.1866779
40
0.2738556
50
8.1116974
51
30.7958831
0
ARC
8
DEFAULT_255_1_234
10
13.7061606
20
102.1728753
40
0.3560327
50
359.8389159
51
8.4706516
0
ARC
8
DEFAULT_255_1_234
10
13.7687397
20
102.1680137
40
0.2934776
50
337.4731098
51
0.7537279
0
ARC
8
DEFAULT_255_1_234
10
13.7866092
20
102.1660387
40
0.2762607
50
307.5917067
51
336.4315538
0
ARC
8
DEFAULT_255_1_234
10
13.740592
20
102.2173102
40
0.3449979
50
307.6551545
51
308.4529766
0
ARC
8
DEFAULT_255_1_234
10
13.7175639
20
102.252825
40
0.3871988
50
284.3734338
51
307.1424381
0
ARC
8
DEFAULT_255_1_234
10
13.6680469
20
102.4349932
40
0.5759636
50
272.4382747
51
284.646547
0
ARC
8
DEFAULT_255_1_234
10
13.6553678
20
102.6149893
40
0.7563528
50
269.9708387
51
272.8178037
0
ARC
8
DEFAULT_255_1_234
10
13.6510717
20
102.4111716
40
0.5525489
50
248.2707594
51
270.4055579
0
ARC
8
DEFAULT_255_1_234
10
13.6456458
20
102.3921192
40
0.5328452
50
246.1383403
51
248.0542782
0
ARC
8
DEFAULT_255_1_234
10
13.6037837
20
102.3041843
40
0.4355005
50
233.1670131
51
246.4950969
0
ARC
8
DEFAULT_255_1_234
10
13.5483742
20
102.2293812
40
0.3424126
50
215.3403242
51
233.0843104
0
ARC
8
DEFAULT_255_1_234
10
13.5211174
20
102.2095549
40
0.3087104
50
179.2419209
51
215.2648451
0
ARC
8
DEFAULT_255_1_234
10
13.5978767
20
102.2109666
40
0.2304457
50
179.335461
51
199.1045811
0
ARC
8
DEFAULT_255_1_234
10
13.5646444
20
102.2022766
40
0.1962176
50
199.8828939
51
232.7063202
0
ARC
8
DEFAULT_255_1_234
10
13.6118712
20
102.2616788
40
0.2720938
50
232.3738199
51
255.5136649
0
ARC
8
DEFAULT_255_1_234
10
13.6459579
20
102.3860835
40
0.4010747
50
255.2446292
51
267.5320849
0
ARC
8
DEFAULT_255_1_234
10
13.6547202
20
102.5093702
40
0.5246356
50
267.1557994
51
270.0286766
0
ARC
8
DEFAULT_255_1_234
10
13.6574975
20
102.464995
40
0.4802668
50
269.7000017
51
278.1660162
0
ARC
8
DEFAULT_255_1_234
10
13.6830979
20
102.2919515
40
0.3053425
50
278.0231263
51
290.625471
0
ARC
8
DEFAULT_255_1_234
10
13.7178666
20
102.1992025
40
0.206291
50
290.6619762
51
307.0370976
0
ARC
8
DEFAULT_255_1_234
10
13.7479056
20
102.1623504
40
0.1587906
50
306.3943566
51
355.3030547
0
ARC
8
DEFAULT_255_1_234
10
13.6966987
20
102.1700113
40
0.2104809
50
354.3660432
51
0.0698737
0
ARC
8
DEFAULT_255_1_234
10
13.7109332
20
102.1722617
40
0.1962563
50
359.417946
51
16.1971788
0
ARC
8
DEFAULT_255_1_234
10
13.7564643
20
102.1847418
40
0.149053
50
16.4723299
51
52.6262157
0
ARC
8
DEFAULT_255_1_234
10
13.6743697
20
102.0763433
40
0.2850296
50
52.7386432
51
62.4979148
0
ARC
8
DEFAULT_255_1_234
10
13.5358773
20
101.8157283
40
0.5801521
50
62.2515216
51
68.1220564
0
ARC
8
DEFAULT_255_1_234
10
13.3638684
20
101.3929872
40
1.0365451
50
68.0062803
51
71.8053402
0
ARC
8
DEFAULT_255_1_234
10
13.1843056
20
100.8544758
40
1.6042013
50
71.7183119
51
73.9258742
0
LINE
8
DEFAULT_255_1_234
10
14.1987315
20
102.2851218
11
14.1987315
21
102.3124297
0
LINE
8
DEFAULT_255_1_234
10
14.9360451
20
102.3284932
11
14.9360451
21
102.2666488
0
LINE
8
DEFAULT_255_1_234
10
14.9360451
20
102.2666488
11
14.3473187
21
102.2666488
0
LINE
8
DEFAULT_255_1_234
10
14.834042
20
102.0971792
11
14.9248006
21
102.0264999
0
LINE
8
DEFAULT_255_1_234
10
14.3521377
20
102.3887313
11
14.7874579
21
102.3887313
0
LINE
8
DEFAULT_255_1_234
10
14.7874579
20
102.3887313
11
14.7874579
21
102.3999757
0
ARC
8
DEFAULT_255_1_234
10
14.592668
20
102.2962332
40
0.4376191
50
252.3266134
51
270.5810217
0
ARC
8
DEFAULT_255_1_234
10
14.5721769
20
102.2221644
40
0.3608374
50
223.3000567
51
251.8561855
0
ARC
8
DEFAULT_255_1_234
10
14.593313
20
102.2426937
40
0.3902993
50
190.9374509
51
223.3654032
0
ARC
8
DEFAULT_255_1_234
10
14.7658102
20
102.2816885
40
0.5670891
50
179.6531105
51
191.4989439
0
ARC
8
DEFAULT_255_1_234
10
14.7780114
20
102.3156417
40
0.5792888
50
167.4007466
51
180.3176909
0
ARC
8
DEFAULT_255_1_234
10
14.6728176
20
102.3378885
40
0.471777
50
154.1835823
51
167.250763
0
ARC
8
DEFAULT_255_1_234
10
14.6096643
20
102.3711417
40
0.4004528
50
134.3149965
51
154.5315275
0
ARC
8
DEFAULT_255_1_234
10
14.5879138
20
102.3902228
40
0.371612
50
122.8616532
51
133.9707695
0
ARC
8
DEFAULT_255_1_234
10
14.5775713
20
102.4124703
40
0.3473289
50
89.8249009
51
123.4199222
0
ARC
8
DEFAULT_255_1_234
10
14.5825754
20
102.3477967
40
0.4120197
50
74.7876118
51
90.5482747
0
ARC
8
DEFAULT_255_1_234
10
14.6119497
20
102.456303
40
0.2996077
50
39.8178249
51
74.7633718
0
ARC
8
DEFAULT_255_1_234
10
14.5606817
20
102.4163351
40
0.3645855
50
16.8990863
51
39.4829761
0
ARC
8
DEFAULT_255_1_234
10
14.3712113
20
102.3556526
40
0.5635218
50
4.9636328
51
17.2026414
0
ARC
8
DEFAULT_255_1_234
10
14.1294184
20
102.330134
40
0.8066286
50
359.8834553
51
5.2834307
0
ARC
8
DEFAULT_255_1_234
10
14.7331708
20
102.2732803
40
0.3859091
50
180.9846213
51
194.9401313
0
ARC
8
DEFAULT_255_1_234
10
14.6281986
20
102.2445849
40
0.2770883
50
194.80314
51
222.0412631
0
ARC
8
DEFAULT_255_1_234
10
14.5977868
20
102.2144116
40
0.2343055
50
221.5417084
51
268.8614402
0
ARC
8
DEFAULT_255_1_234
10
14.6050862
20
102.2820686
40
0.3021528
50
267.732405
51
270.0097136
0
ARC
8
DEFAULT_255_1_234
10
14.6068672
20
102.3022105
40
0.3222994
50
269.6924892
51
280.4117579
0
ARC
8
DEFAULT_255_1_234
10
14.6245079
20
102.2103193
40
0.2287344
50
280.2255091
51
298.6338936
0
ARC
8
DEFAULT_255_1_234
10
14.6361871
20
102.1859223
40
0.2017294
50
299.0430333
51
300.4643464
0
ARC
8
DEFAULT_255_1_234
10
14.5681877
20
102.2993038
40
0.3339357
50
300.6577328
51
322.0378878
0
ARC
8
DEFAULT_255_1_234
10
14.5331416
20
102.3297021
40
0.3802736
50
321.6750233
51
322.3046845
0
ARC
8
DEFAULT_255_1_234
10
14.6262377
20
102.213037
40
0.3520454
50
276.9728461
51
328.0035423
0
ARC
8
DEFAULT_255_1_234
10
14.598543
20
102.3610841
40
0.5024498
50
269.8361028
51
278.0581756
0
ARC
8
DEFAULT_255_1_234
10
14.5758167
20
102.4355757
40
0.202159
50
89.2018686
51
117.2851756
0
ARC
8
DEFAULT_255_1_234
10
14.5811336
20
102.4313752
40
0.2083484
50
118.0551165
51
137.4540413
0
ARC
8
DEFAULT_255_1_234
10
14.6186076
20
102.3973304
40
0.2589774
50
137.5109581
51
158.8516286
0
ARC
8
DEFAULT_255_1_234
10
14.7323912
20
102.3514074
40
0.38167
50
158.5845963
51
170.1721436
0
ARC
8
DEFAULT_255_1_234
10
14.8493301
20
102.3281823
40
0.5008657
50
169.8376422
51
173.0566086
0
ARC
8
DEFAULT_255_1_234
10
14.3796375
20
102.3792509
40
0.4083467
50
2.9091802
51
12.8847116
0
ARC
8
DEFAULT_255_1_234
10
14.5167052
20
102.4115101
40
0.2675383
50
12.6957781
51
28.6404489
0
ARC
8
DEFAULT_255_1_234
10
14.5708722
20
102.4395458
40
0.2065654
50
29.0169854
51
41.1487595
0
ARC
8
DEFAULT_255_1_234
10
14.5911508
20
102.4572003
40
0.1796786
50
41.1646065
51
85.0013516
0
ARC
8
DEFAULT_255_1_234
10
14.5790604
20
102.3837431
40
0.2539726
50
83.7280015
51
90.0964893
0
LINE
8
DEFAULT_255_1_234
10
15.5279842
20
102.7485531
11
15.5279842
21
102.6104072
0
LINE
8
DEFAULT_255_1_234
10
15.2565114
20
102.4915375
11
15.2565114
21
101.8747
0
LINE
8
DEFAULT_255_1_234
10
15.2565114
20
101.8747
11
15.1079243
21
101.8747
0
LINE
8
DEFAULT_255_1_234
10
15.1079243
20
101.8747
11
15.1079243
21
102.7437341
0
LINE
8
DEFAULT_255_1_234
10
15.1079243
20
102.7437341
11
15.2524956
21
102.7437341
0
LINE
8
DEFAULT_255_1_234
10
15.2524956
20
102.7437341
11
15.2549051
21
102.6433374
0
ARC
8
DEFAULT_255_1_234
10
15.4613247
20
102.2044342
40
0.4114092
50
80.6754243
51
86.8932892
0
ARC
8
DEFAULT_255_1_234
10
15.4552782
20
102.10767
40
0.5083596
50
86.8038578
51
90.0431435
0
ARC
8
DEFAULT_255_1_234
10
15.4515762
20
102.3533866
40
0.2626638
50
89.2759698
51
106.6213787
0
ARC
8
DEFAULT_255_1_234
10
15.4311326
20
102.427683
40
0.1856317
50
107.1346045
51
157.6458115
0
ARC
8
DEFAULT_255_1_234
10
15.5002928
20
102.3893311
40
0.2643398
50
155.6586782
51
157.2539184
0
ARC
8
DEFAULT_255_1_234
10
15.479813
20
102.5062157
40
0.2634121
50
127.8165941
51
148.6302098
0
ARC
8
DEFAULT_255_1_234
10
15.4544599
20
102.5322218
40
0.2273596
50
91.3329982
51
126.7875809
0
ARC
8
DEFAULT_255_1_234
10
15.4620539
20
102.4607195
40
0.299078
50
89.986594
51
92.4688449
0
ARC
8
DEFAULT_255_1_234
10
15.4628934
20
102.4882078
40
0.2715908
50
85.3589899
51
90.1623399
0
ARC
8
DEFAULT_255_1_234
10
15.471345
20
102.5886164
40
0.1708278
50
78.401942
51
85.4594656
0
ARC
8
DEFAULT_255_1_234
10
15.4858334
20
102.6577236
40
0.1002194
50
67.7858312
51
78.5728455
0
ARC
8
DEFAULT_255_1_234
10
15.4966187
20
102.6856887
40
0.0702548
50
63.4835954
51
67.3062642
0
LINE
8
DEFAULT_255_1_234
10
15.8259617
20
102.7437341
11
15.8259617
21
101.8747
0
LINE
8
DEFAULT_255_1_234
10
15.8259617
20
101.8747
11
15.6773745
21
101.8747
0
LINE
8
DEFAULT_255_1_234
10
15.6773745
20
101.8747
11
15.6773745
21
102.7437341
0
LINE
8
DEFAULT_255_1_234
10
15.6773745
20
102.7437341
11
15.8259617
21
102.7437341
0
ARC
8
DEFAULT_255_1_234
10
15.7631894
20
102.9751889
40
0.097867
50
161.415052
51
180.5526306
0
ARC
8
DEFAULT_255_1_234
10
15.7507672
20
102.9786077
40
0.0850062
50
138.1827368
51
160.9307106
0
ARC
8
DEFAULT_255_1_234
10
15.7397618
20
102.9881588
40
0.0704362
50
104.6368899
51
138.0039868
0
ARC
8
DEFAULT_255_1_234
10
15.7504772
20
102.9514963
40
0.1086221
50
92.0600725
51
105.2189128
0
ARC
8
DEFAULT_255_1_234
10
15.7528121
20
102.9172117
40
0.1429728
50
89.9756393
51
92.5012496
0
ARC
8
DEFAULT_255_1_234
10
15.753814
20
102.9397731
40
0.1204151
50
78.0235316
51
90.4478182
0
ARC
8
DEFAULT_255_1_234
10
15.7630232
20
102.9811295
40
0.0780493
50
55.051506
51
78.3369085
0
ARC
8
DEFAULT_255_1_234
10
15.7680506
20
102.9895711
40
0.0682538
50
42.0501187
51
54.4513741
0
ARC
8
DEFAULT_255_1_234
10
15.7545373
20
102.9771798
40
0.0865878
50
1.7497075
51
42.1496013
0
ARC
8
DEFAULT_255_1_234
10
15.7290706
20
102.9742738
40
0.1121515
50
359.9852656
51
2.8364544
0
ARC
8
DEFAULT_255_1_234
10
15.7456699
20
102.9733229
40
0.0955566
50
342.1070653
51
0.552888
0
ARC
8
DEFAULT_255_1_234
10
15.7599396
20
102.9693904
40
0.0807713
50
316.7107116
51
341.6516965
0
ARC
8
DEFAULT_255_1_234
10
15.7666433
20
102.9633823
40
0.0717724
50
285.4397031
51
316.5324284
0
ARC
8
DEFAULT_255_1_234
10
15.755635
20
102.9999554
40
0.1099597
50
272.3547054
51
285.8953117
0
ARC
8
DEFAULT_255_1_234
10
15.7529508
20
103.0365048
40
0.1465932
50
269.9695369
51
272.8160237
0
ARC
8
DEFAULT_255_1_234
10
15.7519689
20
103.0145863
40
0.1246779
50
258.8431134
51
270.4153935
0
ARC
8
DEFAULT_255_1_234
10
15.7429732
20
102.9710414
40
0.0802162
50
238.5431189
51
259.1288175
0
ARC
8
DEFAULT_255_1_234
10
15.7361617
20
102.9586856
40
0.0661247
50
222.5062634
51
237.9906969
0
ARC
8
DEFAULT_255_1_234
10
15.7489204
20
102.9702889
40
0.0833707
50
184.1069131
51
222.460413
0
ARC
8
DEFAULT_255_1_234
10
15.7758445
20
102.9741349
40
0.1105176
50
179.9429482
51
185.0960898
0
LINE
8
DEFAULT_255_1_234
10
16.025952
20
102.2851218
11
16.025952
21
102.3124297
0
LINE
8
DEFAULT_255_1_234
10
16.7632655
20
102.3284932
11
16.7632655
21
102.2666488
0
LINE
8
DEFAULT_255_1_234
10
16.7632655
20
102.2666488
11
16.1745391
21
102.2666488
0
LINE
8
DEFAULT_255_1_234
10
16.6612625
20
102.0971792
11
16.7520211
21
102.0264999
0
LINE
8
DEFAULT_255_1_234
10
16.1793582
20
102.3887313
11
16.6146784
21
102.3887313
0
LINE
8
DEFAULT_255_1_234
10
16.6146784
20
102.3887313
11
16.6146784
21
102.3999757
0
ARC
8
DEFAULT_255_1_234
10
16.4198885
20
102.2962332
40
0.4376191
50
252.3266134
51
270.5810217
0
ARC
8
DEFAULT_255_1_234
10
16.3993974
20
102.2221644
40
0.3608374
50
223.3000567
51
251.8561855
0
ARC
8
DEFAULT_255_1_234
10
16.4205334
20
102.2426937
40
0.3902993
50
190.9374509
51
223.3654032
0
ARC
8
DEFAULT_255_1_234
10
16.5930307
20
102.2816885
40
0.5670891
50
179.6531105
51
191.4989439
0
ARC
8
DEFAULT_255_1_234
10
16.6052319
20
102.3156417
40
0.5792888
50
167.4007466
51
180.3176909
0
ARC
8
DEFAULT_255_1_234
10
16.500038
20
102.3378885
40
0.471777
50
154.1835823
51
167.250763
0
ARC
8
DEFAULT_255_1_234
10
16.4368848
20
102.3711417
40
0.4004528
50
134.3149965
51
154.5315275
0
ARC
8
DEFAULT_255_1_234
10
16.4151343
20
102.3902228
40
0.371612
50
122.8616532
51
133.9707695
0
ARC
8
DEFAULT_255_1_234
10
16.4047917
20
102.4124703
40
0.3473289
50
89.8249009
51
123.4199222
0
ARC
8
DEFAULT_255_1_234
10
16.4097958
20
102.3477967
40
0.4120197
50
74.7876118
51
90.5482747
0
ARC
8
DEFAULT_255_1_234
10
16.4391701
20
102.456303
40
0.2996077
50
39.8178249
51
74.7633718
0
ARC
8
DEFAULT_255_1_234
10
16.3879022
20
102.4163351
40
0.3645855
50
16.8990863
51
39.4829761
0
ARC
8
DEFAULT_255_1_234
10
16.1984318
20
102.3556526
40
0.5635218
50
4.9636328
51
17.2026414
0
ARC
8
DEFAULT_255_1_234
10
15.9566388
20
102.330134
40
0.8066286
50
359.8834553
51
5.2834307
0
ARC
8
DEFAULT_255_1_234
10
16.5603913
20
102.2732803
40
0.3859091
50
180.9846213
51
194.9401313
0
ARC
8
DEFAULT_255_1_234
10
16.455419
20
102.2445849
40
0.2770883
50
194.80314
51
222.0412631
0
ARC
8
DEFAULT_255_1_234
10
16.4250072
20
102.2144116
40
0.2343055
50
221.5417084
51
268.8614402
0
ARC
8
DEFAULT_255_1_234
10
16.4323067
20
102.2820686
40
0.3021528
50
267.732405
51
270.0097136
0
ARC
8
DEFAULT_255_1_234
10
16.4340877
20
102.3022105
40
0.3222994
50
269.6924892
51
280.4117579
0
ARC
8
DEFAULT_255_1_234
10
16.4517284
20
102.2103193
40
0.2287344
50
280.2255091
51
298.6338936
0
ARC
8
DEFAULT_255_1_234
10
16.4634076
20
102.1859223
40
0.2017294
50
299.0430333
51
300.4643464
0
ARC
8
DEFAULT_255_1_234
10
16.3954081
20
102.2993038
40
0.3339357
50
300.6577328
51
322.0378878
0
ARC
8
DEFAULT_255_1_234
10
16.360362
20
102.3297021
40
0.3802736
50
321.6750233
51
322.3046845
0
ARC
8
DEFAULT_255_1_234
10
16.4534582
20
102.213037
40
0.3520454
50
276.9728461
51
328.0035423
0
ARC
8
DEFAULT_255_1_234
10
16.4257635
20
102.3610841
40
0.5024498
50
269.8361028
51
278.0581756
0
ARC
8
DEFAULT_255_1_234
10
16.4030372
20
102.4355757
40
0.202159
50
89.2018686
51
117.2851756
0
ARC
8
DEFAULT_255_1_234
10
16.4083541
20
102.4313752
40
0.2083484
50
118.0551165
51
137.4540413
0
ARC
8
DEFAULT_255_1_234
10
16.4458281
20
102.3973304
40
0.2589774
50
137.5109581
51
158.8516286
0
ARC
8
DEFAULT_255_1_234
10
16.5596116
20
102.3514074
40
0.38167
50
158.5845963
51
170.1721436
0
ARC
8
DEFAULT_255_1_234
10
16.6765506
20
102.3281823
40
0.5008657
50
169.8376422
51
173.0566086
0
ARC
8
DEFAULT_255_1_234
10
16.206858
20
102.3792509
40
0.4083467
50
2.9091802
51
12.8847116
0
ARC
8
DEFAULT_255_1_234
10
16.3439256
20
102.4115101
40
0.2675383
50
12.6957781
51
28.6404489
0
ARC
8
DEFAULT_255_1_234
10
16.3980927
20
102.4395458
40
0.2065654
50
29.0169854
51
41.1487595
0
ARC
8
DEFAULT_255_1_234
10
16.4183712
20
102.4572003
40
0.1796786
50
41.1646065
51
85.0013516
0
ARC
8
DEFAULT_255_1_234
10
16.4062809
20
102.3837431
40
0.2539726
50
83.7280015
51
90.0964893
0
LINE
8
DEFAULT_255_1_234
10
17.5816997
20
102.4883248
11
17.4323093
21
102.4883248
0
LINE
8
DEFAULT_255_1_234
10
16.8990019
20
102.1421569
11
17.0475891
21
102.1421569
0
ARC
8
DEFAULT_255_1_234
10
17.3134912
20
102.1066959
40
0.1276617
50
359.3334982
51
18.5871358
0
ARC
8
DEFAULT_255_1_234
10
17.3343549
20
102.1122133
40
0.1061371
50
19.3540742
51
54.6485071
0
ARC
8
DEFAULT_255_1_234
10
17.2839451
20
102.0426919
40
0.1920087
50
54.3827097
51
65.0622807
0
ARC
8
DEFAULT_255_1_234
10
17.2070847
20
101.88099
40
0.3710447
50
64.8282493
51
71.4200025
0
ARC
8
DEFAULT_255_1_234
10
17.1168723
20
101.6163107
40
0.6506741
50
71.3164301
51
75.8006402
0
ARC
8
DEFAULT_255_1_234
10
17.0327543
20
101.2922561
40
0.9854641
50
75.6809531
51
78.0061883
0
ARC
8
DEFAULT_255_1_234
10
17.4776076
20
103.390177
40
1.1591028
50
254.6901892
51
258.0466452
0
ARC
8
DEFAULT_255_1_234
10
17.3737984
20
103.0142781
40
0.7691345
50
249.9010773
51
254.755261
0
ARC
8
DEFAULT_255_1_234
10
17.2734326
20
102.7416982
40
0.478665
50
243.3097214
51
249.9709442
0
ARC
8
DEFAULT_255_1_234
10
17.2105348
20
102.6162778
40
0.3383568
50
234.4047477
51
243.2862168
0
ARC
8
DEFAULT_255_1_234
10
17.1482871
20
102.5303232
40
0.2322322
50
220.8667099
51
234.5493881
0
ARC
8
DEFAULT_255_1_234
10
17.1140812
20
102.4991817
40
0.1859923
50
214.3062465
51
220.5065136
0
ARC
8
DEFAULT_255_1_234
10
17.1114891
20
102.496088
40
0.1821108
50
186.912965
51
213.9618616
0
ARC
8
DEFAULT_255_1_234
10
17.1646986
20
102.5047009
40
0.2359799
50
179.8808832
51
187.4339886
0
ARC
8
DEFAULT_255_1_234
10
17.149212
20
102.5067088
40
0.2204978
50
132.005434
51
180.3942919
0
ARC
8
DEFAULT_255_1_234
10
17.2148733
20
102.4461083
40
0.3095791
50
129.2319861
51
133.5302299
0
ARC
8
DEFAULT_255_1_234
10
17.2202241
20
102.4366928
40
0.3202615
50
100.4410011
51
128.9081242
0
ARC
8
DEFAULT_255_1_234
10
17.2476125
20
102.3081455
40
0.4516583
50
89.6985377
51
100.9026564
0
ARC
8
DEFAULT_255_1_234
10
17.2533167
20
102.2921166
40
0.4676928
50
77.6965325
51
90.4076836
0
ARC
8
DEFAULT_255_1_234
10
17.2864151
20
102.4348413
40
0.3211988
50
50.7276602
51
78.0399361
0
ARC
8
DEFAULT_255_1_234
10
17.3308609
20
102.4866296
40
0.2529778
50
25.7545084
51
51.0957453
0
ARC
8
DEFAULT_255_1_234
10
17.3309834
20
102.4916206
40
0.250738
50
359.2468627
51
24.7394243
0
ARC
8
DEFAULT_255_1_234
10
17.3025286
20
102.4887664
40
0.1297815
50
359.8050318
51
45.1544908
0
ARC
8
DEFAULT_255_1_234
10
17.2618428
20
102.4539794
40
0.1831883
50
43.8047702
51
49.6271585
0
ARC
8
DEFAULT_255_1_234
10
17.2626329
20
102.4540678
40
0.18261
50
49.7980766
51
82.1218353
0
ARC
8
DEFAULT_255_1_234
10
17.2507301
20
102.3893998
40
0.2483163
50
81.4465357
51
90.1710293
0
ARC
8
DEFAULT_255_1_234
10
17.2482904
20
102.336788
40
0.300932
50
89.6766211
51
99.1264602
0
ARC
8
DEFAULT_255_1_234
10
17.2311366
20
102.4401537
40
0.1961547
50
98.968313
51
113.4570237
0
ARC
8
DEFAULT_255_1_234
10
17.2115451
20
102.4869965
40
0.1453859
50
113.722589
51
127.4763106
0
ARC
8
DEFAULT_255_1_234
10
17.1947097
20
102.5070124
40
0.1192639
50
126.9083309
51
150.3165862
0
ARC
8
DEFAULT_255_1_234
10
17.189943
20
102.5120981
40
0.112623
50
151.3635175
51
180.0701457
0
ARC
8
DEFAULT_255_1_234
10
17.2208214
20
102.509999
40
0.1435149
50
179.2169974
51
179.9954013
0
ARC
8
DEFAULT_255_1_234
10
17.1847272
20
102.5087056
40
0.1074286
50
179.3040112
51
198.4225446
0
ARC
8
DEFAULT_255_1_234
10
17.1655405
20
102.5037127
40
0.0876573
50
199.2895851
51
238.6034594
0
ARC
8
DEFAULT_255_1_234
10
17.2258252
20
102.598345
40
0.1998512
50
237.9846301
51
246.8744712
0
ARC
8
DEFAULT_255_1_234
10
17.3116197
20
102.7946205
40
0.4140547
50
246.6234531
51
251.8168941
0
ARC
8
DEFAULT_255_1_234
10
17.414674
20
103.1040905
40
0.7402308
50
251.713434
51
255.0778414
0
ARC
8
DEFAULT_255_1_234
10
17.5346003
20
103.5507563
40
1.2027155
50
255.0367487
51
257.4705983
0
ARC
8
DEFAULT_255_1_234
10
17.0238013
20
101.2493863
40
1.1546601
50
73.6837552
51
77.5016755
0
ARC
8
DEFAULT_255_1_234
10
17.1326788
20
101.6193581
40
0.7690009
50
68.7044154
51
73.7249639
0
ARC
8
DEFAULT_255_1_234
10
17.2229809
20
101.8520654
40
0.5193873
50
63.590599
51
68.6626804
0
ARC
8
DEFAULT_255_1_234
10
17.3000827
20
102.0058123
40
0.3473927
50
54.7106439
51
63.7013633
0
ARC
8
DEFAULT_255_1_234
10
17.3625282
20
102.09304
40
0.2401192
50
41.0622434
51
54.8487496
0
ARC
8
DEFAULT_255_1_234
10
17.3966668
20
102.1243592
40
0.1938094
50
34.4950568
51
40.7105546
0
ARC
8
DEFAULT_255_1_234
10
17.4013476
20
102.1292078
40
0.1872106
50
9.3763373
51
34.0833615
0
ARC
8
DEFAULT_255_1_234
10
17.3360346
20
102.1166728
40
0.2536988
50
359.7694872
51
9.7663171
0
ARC
8
DEFAULT_255_1_234
10
17.3557847
20
102.1123764
40
0.2339696
50
335.8654732
51
0.8022045
0
ARC
8
DEFAULT_255_1_234
10
17.3632891
20
102.1137197
40
0.2277108
50
307.7357725
51
334.7849066
0
ARC
8
DEFAULT_255_1_234
10
17.3232067
20
102.1587645
40
0.2878951
50
307.0241536
51
308.5578354
0
ARC
8
DEFAULT_255_1_234
10
17.2974398
20
102.1973801
40
0.3342515
50
282.9362969
51
306.5646424
0
ARC
8
DEFAULT_255_1_234
10
17.2612696
20
102.3441108
40
0.4853615
50
271.1026298
51
283.2200835
0
ARC
8
DEFAULT_255_1_234
10
17.254894
20
102.4682418
40
0.6096052
50
269.9919117
51
271.4772449
0
ARC
8
DEFAULT_255_1_234
10
17.2522695
20
102.3604436
40
0.5018135
50
259.0723564
51
270.289833
0
ARC
8
DEFAULT_255_1_234
10
17.2310427
20
102.2487271
40
0.388099
50
245.4963068
51
259.0227342
0
ARC
8
DEFAULT_255_1_234
10
17.2032383
20
102.1905615
40
0.3236422
50
228.9684658
51
245.7044727
0
ARC
8
DEFAULT_255_1_234
10
17.1766827
20
102.1578575
40
0.2815426
50
214.4011705
51
228.6759915
0
ARC
8
DEFAULT_255_1_234
10
17.1477568
20
102.142029
40
0.2487548
50
179.9705531
51
215.1572795
0
ARC
8
DEFAULT_255_1_234
10
17.2178167
20
102.1493806
40
0.1703809
50
182.4299387
51
203.0329699
0
ARC
8
DEFAULT_255_1_234
10
17.1993825
20
102.1437396
40
0.1512226
50
203.798802
51
232.548466
0
ARC
8
DEFAULT_255_1_234
10
17.2270346
20
102.1788826
40
0.1959374
50
232.3782728
51
256.3934612
0
ARC
8
DEFAULT_255_1_234
10
17.2500708
20
102.2678842
40
0.2878639
50
256.104506
51
268.4626716
0
ARC
8
DEFAULT_255_1_234
10
17.2547192
20
102.3475487
40
0.3676329
50
268.0715632
51
270.0138206
0
ARC
8
DEFAULT_255_1_234
10
17.2565717
20
102.3203083
40
0.3403971
50
269.7031147
51
278.8341955
0
ARC
8
DEFAULT_255_1_234
10
17.274781
20
102.2072876
40
0.2259217
50
278.6728789
51
292.8232582
0
ARC
8
DEFAULT_255_1_234
10
17.2948348
20
102.1571449
40
0.171929
50
293.1452328
51
303.6655899
0
ARC
8
DEFAULT_255_1_234
10
17.3213227
20
102.1195204
40
0.1259367
50
303.1248165
51
321.742847
0
ARC
8
DEFAULT_255_1_234
10
17.3399108
20
102.1032156
40
0.1012531
50
322.4748573
51
1.1291126
0
LINE
8
DEFAULT_255_1_234
10
4.9274119
20
100.0116792
11
4.9274119
21
99.8904
0
LINE
8
DEFAULT_255_1_234
10
4.9274119
20
99.8904
11
4.161184
21
99.8904
0
LINE
8
DEFAULT_255_1_234
10
4.161184
20
99.8904
11
4.161184
21
99.9972221
0
LINE
8
DEFAULT_255_1_234
10
4.161184
20
99.9972221
11
4.5659836
21
100.4469995
0
LINE
8
DEFAULT_255_1_234
10
4.2872823
20
100.7152595
11
4.1386952
21
100.7152595
0
LINE
8
DEFAULT_255_1_234
10
4.6535296
20
100.3514218
11
4.3402918
21
100.0116792
0
LINE
8
DEFAULT_255_1_234
10
4.3402918
20
100.0116792
11
4.9274119
21
100.0116792
0
ARC
8
DEFAULT_255_1_234
10
3.216967
20
101.6399527
40
1.8008286
50
318.5132453
51
320.7828378
0
ARC
8
DEFAULT_255_1_234
10
3.7456644
20
101.2096426
40
1.1191493
50
320.7372736
51
323.9737074
0
ARC
8
DEFAULT_255_1_234
10
4.1376501
20
100.9256361
40
0.6350923
50
323.8961724
51
328.6421089
0
ARC
8
DEFAULT_255_1_234
10
4.3423096
20
100.7994031
40
0.3946393
50
328.8299013
51
331.789948
0
ARC
8
DEFAULT_255_1_234
10
4.4420274
20
100.7479509
40
0.2824501
50
331.4255242
51
352.9364833
0
ARC
8
DEFAULT_255_1_234
10
4.4556775
20
100.7448976
40
0.2685315
50
353.2248685
51
0.0169286
0
ARC
8
DEFAULT_255_1_234
10
4.4766652
20
100.747195
40
0.2475536
50
359.4866256
51
15.9339782
0
ARC
8
DEFAULT_255_1_234
10
4.5273637
20
100.7608286
40
0.1950618
50
16.1714718
51
43.5284424
0
ARC
8
DEFAULT_255_1_234
10
4.5350946
20
100.7685573
40
0.184134
50
43.4415429
51
83.1661404
0
ARC
8
DEFAULT_255_1_234
10
4.5216864
20
100.6948771
40
0.258926
50
82.160215
51
90.1505798
0
ARC
8
DEFAULT_255_1_234
10
4.5185291
20
100.6411865
40
0.3126255
50
89.5460705
51
102.5418777
0
ARC
8
DEFAULT_255_1_234
10
4.4942377
20
100.7442665
40
0.2067346
50
102.1739365
51
129.2061916
0
ARC
8
DEFAULT_255_1_234
10
4.4863449
20
100.7567094
40
0.1921118
50
129.7279328
51
135.7542026
0
ARC
8
DEFAULT_255_1_234
10
4.4984977
20
100.7470045
40
0.2075944
50
136.175737
51
166.3674722
0
ARC
8
DEFAULT_255_1_234
10
4.5991896
20
100.7200182
40
0.3118201
50
165.9092917
51
178.8683903
0
ARC
8
DEFAULT_255_1_234
10
4.6856757
20
100.7153179
40
0.3983935
50
178.438168
51
180.0083905
0
ARC
8
DEFAULT_255_1_234
10
4.5455359
20
100.7192231
40
0.4068601
50
163.2878735
51
180.5581814
0
ARC
8
DEFAULT_255_1_234
10
4.4653621
20
100.741284
40
0.3237344
50
133.454115
51
162.9470031
0
ARC
8
DEFAULT_255_1_234
10
4.4832162
20
100.7223
40
0.349795
50
100.7869394
51
133.4384016
0
ARC
8
DEFAULT_255_1_234
10
4.5179934
20
100.5674319
40
0.5084616
50
89.6605301
51
101.3704185
0
ARC
8
DEFAULT_255_1_234
10
4.5246273
20
100.5735496
40
0.502348
50
78.2171172
51
90.4130393
0
ARC
8
DEFAULT_255_1_234
10
4.5601351
20
100.7359637
40
0.3361092
50
55.9268222
51
78.4888551
0
ARC
8
DEFAULT_255_1_234
10
4.5797791
20
100.7698324
40
0.2970617
50
47.9292255
51
55.4054003
0
ARC
8
DEFAULT_255_1_234
10
4.5899352
20
100.7801502
40
0.2825983
50
4.3347696
51
48.0560701
0
ARC
8
DEFAULT_255_1_234
10
4.4803745
20
100.7631601
40
0.393225
50
359.925209
51
5.5967654
0
ARC
8
DEFAULT_255_1_234
10
4.5232637
20
100.7687816
40
0.3503892
50
337.8914096
51
358.9967724
0
ARC
8
DEFAULT_255_1_234
10
4.2519049
20
100.8734706
40
0.6412172
50
326.9135351
51
338.3505194
0
ARC
8
DEFAULT_255_1_234
10
3.8533353
20
101.1289284
40
1.1146189
50
319.6472867
51
327.095818
0
ARC
8
DEFAULT_255_1_234
10
3.4700356
20
101.4451
40
1.6114559
50
317.2586784
51
319.9046139
0
LINE
8
DEFAULT_255_1_234
10
5.7121127
20
101.0598211
11
5.7121127
21
100.283152
0
LINE
8
DEFAULT_255_1_234
10
5.7121127
20
100.283152
11
5.8743538
21
100.283152
0
LINE
8
DEFAULT_255_1_234
10
5.8743538
20
100.283152
11
5.8743538
21
100.1618728
0
LINE
8
DEFAULT_255_1_234
10
5.8743538
20
100.1618728
11
5.7121127
21
100.1618728
0
LINE
8
DEFAULT_255_1_234
10
5.7121127
20
100.1618728
11
5.7121127
21
99.8904
0
LINE
8
DEFAULT_255_1_234
10
5.7121127
20
99.8904
11
5.5627224
21
99.8904
0
LINE
8
DEFAULT_255_1_234
10
5.5627224
20
99.8904
11
5.5627224
21
100.1618728
0
LINE
8
DEFAULT_255_1_234
10
5.5627224
20
100.1618728
11
5.0302181
21
100.1618728
0
LINE
8
DEFAULT_255_1_234
10
5.0302181
20
100.1618728
11
5.0302181
21
100.2494187
0
LINE
8
DEFAULT_255_1_234
10
5.0302181
20
100.2494187
11
5.5538875
21
101.0598211
0
LINE
8
DEFAULT_255_1_234
10
5.5538875
20
101.0598211
11
5.7121127
21
101.0598211
0
LINE
8
DEFAULT_255_1_234
10
5.5450525
20
100.8244912
11
5.1988846
21
100.283152
0
LINE
8
DEFAULT_255_1_234
10
5.1988846
20
100.283152
11
5.5627224
21
100.283152
0
LINE
8
DEFAULT_255_1_234
10
5.5627224
20
100.283152
11
5.5627224
21
100.8566181
0
LINE
8
DEFAULT_255_1_234
10
5.5627224
20
100.8566181
11
5.5450525
21
100.8244912
0
LINE
8
DEFAULT_255_1_234
10
6.101652
20
101.0598211
11
6.434166
21
100.0952093
0
LINE
8
DEFAULT_255_1_234
10
6.434166
20
100.0952093
11
6.7682863
21
101.0598211
0
LINE
8
DEFAULT_255_1_234
10
6.7682863
20
101.0598211
11
6.9369528
21
101.0598211
0
LINE
8
DEFAULT_255_1_234
10
6.9369528
20
101.0598211
11
6.5032389
21
99.8904
0
LINE
8
DEFAULT_255_1_234
10
6.5032389
20
99.8904
11
6.3666994
21
99.8904
0
LINE
8
DEFAULT_255_1_234
10
6.3666994
20
99.8904
11
5.9337887
21
101.0598211
0
LINE
8
DEFAULT_255_1_234
10
5.9337887
20
101.0598211
11
6.101652
21
101.0598211
0
LINE
8
DEFAULT_255_1_234
10
4.7913628
20
5.8098211
11
4.7913628
21
5.033152
0
LINE
8
DEFAULT_255_1_234
10
4.7913628
20
5.033152
11
4.9536039
21
5.033152
0
LINE
8
DEFAULT_255_1_234
10
4.9536039
20
5.033152
11
4.9536039
21
4.9118728
0
LINE
8
DEFAULT_255_1_234
10
4.9536039
20
4.9118728
11
4.7913628
21
4.9118728
0
LINE
8
DEFAULT_255_1_234
10
4.7913628
20
4.9118728
11
4.7913628
21
4.6404
0
LINE
8
DEFAULT_255_1_234
10
4.7913628
20
4.6404
11
4.6419725
21
4.6404
0
LINE
8
DEFAULT_255_1_234
10
4.6419725
20
4.6404
11
4.6419725
21
4.9118728
0
LINE
8
DEFAULT_255_1_234
10
4.6419725
20
4.9118728
11
4.1094682
21
4.9118728
0
LINE
8
DEFAULT_255_1_234
10
4.1094682
20
4.9118728
11
4.1094682
21
4.9994187
0
LINE
8
DEFAULT_255_1_234
10
4.1094682
20
4.9994187
11
4.6331375
21
5.8098211
0
LINE
8
DEFAULT_255_1_234
10
4.6331375
20
5.8098211
11
4.7913628
21
5.8098211
0
LINE
8
DEFAULT_255_1_234
10
4.6243026
20
5.5744912
11
4.2781347
21
5.033152
0
LINE
8
DEFAULT_255_1_234
10
4.2781347
20
5.033152
11
4.6419725
21
5.033152
0
LINE
8
DEFAULT_255_1_234
10
4.6419725
20
5.033152
11
4.6419725
21
5.6066181
0
LINE
8
DEFAULT_255_1_234
10
4.6419725
20
5.6066181
11
4.6243026
21
5.5744912
0
LINE
8
DEFAULT_255_1_234
10
5.8387015
20
5.0781297
11
5.8387015
21
5.065279
0
LINE
8
DEFAULT_255_1_234
10
5.2467624
20
4.7407967
11
5.2395338
21
4.6404
0
LINE
8
DEFAULT_255_1_234
10
5.2395338
20
4.6404
11
5.1029942
21
4.6404
0
LINE
8
DEFAULT_255_1_234
10
5.1029942
20
4.6404
11
5.1029942
21
5.874075
0
LINE
8
DEFAULT_255_1_234
10
5.1029942
20
5.874075
11
5.2515814
21
5.874075
0
LINE
8
DEFAULT_255_1_234
10
5.2515814
20
5.874075
11
5.2515814
21
5.4138564
0
LINE
8
DEFAULT_255_1_234
10
5.2515814
20
5.2628597
11
5.2515814
21
4.8869744
0
ARC
8
DEFAULT_255_1_234
10
5.134029
20
5.0608573
40
0.7046863
50
349.4825105
51
0.3595108
0
ARC
8
DEFAULT_255_1_234
10
5.3617531
20
5.0170022
40
0.4727857
50
331.8602128
51
349.6704139
0
ARC
8
DEFAULT_255_1_234
10
5.4350299
20
4.9813125
40
0.3913503
50
322.8939783
51
331.4081204
0
ARC
8
DEFAULT_255_1_234
10
5.5045697
20
4.9233707
40
0.300965
50
296.7249167
51
323.7044215
0
ARC
8
DEFAULT_255_1_234
10
5.5075594
20
4.9303043
40
0.3058683
50
270.6342811
51
295.6405548
0
ARC
8
DEFAULT_255_1_234
10
5.5013904
20
5.0105995
40
0.3862632
50
269.9967524
51
271.4174733
0
ARC
8
DEFAULT_255_1_234
10
5.4975568
20
4.9970686
40
0.3727515
50
253.657532
51
270.5859025
0
ARC
8
DEFAULT_255_1_234
10
5.4744674
20
4.9127235
40
0.2853216
50
217.0543181
51
253.3409865
0
ARC
8
DEFAULT_255_1_234
10
5.4811342
20
5.2311052
40
0.2934152
50
93.1931545
51
141.4760602
0
ARC
8
DEFAULT_255_1_234
10
5.4993558
20
5.1078453
40
0.4176524
50
89.9442578
51
94.747309
0
ARC
8
DEFAULT_255_1_234
10
5.5037305
20
5.190141
40
0.3353801
50
70.6103515
51
90.6779749
0
ARC
8
DEFAULT_255_1_234
10
5.5151607
20
5.235689
40
0.2886533
50
36.1152635
51
69.7489296
0
ARC
8
DEFAULT_255_1_234
10
5.4165011
20
5.1603708
40
0.4127561
50
15.4648517
51
36.4891396
0
ARC
8
DEFAULT_255_1_234
10
5.2106697
20
5.1004524
40
0.6271187
50
3.9220813
51
15.7265815
0
ARC
8
DEFAULT_255_1_234
10
4.9747541
20
5.0792325
40
0.863948
50
359.9268643
51
4.2559037
0
ARC
8
DEFAULT_255_1_234
10
5.0561922
20
5.0852103
40
0.6339295
50
359.7230081
51
7.7115859
0
ARC
8
DEFAULT_255_1_234
10
5.2823487
20
5.1168172
40
0.4055784
50
7.5740023
51
19.4151451
0
ARC
8
DEFAULT_255_1_234
10
5.4091126
20
5.1614519
40
0.2711858
50
19.4238354
51
34.9161182
0
ARC
8
DEFAULT_255_1_234
10
5.4761864
20
5.2101172
40
0.1883373
50
34.4556322
51
84.4656458
0
ARC
8
DEFAULT_255_1_234
10
5.4633312
20
5.1346057
40
0.2647939
50
83.2727306
51
90.1114621
0
ARC
8
DEFAULT_255_1_234
10
5.4591169
20
5.1544509
40
0.2449763
50
89.1347934
51
111.4089923
0
ARC
8
DEFAULT_255_1_234
10
5.451172
20
5.1872473
40
0.2115923
50
112.6478598
51
148.9260864
0
ARC
8
DEFAULT_255_1_234
10
5.5289518
20
5.1330985
40
0.3062228
50
147.7597608
51
154.928557
0
ARC
8
DEFAULT_255_1_234
10
5.5029579
20
5.0086379
40
0.2792708
50
205.8264786
51
224.5301003
0
ARC
8
DEFAULT_255_1_234
10
5.4551883
20
4.9659914
40
0.2153317
50
225.354483
51
269.2437579
0
ARC
8
DEFAULT_255_1_234
10
5.4643518
20
5.0466292
40
0.2961942
50
267.6770046
51
270.0136612
0
ARC
8
DEFAULT_255_1_234
10
5.4670869
20
4.9707938
40
0.2203751
50
269.3072485
51
289.499141
0
ARC
8
DEFAULT_255_1_234
10
5.4742933
20
4.9411394
40
0.1900415
50
290.4353973
51
325.3766314
0
ARC
8
DEFAULT_255_1_234
10
5.4114156
20
4.9865643
40
0.2675986
50
325.0223901
51
342.692398
0
ARC
8
DEFAULT_255_1_234
10
5.2417044
20
5.0417812
40
0.446058
50
342.4062876
51
352.8669243
0
ARC
8
DEFAULT_255_1_234
10
4.9696519
20
5.0774975
40
0.7204419
50
352.7350668
51
359.8556985
0
ARC
8
DEFAULT_255_1_234
10
4.7786215
20
5.0821018
40
0.9114927
50
359.5965197
51
0.0027543
0
LINE
8
DEFAULT_255_1_234
10
4.8476628
20
13.7473211
11
4.8476628
21
12.970652
0
LINE
8
DEFAULT_255_1_234
10
4.8476628
20
12.970652
11
5.0099039
21
12.970652
0
LINE
8
DEFAULT_255_1_234
10
5.0099039
20
12.970652
11
5.0099039
21
12.8493728
0
LINE
8
DEFAULT_255_1_234
10
5.0099039
20
12.8493728
11
4.8476628
21
12.8493728
0
LINE
8
DEFAULT_255_1_234
10
4.8476628
20
12.8493728
11
4.8476628
21
12.5779
0
LINE
8
DEFAULT_255_1_234
10
4.8476628
20
12.5779
11
4.6982725
21
12.5779
0
LINE
8
DEFAULT_255_1_234
10
4.6982725
20
12.5779
11
4.6982725
21
12.8493728
0
LINE
8
DEFAULT_255_1_234
10
4.6982725
20
12.8493728
11
4.1657682
21
12.8493728
0
LINE
8
DEFAULT_255_1_234
10
4.1657682
20
12.8493728
11
4.1657682
21
12.9369187
0
LINE
8
DEFAULT_255_1_234
10
4.1657682
20
12.9369187
11
4.6894375
21
13.7473211
0
LINE
8
DEFAULT_255_1_234
10
4.6894375
20
13.7473211
11
4.8476628
21
13.7473211
0
LINE
8
DEFAULT_255_1_234
10
4.6806026
20
13.5119912
11
4.3344347
21
12.970652
0
LINE
8
DEFAULT_255_1_234
10
4.3344347
20
12.970652
11
4.6982725
21
12.970652
0
LINE
8
DEFAULT_255_1_234
10
4.6982725
20
12.970652
11
4.6982725
21
13.5441181
0
LINE
8
DEFAULT_255_1_234
10
4.6982725
20
13.5441181
11
4.6806026
21
13.5119912
0
LINE
8
DEFAULT_255_1_234
10
5.5881891
20
12.5779
11
5.1825863
21
12.5779
0
LINE
8
DEFAULT_255_1_234
10
5.1825863
20
12.5779
11
5.1825863
21
13.7473211
0
LINE
8
DEFAULT_255_1_234
10
5.1825863
20
13.7473211
11
5.564897
21
13.7473211
0
LINE
8
DEFAULT_255_1_234
10
5.5938113
20
13.1248614
11
5.3367957
21
13.1248614
0
LINE
8
DEFAULT_255_1_234
10
5.3367957
20
13.1248614
11
5.3367957
21
12.7039983
0
LINE
8
DEFAULT_255_1_234
10
5.3367957
20
12.7039983
11
5.5914018
21
12.7039983
0
LINE
8
DEFAULT_255_1_234
10
5.3367957
20
13.6204196
11
5.3367957
21
13.2485501
0
LINE
8
DEFAULT_255_1_234
10
5.3367957
20
13.2485501
11
5.5697161
21
13.2485501
0
LINE
8
DEFAULT_255_1_234
10
5.564897
20
13.6204196
11
5.3367957
21
13.6204196
0
ARC
8
DEFAULT_255_1_234
10
5.5686679
20
13.0105901
40
0.7367406
50
82.1257326
51
90.2932599
0
ARC
8
DEFAULT_255_1_234
10
5.6075634
20
13.2824013
40
0.4621653
50
69.9044149
51
82.2857423
0
ARC
8
DEFAULT_255_1_234
10
5.6646312
20
13.4366637
40
0.2976871
50
51.1838526
51
70.0181538
0
ARC
8
DEFAULT_255_1_234
10
5.6901278
20
13.473724
40
0.2528517
50
12.1017251
51
50.4214761
0
ARC
8
DEFAULT_255_1_234
10
5.5517152
20
13.4389676
40
0.3955061
50
359.5251267
51
12.8211707
0
ARC
8
DEFAULT_255_1_234
10
5.7097078
20
13.4320344
40
0.2375281
50
323.4908128
51
0.8817314
0
ARC
8
DEFAULT_255_1_234
10
5.6678765
20
13.464355
40
0.2903817
50
298.6825083
51
323.2756573
0
ARC
8
DEFAULT_255_1_234
10
5.6317128
20
13.5244649
40
0.3604842
50
293.1999386
51
299.1396394
0
ARC
8
DEFAULT_255_1_234
10
5.6990101
20
12.9159126
40
0.2871098
50
54.0011765
51
74.9167975
0
ARC
8
DEFAULT_255_1_234
10
5.710646
20
12.9356332
40
0.2643248
50
36.3580696
51
53.5291921
0
ARC
8
DEFAULT_255_1_234
10
5.6979702
20
12.9265998
40
0.2798884
50
4.8189881
51
36.3089977
0
ARC
8
DEFAULT_255_1_234
10
5.6200537
20
12.915627
40
0.358478
50
359.9370252
51
5.5204067
0
ARC
8
DEFAULT_255_1_234
10
5.5876059
20
12.9115667
40
0.3909429
50
344.7478609
51
0.5373281
0
ARC
8
DEFAULT_255_1_234
10
5.686703
20
12.8848544
40
0.2883093
50
311.1786488
51
344.6886812
0
ARC
8
DEFAULT_255_1_234
10
5.6575077
20
12.9211987
40
0.3348923
50
286.0418249
51
310.8441291
0
ARC
8
DEFAULT_255_1_234
10
5.6067909
20
13.0858807
40
0.5071869
50
274.1042341
51
286.4071509
0
ARC
8
DEFAULT_255_1_234
10
5.5891165
20
13.2742229
40
0.6963234
50
269.9236873
51
274.445647
0
ARC
8
DEFAULT_255_1_234
10
5.5937166
20
13.0402537
40
0.3362634
50
269.6055768
51
281.3740047
0
ARC
8
DEFAULT_255_1_234
10
5.6167804
20
12.9309353
40
0.224546
50
281.1055983
51
302.5132223
0
ARC
8
DEFAULT_255_1_234
10
5.6314703
20
12.9045823
40
0.1944357
50
303.0368945
51
311.8811219
0
ARC
8
DEFAULT_255_1_234
10
5.638611
20
12.896089
40
0.1833454
50
311.9916004
51
351.7143462
0
ARC
8
DEFAULT_255_1_234
10
5.556934
20
12.912593
40
0.2665871
50
350.7339597
51
0.2221581
0
ARC
8
DEFAULT_255_1_234
10
5.5461786
20
12.9182467
40
0.2773789
50
359.0456241
51
17.2296242
0
ARC
8
DEFAULT_255_1_234
10
5.6500903
20
12.9491163
40
0.1689915
50
17.6685481
51
78.9940892
0
ARC
8
DEFAULT_255_1_234
10
5.5984067
20
12.7636224
40
0.3612658
50
76.5635957
51
90.6980921
0
LINE
8
DEFAULT_255_1_234
10
5.5940051
20
13.1248613
11
5.5938113
21
13.1248614
0
ARC
8
DEFAULT_255_1_234
10
5.5719727
20
13.5771036
40
0.3285612
50
269.6064736
51
281.4533503
0
ARC
8
DEFAULT_255_1_234
10
5.5942547
20
13.4719688
40
0.2210975
50
281.2041486
51
302.5148063
0
ARC
8
DEFAULT_255_1_234
10
5.6079397
20
13.4473241
40
0.1929674
50
303.021671
51
309.8369575
0
ARC
8
DEFAULT_255_1_234
10
5.6262858
20
13.4267488
40
0.1654181
50
309.5228395
51
356.9509836
0
ARC
8
DEFAULT_255_1_234
10
5.5599441
20
13.4362932
40
0.2322512
50
355.4701227
51
0.0492546
0
ARC
8
DEFAULT_255_1_234
10
5.5320532
20
13.4385094
40
0.2601498
50
359.5558597
51
11.2096359
0
ARC
8
DEFAULT_255_1_234
10
5.6277822
20
13.458323
40
0.1623975
50
10.9182341
51
31.3230275
0
ARC
8
DEFAULT_255_1_234
10
5.6563555
20
13.4742214
40
0.1297302
50
31.8852677
51
52.1412565
0
ARC
8
DEFAULT_255_1_234
10
5.6289288
20
13.435475
40
0.1771663
50
52.8285564
51
71.9850297
0
ARC
8
DEFAULT_255_1_234
10
5.5913464
20
13.3248664
40
0.2939794
50
71.6863486
51
82.8455995
0
ARC
8
DEFAULT_255_1_234
10
5.5674
20
13.1439149
40
0.476506
50
82.6984714
51
90.1729175
0
ARC
8
DEFAULT_255_1_234
10
5.5651635
20
13.2662623
40
0.3541573
50
89.8708275
51
90.0431131
0
LINE
8
DEFAULT_255_1_234
10
4.9286628
20
21.6848211
11
4.9286628
21
20.908152
0
LINE
8
DEFAULT_255_1_234
10
4.9286628
20
20.908152
11
5.0909039
21
20.908152
0
LINE
8
DEFAULT_255_1_234
10
5.0909039
20
20.908152
11
5.0909039
21
20.7868728
0
LINE
8
DEFAULT_255_1_234
10
5.0909039
20
20.7868728
11
4.9286628
21
20.7868728
0
LINE
8
DEFAULT_255_1_234
10
4.9286628
20
20.7868728
11
4.9286628
21
20.5154
0
LINE
8
DEFAULT_255_1_234
10
4.9286628
20
20.5154
11
4.7792725
21
20.5154
0
LINE
8
DEFAULT_255_1_234
10
4.7792725
20
20.5154
11
4.7792725
21
20.7868728
0
LINE
8
DEFAULT_255_1_234
10
4.7792725
20
20.7868728
11
4.2467682
21
20.7868728
0
LINE
8
DEFAULT_255_1_234
10
4.2467682
20
20.7868728
11
4.2467682
21
20.8744187
0
LINE
8
DEFAULT_255_1_234
10
4.2467682
20
20.8744187
11
4.7704375
21
21.6848211
0
LINE
8
DEFAULT_255_1_234
10
4.7704375
20
21.6848211
11
4.9286628
21
21.6848211
0
LINE
8
DEFAULT_255_1_234
10
4.7616026
20
21.4494912
11
4.4154347
21
20.908152
0
LINE
8
DEFAULT_255_1_234
10
4.4154347
20
20.908152
11
4.7792725
21
20.908152
0
LINE
8
DEFAULT_255_1_234
10
4.7792725
20
20.908152
11
4.7792725
21
21.4816181
0
LINE
8
DEFAULT_255_1_234
10
4.7792725
20
21.4816181
11
4.7616026
21
21.4494912
0
LINE
8
DEFAULT_255_1_234
10
6.0209792
20
20.5154
11
5.909338
21
20.8206061
0
LINE
8
DEFAULT_255_1_234
10
5.909338
20
20.8206061
11
5.419402
21
20.8206061
0
LINE
8
DEFAULT_255_1_234
10
5.419402
20
20.8206061
11
5.3093672
21
20.5154
0
LINE
8
DEFAULT_255_1_234
10
5.3093672
20
20.5154
11
5.1503388
21
20.5154
0
LINE
8
DEFAULT_255_1_234
10
5.1503388
20
20.5154
11
5.5969034
21
21.6848211
0
LINE
8
DEFAULT_255_1_234
10
5.5969034
20
21.6848211
11
5.7318366
21
21.6848211
0
LINE
8
DEFAULT_255_1_234
10
5.7318366
20
21.6848211
11
6.1792044
21
20.5154
0
LINE
8
DEFAULT_255_1_234
10
6.1792044
20
20.5154
11
6.0209792
21
20.5154
0
LINE
8
DEFAULT_255_1_234
10
5.66437
20
21.4944689
11
5.4659861
21
20.9475075
0
LINE
8
DEFAULT_255_1_234
10
5.4659861
20
20.9475075
11
5.8635571
21
20.9475075
0
LINE
8
DEFAULT_255_1_234
10
5.8635571
20
20.9475075
11
5.66437
21
21.4944689
0
LINE
8
DEFAULT_255_1_234
10
4.2743378
20
28.9886169
11
4.2743378
21
29.1098962
0
LINE
8
DEFAULT_255_1_234
10
4.2743378
20
29.1098962
11
4.385979
21
29.1098962
0
LINE
8
DEFAULT_255_1_234
10
4.1956268
20
29.3155087
11
4.0470396
21
29.3155087
0
LINE
8
DEFAULT_255_1_234
10
4.0365983
20
28.7613188
11
4.1859887
21
28.7613188
0
LINE
8
DEFAULT_255_1_234
10
4.385979
20
28.9886169
11
4.2743378
21
28.9886169
0
ARC
8
DEFAULT_255_1_234
10
4.3830656
20
29.4491713
40
0.3392876
50
270.4919872
51
281.8951556
0
ARC
8
DEFAULT_255_1_234
10
4.4071918
20
29.3389702
40
0.2264817
50
281.6691735
51
301.2943132
0
ARC
8
DEFAULT_255_1_234
10
4.4242128
20
29.3078304
40
0.1910381
50
301.7833094
51
311.7545298
0
ARC
8
DEFAULT_255_1_234
10
4.4333704
20
29.2976748
40
0.1773635
50
311.7323931
51
354.2802411
0
ARC
8
DEFAULT_255_1_234
10
4.3607329
20
29.3101722
40
0.2509385
50
353.0937916
51
0.1181479
0
ARC
8
DEFAULT_255_1_234
10
4.3146114
20
29.3149386
40
0.2970898
50
359.1805295
51
15.0453146
0
ARC
8
DEFAULT_255_1_234
10
4.4491951
20
29.3541992
40
0.1569564
50
13.9577229
51
77.6713066
0
ARC
8
DEFAULT_255_1_234
10
4.410548
20
29.2156949
40
0.3006298
50
76.1116566
51
90.7026153
0
ARC
8
DEFAULT_255_1_234
10
4.4046318
20
29.2430545
40
0.2732568
50
89.5324876
51
103.531937
0
ARC
8
DEFAULT_255_1_234
10
4.3845762
20
29.3229884
40
0.1908508
50
103.2931773
51
133.5619022
0
ARC
8
DEFAULT_255_1_234
10
4.3801251
20
29.3289375
40
0.1834746
50
133.8349307
51
173.5344437
0
ARC
8
DEFAULT_255_1_234
10
4.4524294
20
29.3161213
40
0.2568033
50
172.5096846
51
180.1366907
0
ARC
8
DEFAULT_255_1_234
10
4.3573188
20
29.3195622
40
0.3103056
50
155.3484492
51
180.7484736
0
ARC
8
DEFAULT_255_1_234
10
4.3524277
20
29.3166846
40
0.3070957
50
131.5744599
51
154.4798489
0
ARC
8
DEFAULT_255_1_234
10
4.3837424
20
29.285031
40
0.3515643
50
96.9875458
51
131.9690667
0
ARC
8
DEFAULT_255_1_234
10
4.4056904
20
29.1604636
40
0.4779224
50
89.8596053
51
97.7825159
0
ARC
8
DEFAULT_255_1_234
10
4.4104967
20
29.1342616
40
0.5041361
50
78.3655447
51
90.4131539
0
ARC
8
DEFAULT_255_1_234
10
4.4462885
20
29.3001887
40
0.3344039
50
56.6229102
51
78.638727
0
ARC
8
DEFAULT_255_1_234
10
4.4677829
20
29.3377805
40
0.2912001
50
47.0253525
51
56.0854072
0
ARC
8
DEFAULT_255_1_234
10
4.4697609
20
29.3417223
40
0.2869704
50
10.9208013
51
46.7778124
0
ARC
8
DEFAULT_255_1_234
10
4.3333675
20
29.3101857
40
0.426899
50
359.6364486
51
11.6087304
0
ARC
8
DEFAULT_255_1_234
10
4.5168519
20
29.3086752
40
0.243409
50
332.3549906
51
359.7179418
0
ARC
8
DEFAULT_255_1_234
10
4.4518121
20
29.3395142
40
0.3153459
50
325.2333722
51
332.8745602
0
ARC
8
DEFAULT_255_1_234
10
4.4670744
20
29.3288828
40
0.2967456
50
292.9802137
51
325.2392345
0
ARC
8
DEFAULT_255_1_234
10
4.4396118
20
29.3822863
40
0.3566604
50
292.5402179
51
293.6924929
0
ARC
8
DEFAULT_255_1_234
10
4.4788714
20
28.7368091
40
0.3307468
50
57.6435486
51
72.8625112
0
ARC
8
DEFAULT_255_1_234
10
4.5143214
20
28.7942549
40
0.2632492
50
36.7248896
51
57.4697979
0
ARC
8
DEFAULT_255_1_234
10
4.5131847
20
28.795522
40
0.2634081
50
8.0545065
51
36.356114
0
ARC
8
DEFAULT_255_1_234
10
4.4269032
20
28.7800174
40
0.3510261
50
359.8320645
51
8.5869982
0
ARC
8
DEFAULT_255_1_234
10
4.3893808
20
28.7752101
40
0.3885653
50
343.9829931
51
0.5571613
0
ARC
8
DEFAULT_255_1_234
10
4.4780005
20
28.7509438
40
0.2966924
50
311.6359546
51
343.7651759
0
ARC
8
DEFAULT_255_1_234
10
4.4401574
20
28.7936102
40
0.3537231
50
279.7829875
51
311.6255694
0
ARC
8
DEFAULT_255_1_234
10
4.4100351
20
28.937328
40
0.5004971
50
269.7286406
51
280.3856417
0
ARC
8
DEFAULT_255_1_234
10
4.4038423
20
28.9331996
40
0.4963778
50
256.6828919
51
270.4412052
0
ARC
8
DEFAULT_255_1_234
10
4.3699719
20
28.7947394
40
0.3538406
50
229.4223008
51
256.8556159
0
ARC
8
DEFAULT_255_1_234
10
4.3285112
20
28.7480736
40
0.2914296
50
181.818294
51
229.6455059
0
ARC
8
DEFAULT_255_1_234
10
4.4325068
20
28.7611496
40
0.3959084
50
179.9755256
51
183.2323064
0
ARC
8
DEFAULT_255_1_234
10
4.4152814
20
28.7591037
40
0.2293034
50
179.4465117
51
196.2869258
0
ARC
8
DEFAULT_255_1_234
10
4.3665222
20
28.7457651
40
0.1787621
50
196.5661473
51
227.705904
0
ARC
8
DEFAULT_255_1_234
10
4.3829317
20
28.7641155
40
0.2033784
50
227.7652068
51
257.8762805
0
ARC
8
DEFAULT_255_1_234
10
4.4054287
20
28.8584156
40
0.3003081
50
257.4584385
51
270.426602
0
ARC
8
DEFAULT_255_1_234
10
4.4099853
20
28.8873996
40
0.329292
50
269.5962073
51
280.8789248
0
ARC
8
DEFAULT_255_1_234
10
4.4329382
20
28.7727685
40
0.2123908
50
280.6346389
51
299.8595945
0
ARC
8
DEFAULT_255_1_234
10
4.4520289
20
28.7365212
40
0.171457
50
300.3576302
51
314.5517981
0
ARC
8
DEFAULT_255_1_234
10
4.4437349
20
28.7425919
40
0.1816095
50
315.0728369
51
345.0431014
0
ARC
8
DEFAULT_255_1_234
10
4.3514163
20
28.7694841
40
0.2777492
50
344.5986631
51
357.9269593
0
ARC
8
DEFAULT_255_1_234
10
4.2618489
20
28.7756276
40
0.3674917
50
357.4748886
51
0.0231117
0
ARC
8
DEFAULT_255_1_234
10
4.3641599
20
28.7780679
40
0.2651907
50
359.5047933
51
13.4239635
0
ARC
8
DEFAULT_255_1_234
10
4.4508242
20
28.8002478
40
0.1757509
50
12.9498199
51
48.7551375
0
ARC
8
DEFAULT_255_1_234
10
4.4325976
20
28.77534
40
0.2065134
50
49.5088623
51
72.1836453
0
ARC
8
DEFAULT_255_1_234
10
4.3968129
20
28.6691291
40
0.3185836
50
71.9010081
51
84.3554254
0
ARC
8
DEFAULT_255_1_234
10
4.3806761
20
28.5330326
40
0.4556151
50
84.0193428
51
89.333121
0
LINE
8
DEFAULT_255_1_234
10
5.7329015
20
28.8906297
11
5.7329015
21
28.877779
0
LINE
8
DEFAULT_255_1_234
10
5.1409624
20
28.5532967
11
5.1337338
21
28.4529
0
LINE
8
DEFAULT_255_1_234
10
5.1337338
20
28.4529
11
4.9971942
21
28.4529
0
LINE
8
DEFAULT_255_1_234
10
4.9971942
20
28.4529
11
4.9971942
21
29.686575
0
LINE
8
DEFAULT_255_1_234
10
4.9971942
20
29.686575
11
5.1457814
21
29.686575
0
LINE
8
DEFAULT_255_1_234
10
5.1457814
20
29.686575
11
5.1457814
21
29.2263564
0
LINE
8
DEFAULT_255_1_234
10
5.1457814
20
29.0753597
11
5.1457814
21
28.6994744
0
ARC
8
DEFAULT_255_1_234
10
5.028229
20
28.8733573
40
0.7046863
50
349.4825105
51
0.3595108
0
ARC
8
DEFAULT_255_1_234
10
5.2559531
20
28.8295022
40
0.4727857
50
331.8602128
51
349.6704139
0
ARC
8
DEFAULT_255_1_234
10
5.3292299
20
28.7938125
40
0.3913503
50
322.8939783
51
331.4081204
0
ARC
8
DEFAULT_255_1_234
10
5.3987697
20
28.7358707
40
0.300965
50
296.7249167
51
323.7044215
0
ARC
8
DEFAULT_255_1_234
10
5.4017594
20
28.7428043
40
0.3058683
50
270.6342811
51
295.6405548
0
ARC
8
DEFAULT_255_1_234
10
5.3955904
20
28.8230995
40
0.3862632
50
269.9967524
51
271.4174733
0
ARC
8
DEFAULT_255_1_234
10
5.3917568
20
28.8095686
40
0.3727515
50
253.657532
51
270.5859025
0
ARC
8
DEFAULT_255_1_234
10
5.3686674
20
28.7252235
40
0.2853216
50
217.0543181
51
253.3409865
0
ARC
8
DEFAULT_255_1_234
10
5.3753342
20
29.0436052
40
0.2934152
50
93.1931545
51
141.4760602
0
ARC
8
DEFAULT_255_1_234
10
5.3935558
20
28.9203453
40
0.4176524
50
89.9442578
51
94.747309
0
ARC
8
DEFAULT_255_1_234
10
5.3979305
20
29.002641
40
0.3353801
50
70.6103515
51
90.6779749
0
ARC
8
DEFAULT_255_1_234
10
5.4093607
20
29.048189
40
0.2886533
50
36.1152635
51
69.7489296
0
ARC
8
DEFAULT_255_1_234
10
5.3107011
20
28.9728708
40
0.4127561
50
15.4648517
51
36.4891396
0
ARC
8
DEFAULT_255_1_234
10
5.1048697
20
28.9129524
40
0.6271187
50
3.9220813
51
15.7265815
0
ARC
8
DEFAULT_255_1_234
10
4.8689541
20
28.8917325
40
0.863948
50
359.9268643
51
4.2559037
0
ARC
8
DEFAULT_255_1_234
10
4.9503922
20
28.8977103
40
0.6339295
50
359.7230081
51
7.7115859
0
ARC
8
DEFAULT_255_1_234
10
5.1765487
20
28.9293172
40
0.4055784
50
7.5740023
51
19.4151451
0
ARC
8
DEFAULT_255_1_234
10
5.3033126
20
28.9739519
40
0.2711858
50
19.4238354
51
34.9161182
0
ARC
8
DEFAULT_255_1_234
10
5.3703864
20
29.0226172
40
0.1883373
50
34.4556322
51
84.4656458
0
ARC
8
DEFAULT_255_1_234
10
5.3575312
20
28.9471057
40
0.2647939
50
83.2727306
51
90.1114621
0
ARC
8
DEFAULT_255_1_234
10
5.3533169
20
28.9669509
40
0.2449763
50
89.1347934
51
111.4089923
0
ARC
8
DEFAULT_255_1_234
10
5.345372
20
28.9997473
40
0.2115923
50
112.6478598
51
148.9260864
0
ARC
8
DEFAULT_255_1_234
10
5.4231518
20
28.9455985
40
0.3062228
50
147.7597608
51
154.928557
0
ARC
8
DEFAULT_255_1_234
10
5.3971579
20
28.8211379
40
0.2792708
50
205.8264786
51
224.5301003
0
ARC
8
DEFAULT_255_1_234
10
5.3493883
20
28.7784914
40
0.2153317
50
225.354483
51
269.2437579
0
ARC
8
DEFAULT_255_1_234
10
5.3585518
20
28.8591292
40
0.2961942
50
267.6770046
51
270.0136612
0
ARC
8
DEFAULT_255_1_234
10
5.3612869
20
28.7832938
40
0.2203751
50
269.3072485
51
289.499141
0
ARC
8
DEFAULT_255_1_234
10
5.3684933
20
28.7536394
40
0.1900415
50
290.4353973
51
325.3766314
0
ARC
8
DEFAULT_255_1_234
10
5.3056156
20
28.7990643
40
0.2675986
50
325.0223901
51
342.692398
0
ARC
8
DEFAULT_255_1_234
10
5.1359044
20
28.8542812
40
0.446058
50
342.4062876
51
352.8669243
0
ARC
8
DEFAULT_255_1_234
10
4.8638519
20
28.8899975
40
0.7204419
50
352.7350668
51
359.8556985
0
ARC
8
DEFAULT_255_1_234
10
4.6728215
20
28.8946018
40
0.9114927
50
359.5965197
51
0.0027543
0
LINE
8
DEFAULT_255_1_234
10
4.3305378
20
36.9261169
11
4.3305378
21
37.0473962
0
LINE
8
DEFAULT_255_1_234
10
4.3305378
20
37.0473962
11
4.442179
21
37.0473962
0
LINE
8
DEFAULT_255_1_234
10
4.2518268
20
37.2530087
11
4.1032396
21
37.2530087
0
LINE
8
DEFAULT_255_1_234
10
4.0927983
20
36.6988188
11
4.2421887
21
36.6988188
0
LINE
8
DEFAULT_255_1_234
10
4.442179
20
36.9261169
11
4.3305378
21
36.9261169
0
ARC
8
DEFAULT_255_1_234
10
4.4392656
20
37.3866713
40
0.3392876
50
270.4919872
51
281.8951556
0
ARC
8
DEFAULT_255_1_234
10
4.4633918
20
37.2764702
40
0.2264817
50
281.6691735
51
301.2943132
0
ARC
8
DEFAULT_255_1_234
10
4.4804128
20
37.2453304
40
0.1910381
50
301.7833094
51
311.7545298
0
ARC
8
DEFAULT_255_1_234
10
4.4895704
20
37.2351748
40
0.1773635
50
311.7323931
51
354.2802411
0
ARC
8
DEFAULT_255_1_234
10
4.4169329
20
37.2476722
40
0.2509385
50
353.0937916
51
0.1181479
0
ARC
8
DEFAULT_255_1_234
10
4.3708114
20
37.2524386
40
0.2970898
50
359.1805295
51
15.0453146
0
ARC
8
DEFAULT_255_1_234
10
4.5053951
20
37.2916992
40
0.1569564
50
13.9577229
51
77.6713066
0
ARC
8
DEFAULT_255_1_234
10
4.466748
20
37.1531949
40
0.3006298
50
76.1116566
51
90.7026153
0
ARC
8
DEFAULT_255_1_234
10
4.4608318
20
37.1805545
40
0.2732568
50
89.5324876
51
103.531937
0
ARC
8
DEFAULT_255_1_234
10
4.4407762
20
37.2604884
40
0.1908508
50
103.2931773
51
133.5619022
0
ARC
8
DEFAULT_255_1_234
10
4.4363251
20
37.2664375
40
0.1834746
50
133.8349307
51
173.5344437
0
ARC
8
DEFAULT_255_1_234
10
4.5086294
20
37.2536213
40
0.2568033
50
172.5096846
51
180.1366907
0
ARC
8
DEFAULT_255_1_234
10
4.4135188
20
37.2570622
40
0.3103056
50
155.3484492
51
180.7484736
0
ARC
8
DEFAULT_255_1_234
10
4.4086277
20
37.2541846
40
0.3070957
50
131.5744599
51
154.4798489
0
ARC
8
DEFAULT_255_1_234
10
4.4399424
20
37.222531
40
0.3515643
50
96.9875458
51
131.9690667
0
ARC
8
DEFAULT_255_1_234
10
4.4618904
20
37.0979636
40
0.4779224
50
89.8596053
51
97.7825159
0
ARC
8
DEFAULT_255_1_234
10
4.4666967
20
37.0717616
40
0.5041361
50
78.3655447
51
90.4131539
0
ARC
8
DEFAULT_255_1_234
10
4.5024885
20
37.2376887
40
0.3344039
50
56.6229102
51
78.638727
0
ARC
8
DEFAULT_255_1_234
10
4.5239829
20
37.2752805
40
0.2912001
50
47.0253525
51
56.0854072
0
ARC
8
DEFAULT_255_1_234
10
4.5259609
20
37.2792223
40
0.2869704
50
10.9208013
51
46.7778124
0
ARC
8
DEFAULT_255_1_234
10
4.3895675
20
37.2476857
40
0.426899
50
359.6364486
51
11.6087304
0
ARC
8
DEFAULT_255_1_234
10
4.5730519
20
37.2461752
40
0.243409
50
332.3549906
51
359.7179418
0
ARC
8
DEFAULT_255_1_234
10
4.5080121
20
37.2770142
40
0.3153459
50
325.2333722
51
332.8745602
0
ARC
8
DEFAULT_255_1_234
10
4.5232744
20
37.2663828
40
0.2967456
50
292.9802137
51
325.2392345
0
ARC
8
DEFAULT_255_1_234
10
4.4958118
20
37.3197863
40
0.3566604
50
292.5402179
51
293.6924929
0
ARC
8
DEFAULT_255_1_234
10
4.5350714
20
36.6743091
40
0.3307468
50
57.6435486
51
72.8625112
0
ARC
8
DEFAULT_255_1_234
10
4.5705214
20
36.7317549
40
0.2632492
50
36.7248896
51
57.4697979
0
ARC
8
DEFAULT_255_1_234
10
4.5693847
20
36.733022
40
0.2634081
50
8.0545065
51
36.356114
0
ARC
8
DEFAULT_255_1_234
10
4.4831032
20
36.7175174
40
0.3510261
50
359.8320645
51
8.5869982
0
ARC
8
DEFAULT_255_1_234
10
4.4455808
20
36.7127101
40
0.3885653
50
343.9829931
51
0.5571613
0
ARC
8
DEFAULT_255_1_234
10
4.5342005
20
36.6884438
40
0.2966924
50
311.6359546
51
343.7651759
0
ARC
8
DEFAULT_255_1_234
10
4.4963574
20
36.7311102
40
0.3537231
50
279.7829875
51
311.6255694
0
ARC
8
DEFAULT_255_1_234
10
4.4662351
20
36.874828
40
0.5004971
50
269.7286406
51
280.3856417
0
ARC
8
DEFAULT_255_1_234
10
4.4600423
20
36.8706996
40
0.4963778
50
256.6828919
51
270.4412052
0
ARC
8
DEFAULT_255_1_234
10
4.4261719
20
36.7322394
40
0.3538406
50
229.4223008
51
256.8556159
0
ARC
8
DEFAULT_255_1_234
10
4.3847112
20
36.6855736
40
0.2914296
50
181.818294
51
229.6455059
0
ARC
8
DEFAULT_255_1_234
10
4.4887068
20
36.6986496
40
0.3959084
50
179.9755256
51
183.2323064
0
ARC
8
DEFAULT_255_1_234
10
4.4714814
20
36.6966037
40
0.2293034
50
179.4465117
51
196.2869258
0
ARC
8
DEFAULT_255_1_234
10
4.4227222
20
36.6832651
40
0.1787621
50
196.5661473
51
227.705904
0
ARC
8
DEFAULT_255_1_234
10
4.4391317
20
36.7016155
40
0.2033784
50
227.7652068
51
257.8762805
0
ARC
8
DEFAULT_255_1_234
10
4.4616287
20
36.7959156
40
0.3003081
50
257.4584385
51
270.426602
0
ARC
8
DEFAULT_255_1_234
10
4.4661853
20
36.8248996
40
0.329292
50
269.5962073
51
280.8789248
0
ARC
8
DEFAULT_255_1_234
10
4.4891382
20
36.7102685
40
0.2123908
50
280.6346389
51
299.8595945
0
ARC
8
DEFAULT_255_1_234
10
4.5082289
20
36.6740212
40
0.171457
50
300.3576302
51
314.5517981
0
ARC
8
DEFAULT_255_1_234
10
4.4999349
20
36.6800919
40
0.1816095
50
315.0728369
51
345.0431014
0
ARC
8
DEFAULT_255_1_234
10
4.4076163
20
36.7069841
40
0.2777492
50
344.5986631
51
357.9269593
0
ARC
8
DEFAULT_255_1_234
10
4.3180489
20
36.7131276
40
0.3674917
50
357.4748886
51
0.0231117
0
ARC
8
DEFAULT_255_1_234
10
4.4203599
20
36.7155679
40
0.2651907
50
359.5047933
51
13.4239635
0
ARC
8
DEFAULT_255_1_234
10
4.5070242
20
36.7377478
40
0.1757509
50
12.9498199
51
48.7551375
0
ARC
8
DEFAULT_255_1_234
10
4.4887976
20
36.71284
40
0.2065134
50
49.5088623
51
72.1836453
0
ARC
8
DEFAULT_255_1_234
10
4.4530129
20
36.6066291
40
0.3185836
50
71.9010081
51
84.3554254
0
ARC
8
DEFAULT_255_1_234
10
4.4368761
20
36.4705326
40
0.4556151
50
84.0193428
51
89.333121
0
LINE
8
DEFAULT_255_1_234
10
5.4822891
20
36.3904
11
5.0766863
21
36.3904
0
LINE
8
DEFAULT_255_1_234
10
5.0766863
20
36.3904
11
5.0766863
21
37.5598211
0
LINE
8
DEFAULT_255_1_234
10
5.0766863
20
37.5598211
11
5.458997
21
37.5598211
0
LINE
8
DEFAULT_255_1_234
10
5.4879113
20
36.9373614
11
5.2308957
21
36.9373614
0
LINE
8
DEFAULT_255_1_234
10
5.2308957
20
36.9373614
11
5.2308957
21
36.5164983
0
LINE
8
DEFAULT_255_1_234
10
5.2308957
20
36.5164983
11
5.4855018
21
36.5164983
0
LINE
8
DEFAULT_255_1_234
10
5.2308957
20
37.4329196
11
5.2308957
21
37.0610501
0
LINE
8
DEFAULT_255_1_234
10
5.2308957
20
37.0610501
11
5.4638161
21
37.0610501
0
LINE
8
DEFAULT_255_1_234
10
5.458997
20
37.4329196
11
5.2308957
21
37.4329196
0
ARC
8
DEFAULT_255_1_234
10
5.4627679
20
36.8230901
40
0.7367406
50
82.1257326
51
90.2932599
0
ARC
8
DEFAULT_255_1_234
10
5.5016634
20
37.0949013
40
0.4621653
50
69.9044149
51
82.2857423
0
ARC
8
DEFAULT_255_1_234
10
5.5587312
20
37.2491637
40
0.2976871
50
51.1838526
51
70.0181538
0
ARC
8
DEFAULT_255_1_234
10
5.5842278
20
37.286224
40
0.2528517
50
12.1017251
51
50.4214761
0
ARC
8
DEFAULT_255_1_234
10
5.4458152
20
37.2514676
40
0.3955061
50
359.5251267
51
12.8211707
0
ARC
8
DEFAULT_255_1_234
10
5.6038078
20
37.2445344
40
0.2375281
50
323.4908128
51
0.8817314
0
ARC
8
DEFAULT_255_1_234
10
5.5619765
20
37.276855
40
0.2903817
50
298.6825083
51
323.2756573
0
ARC
8
DEFAULT_255_1_234
10
5.5258128
20
37.3369649
40
0.3604842
50
293.1999386
51
299.1396394
0
ARC
8
DEFAULT_255_1_234
10
5.5931101
20
36.7284126
40
0.2871098
50
54.0011765
51
74.9167975
0
ARC
8
DEFAULT_255_1_234
10
5.604746
20
36.7481332
40
0.2643248
50
36.3580696
51
53.5291921
0
ARC
8
DEFAULT_255_1_234
10
5.5920702
20
36.7390998
40
0.2798884
50
4.8189881
51
36.3089977
0
ARC
8
DEFAULT_255_1_234
10
5.5141537
20
36.728127
40
0.358478
50
359.9370252
51
5.5204067
0
ARC
8
DEFAULT_255_1_234
10
5.4817059
20
36.7240667
40
0.3909429
50
344.7478609
51
0.5373281
0
ARC
8
DEFAULT_255_1_234
10
5.580803
20
36.6973544
40
0.2883093
50
311.1786488
51
344.6886812
0
ARC
8
DEFAULT_255_1_234
10
5.5516077
20
36.7336987
40
0.3348923
50
286.0418249
51
310.8441291
0
ARC
8
DEFAULT_255_1_234
10
5.5008909
20
36.8983807
40
0.5071869
50
274.1042341
51
286.4071509
0
ARC
8
DEFAULT_255_1_234
10
5.4832165
20
37.0867229
40
0.6963234
50
269.9236873
51
274.445647
0
ARC
8
DEFAULT_255_1_234
10
5.4878166
20
36.8527537
40
0.3362634
50
269.6055768
51
281.3740047
0
ARC
8
DEFAULT_255_1_234
10
5.5108804
20
36.7434353
40
0.224546
50
281.1055983
51
302.5132223
0
ARC
8
DEFAULT_255_1_234
10
5.5255703
20
36.7170823
40
0.1944357
50
303.0368945
51
311.8811219
0
ARC
8
DEFAULT_255_1_234
10
5.532711
20
36.708589
40
0.1833454
50
311.9916004
51
351.7143462
0
ARC
8
DEFAULT_255_1_234
10
5.451034
20
36.725093
40
0.2665871
50
350.7339597
51
0.2221581
0
ARC
8
DEFAULT_255_1_234
10
5.4402786
20
36.7307467
40
0.2773789
50
359.0456241
51
17.2296242
0
ARC
8
DEFAULT_255_1_234
10
5.5441903
20
36.7616163
40
0.1689915
50
17.6685481
51
78.9940892
0
ARC
8
DEFAULT_255_1_234
10
5.4925067
20
36.5761224
40
0.3612658
50
76.5635957
51
90.6980921
0
LINE
8
DEFAULT_255_1_234
10
5.4881051
20
36.9373613
11
5.4879113
21
36.9373614
0
ARC
8
DEFAULT_255_1_234
10
5.4660727
20
37.3896036
40
0.3285612
50
269.6064736
51
281.4533503
0
ARC
8
DEFAULT_255_1_234
10
5.4883547
20
37.2844688
40
0.2210975
50
281.2041486
51
302.5148063
0
ARC
8
DEFAULT_255_1_234
10
5.5020397
20
37.2598241
40
0.1929674
50
303.021671
51
309.8369575
0
ARC
8
DEFAULT_255_1_234
10
5.5203858
20
37.2392488
40
0.1654181
50
309.5228395
51
356.9509836
0
ARC
8
DEFAULT_255_1_234
10
5.4540441
20
37.2487932
40
0.2322512
50
355.4701227
51
0.0492546
0
ARC
8
DEFAULT_255_1_234
10
5.4261532
20
37.2510094
40
0.2601498
50
359.5558597
51
11.2096359
0
ARC
8
DEFAULT_255_1_234
10
5.5218822
20
37.270823
40
0.1623975
50
10.9182341
51
31.3230275
0
ARC
8
DEFAULT_255_1_234
10
5.5504555
20
37.2867214
40
0.1297302
50
31.8852677
51
52.1412565
0
ARC
8
DEFAULT_255_1_234
10
5.5230288
20
37.247975
40
0.1771663
50
52.8285564
51
71.9850297
0
ARC
8
DEFAULT_255_1_234
10
5.4854464
20
37.1373664
40
0.2939794
50
71.6863486
51
82.8455995
0
ARC
8
DEFAULT_255_1_234
10
5.4615
20
36.9564149
40
0.476506
50
82.6984714
51
90.1729175
0
ARC
8
DEFAULT_255_1_234
10
5.4592635
20
37.0787623
40
0.3541573
50
89.8708275
51
90.0431131
0
LINE
8
DEFAULT_255_1_234
10
4.4116378
20
44.8636169
11
4.4116378
21
44.9848962
0
LINE
8
DEFAULT_255_1_234
10
4.4116378
20
44.9848962
11
4.523279
21
44.9848962
0
LINE
8
DEFAULT_255_1_234
10
4.3329268
20
45.1905087
11
4.1843396
21
45.1905087
0
LINE
8
DEFAULT_255_1_234
10
4.1738983
20
44.6363188
11
4.3232887
21
44.6363188
0
LINE
8
DEFAULT_255_1_234
10
4.523279
20
44.8636169
11
4.4116378
21
44.8636169
0
ARC
8
DEFAULT_255_1_234
10
4.5203656
20
45.3241713
40
0.3392876
50
270.4919872
51
281.8951556
0
ARC
8
DEFAULT_255_1_234
10
4.5444918
20
45.2139702
40
0.2264817
50
281.6691735
51
301.2943132
0
ARC
8
DEFAULT_255_1_234
10
4.5615128
20
45.1828304
40
0.1910381
50
301.7833094
51
311.7545298
0
ARC
8
DEFAULT_255_1_234
10
4.5706704
20
45.1726748
40
0.1773635
50
311.7323931
51
354.2802411
0
ARC
8
DEFAULT_255_1_234
10
4.4980329
20
45.1851722
40
0.2509385
50
353.0937916
51
0.1181479
0
ARC
8
DEFAULT_255_1_234
10
4.4519114
20
45.1899386
40
0.2970898
50
359.1805295
51
15.0453146
0
ARC
8
DEFAULT_255_1_234
10
4.5864951
20
45.2291992
40
0.1569564
50
13.9577229
51
77.6713066
0
ARC
8
DEFAULT_255_1_234
10
4.547848
20
45.0906949
40
0.3006298
50
76.1116566
51
90.7026153
0
ARC
8
DEFAULT_255_1_234
10
4.5419318
20
45.1180545
40
0.2732568
50
89.5324876
51
103.531937
0
ARC
8
DEFAULT_255_1_234
10
4.5218762
20
45.1979884
40
0.1908508
50
103.2931773
51
133.5619022
0
ARC
8
DEFAULT_255_1_234
10
4.5174251
20
45.2039375
40
0.1834746
50
133.8349307
51
173.5344437
0
ARC
8
DEFAULT_255_1_234
10
4.5897294
20
45.1911213
40
0.2568033
50
172.5096846
51
180.1366907
0
ARC
8
DEFAULT_255_1_234
10
4.4946188
20
45.1945622
40
0.3103056
50
155.3484492
51
180.7484736
0
ARC
8
DEFAULT_255_1_234
10
4.4897277
20
45.1916846
40
0.3070957
50
131.5744599
51
154.4798489
0
ARC
8
DEFAULT_255_1_234
10
4.5210424
20
45.160031
40
0.3515643
50
96.9875458
51
131.9690667
0
ARC
8
DEFAULT_255_1_234
10
4.5429904
20
45.0354636
40
0.4779224
50
89.8596053
51
97.7825159
0
ARC
8
DEFAULT_255_1_234
10
4.5477967
20
45.0092616
40
0.5041361
50
78.3655447
51
90.4131539
0
ARC
8
DEFAULT_255_1_234
10
4.5835885
20
45.1751887
40
0.3344039
50
56.6229102
51
78.638727
0
ARC
8
DEFAULT_255_1_234
10
4.6050829
20
45.2127805
40
0.2912001
50
47.0253525
51
56.0854072
0
ARC
8
DEFAULT_255_1_234
10
4.6070609
20
45.2167223
40
0.2869704
50
10.9208013
51
46.7778124
0
ARC
8
DEFAULT_255_1_234
10
4.4706675
20
45.1851857
40
0.426899
50
359.6364486
51
11.6087304
0
ARC
8
DEFAULT_255_1_234
10
4.6541519
20
45.1836752
40
0.243409
50
332.3549906
51
359.7179418
0
ARC
8
DEFAULT_255_1_234
10
4.5891121
20
45.2145142
40
0.3153459
50
325.2333722
51
332.8745602
0
ARC
8
DEFAULT_255_1_234
10
4.6043744
20
45.2038828
40
0.2967456
50
292.9802137
51
325.2392345
0
ARC
8
DEFAULT_255_1_234
10
4.5769118
20
45.2572863
40
0.3566604
50
292.5402179
51
293.6924929
0
ARC
8
DEFAULT_255_1_234
10
4.6161714
20
44.6118091
40
0.3307468
50
57.6435486
51
72.8625112
0
ARC
8
DEFAULT_255_1_234
10
4.6516214
20
44.6692549
40
0.2632492
50
36.7248896
51
57.4697979
0
ARC
8
DEFAULT_255_1_234
10
4.6504847
20
44.670522
40
0.2634081
50
8.0545065
51
36.356114
0
ARC
8
DEFAULT_255_1_234
10
4.5642032
20
44.6550174
40
0.3510261
50
359.8320645
51
8.5869982
0
ARC
8
DEFAULT_255_1_234
10
4.5266808
20
44.6502101
40
0.3885653
50
343.9829931
51
0.5571613
0
ARC
8
DEFAULT_255_1_234
10
4.6153005
20
44.6259438
40
0.2966924
50
311.6359546
51
343.7651759
0
ARC
8
DEFAULT_255_1_234
10
4.5774574
20
44.6686102
40
0.3537231
50
279.7829875
51
311.6255694
0
ARC
8
DEFAULT_255_1_234
10
4.5473351
20
44.812328
40
0.5004971
50
269.7286406
51
280.3856417
0
ARC
8
DEFAULT_255_1_234
10
4.5411423
20
44.8081996
40
0.4963778
50
256.6828919
51
270.4412052
0
ARC
8
DEFAULT_255_1_234
10
4.5072719
20
44.6697394
40
0.3538406
50
229.4223008
51
256.8556159
0
ARC
8
DEFAULT_255_1_234
10
4.4658112
20
44.6230736
40
0.2914296
50
181.818294
51
229.6455059
0
ARC
8
DEFAULT_255_1_234
10
4.5698068
20
44.6361496
40
0.3959084
50
179.9755256
51
183.2323064
0
ARC
8
DEFAULT_255_1_234
10
4.5525814
20
44.6341037
40
0.2293034
50
179.4465117
51
196.2869258
0
ARC
8
DEFAULT_255_1_234
10
4.5038222
20
44.6207651
40
0.1787621
50
196.5661473
51
227.705904
0
ARC
8
DEFAULT_255_1_234
10
4.5202317
20
44.6391155
40
0.2033784
50
227.7652068
51
257.8762805
0
ARC
8
DEFAULT_255_1_234
10
4.5427287
20
44.7334156
40
0.3003081
50
257.4584385
51
270.426602
0
ARC
8
DEFAULT_255_1_234
10
4.5472853
20
44.7623996
40
0.329292
50
269.5962073
51
280.8789248
0
ARC
8
DEFAULT_255_1_234
10
4.5702382
20
44.6477685
40
0.2123908
50
280.6346389
51
299.8595945
0
ARC
8
DEFAULT_255_1_234
10
4.5893289
20
44.6115212
40
0.171457
50
300.3576302
51
314.5517981
0
ARC
8
DEFAULT_255_1_234
10
4.5810349
20
44.6175919
40
0.1816095
50
315.0728369
51
345.0431014
0
ARC
8
DEFAULT_255_1_234
10
4.4887163
20
44.6444841
40
0.2777492
50
344.5986631
51
357.9269593
0
ARC
8
DEFAULT_255_1_234
10
4.3991489
20
44.6506276
40
0.3674917
50
357.4748886
51
0.0231117
0
ARC
8
DEFAULT_255_1_234
10
4.5014599
20
44.6530679
40
0.2651907
50
359.5047933
51
13.4239635
0
ARC
8
DEFAULT_255_1_234
10
4.5881242
20
44.6752478
40
0.1757509
50
12.9498199
51
48.7551375
0
ARC
8
DEFAULT_255_1_234
10
4.5698976
20
44.65034
40
0.2065134
50
49.5088623
51
72.1836453
0
ARC
8
DEFAULT_255_1_234
10
4.5341129
20
44.5441291
40
0.3185836
50
71.9010081
51
84.3554254
0
ARC
8
DEFAULT_255_1_234
10
4.5179761
20
44.4080326
40
0.4556151
50
84.0193428
51
89.333121
0
LINE
8
DEFAULT_255_1_234
10
5.9151792
20
44.3279
11
5.803538
21
44.6331061
0
LINE
8
DEFAULT_255_1_234
10
5.803538
20
44.6331061
11
5.313602
21
44.6331061
0
LINE
8
DEFAULT_255_1_234
10
5.313602
20
44.6331061
11
5.2035672
21
44.3279
0
LINE
8
DEFAULT_255_1_234
10
5.2035672
20
44.3279
11
5.0445388
21
44.3279
0
LINE
8
DEFAULT_255_1_234
10
5.0445388
20
44.3279
11
5.4911034
21
45.4973211
0
LINE
8
DEFAULT_255_1_234
10
5.4911034
20
45.4973211
11
5.6260366
21
45.4973211
0
LINE
8
DEFAULT_255_1_234
10
5.6260366
20
45.4973211
11
6.0734044
21
44.3279
0
LINE
8
DEFAULT_255_1_234
10
6.0734044
20
44.3279
11
5.9151792
21
44.3279
0
LINE
8
DEFAULT_255_1_234
10
5.55857
20
45.3069689
11
5.3601861
21
44.7600075
0
LINE
8
DEFAULT_255_1_234
10
5.3601861
20
44.7600075
11
5.7577571
21
44.7600075
0
LINE
8
DEFAULT_255_1_234
10
5.7577571
20
44.7600075
11
5.55857
21
45.3069689
0
LINE
8
DEFAULT_255_1_234
10
4.8245119
20
52.3866792
11
4.8245119
21
52.2654
0
LINE
8
DEFAULT_255_1_234
10
4.8245119
20
52.2654
11
4.058284
21
52.2654
0
LINE
8
DEFAULT_255_1_234
10
4.058284
20
52.2654
11
4.058284
21
52.3722221
0
LINE
8
DEFAULT_255_1_234
10
4.058284
20
52.3722221
11
4.4630836
21
52.8219995
0
LINE
8
DEFAULT_255_1_234
10
4.1843823
20
53.0902595
11
4.0357952
21
53.0902595
0
LINE
8
DEFAULT_255_1_234
10
4.5506296
20
52.7264218
11
4.2373918
21
52.3866792
0
LINE
8
DEFAULT_255_1_234
10
4.2373918
20
52.3866792
11
4.8245119
21
52.3866792
0
ARC
8
DEFAULT_255_1_234
10
3.114067
20
54.0149527
40
1.8008286
50
318.5132453
51
320.7828378
0
ARC
8
DEFAULT_255_1_234
10
3.6427644
20
53.5846426
40
1.1191493
50
320.7372736
51
323.9737074
0
ARC
8
DEFAULT_255_1_234
10
4.0347501
20
53.3006361
40
0.6350923
50
323.8961724
51
328.6421089
0
ARC
8
DEFAULT_255_1_234
10
4.2394096
20
53.1744031
40
0.3946393
50
328.8299013
51
331.789948
0
ARC
8
DEFAULT_255_1_234
10
4.3391274
20
53.1229509
40
0.2824501
50
331.4255242
51
352.9364833
0
ARC
8
DEFAULT_255_1_234
10
4.3527775
20
53.1198976
40
0.2685315
50
353.2248685
51
0.0169286
0
ARC
8
DEFAULT_255_1_234
10
4.3737652
20
53.122195
40
0.2475536
50
359.4866256
51
15.9339782
0
ARC
8
DEFAULT_255_1_234
10
4.4244637
20
53.1358286
40
0.1950618
50
16.1714718
51
43.5284424
0
ARC
8
DEFAULT_255_1_234
10
4.4321946
20
53.1435573
40
0.184134
50
43.4415429
51
83.1661404
0
ARC
8
DEFAULT_255_1_234
10
4.4187864
20
53.0698771
40
0.258926
50
82.160215
51
90.1505798
0
ARC
8
DEFAULT_255_1_234
10
4.4156291
20
53.0161865
40
0.3126255
50
89.5460705
51
102.5418777
0
ARC
8
DEFAULT_255_1_234
10
4.3913377
20
53.1192665
40
0.2067346
50
102.1739365
51
129.2061916
0
ARC
8
DEFAULT_255_1_234
10
4.3834449
20
53.1317094
40
0.1921118
50
129.7279328
51
135.7542026
0
ARC
8
DEFAULT_255_1_234
10
4.3955977
20
53.1220045
40
0.2075944
50
136.175737
51
166.3674722
0
ARC
8
DEFAULT_255_1_234
10
4.4962896
20
53.0950182
40
0.3118201
50
165.9092917
51
178.8683903
0
ARC
8
DEFAULT_255_1_234
10
4.5827757
20
53.0903179
40
0.3983935
50
178.438168
51
180.0083905
0
ARC
8
DEFAULT_255_1_234
10
4.4426359
20
53.0942231
40
0.4068601
50
163.2878735
51
180.5581814
0
ARC
8
DEFAULT_255_1_234
10
4.3624621
20
53.116284
40
0.3237344
50
133.454115
51
162.9470031
0
ARC
8
DEFAULT_255_1_234
10
4.3803162
20
53.0973
40
0.349795
50
100.7869394
51
133.4384016
0
ARC
8
DEFAULT_255_1_234
10
4.4150934
20
52.9424319
40
0.5084616
50
89.6605301
51
101.3704185
0
ARC
8
DEFAULT_255_1_234
10
4.4217273
20
52.9485496
40
0.502348
50
78.2171172
51
90.4130393
0
ARC
8
DEFAULT_255_1_234
10
4.4572351
20
53.1109637
40
0.3361092
50
55.9268222
51
78.4888551
0
ARC
8
DEFAULT_255_1_234
10
4.4768791
20
53.1448324
40
0.2970617
50
47.9292255
51
55.4054003
0
ARC
8
DEFAULT_255_1_234
10
4.4870352
20
53.1551502
40
0.2825983
50
4.3347696
51
48.0560701
0
ARC
8
DEFAULT_255_1_234
10
4.3774745
20
53.1381601
40
0.393225
50
359.925209
51
5.5967654
0
ARC
8
DEFAULT_255_1_234
10
4.4203637
20
53.1437816
40
0.3503892
50
337.8914096
51
358.9967724
0
ARC
8
DEFAULT_255_1_234
10
4.1490049
20
53.2484706
40
0.6412172
50
326.9135351
51
338.3505194
0
ARC
8
DEFAULT_255_1_234
10
3.7504353
20
53.5039284
40
1.1146189
50
319.6472867
51
327.095818
0
ARC
8
DEFAULT_255_1_234
10
3.3671356
20
53.8201
40
1.6114559
50
317.2586784
51
319.9046139
0
LINE
8
DEFAULT_255_1_234
10
5.7329015
20
52.7031297
11
5.7329015
21
52.690279
0
LINE
8
DEFAULT_255_1_234
10
5.1409624
20
52.3657967
11
5.1337338
21
52.2654
0
LINE
8
DEFAULT_255_1_234
10
5.1337338
20
52.2654
11
4.9971942
21
52.2654
0
LINE
8
DEFAULT_255_1_234
10
4.9971942
20
52.2654
11
4.9971942
21
53.499075
0
LINE
8
DEFAULT_255_1_234
10
4.9971942
20
53.499075
11
5.1457814
21
53.499075
0
LINE
8
DEFAULT_255_1_234
10
5.1457814
20
53.499075
11
5.1457814
21
53.0388564
0
LINE
8
DEFAULT_255_1_234
10
5.1457814
20
52.8878597
11
5.1457814
21
52.5119744
0
ARC
8
DEFAULT_255_1_234
10
5.028229
20
52.6858573
40
0.7046863
50
349.4825105
51
0.3595108
0
ARC
8
DEFAULT_255_1_234
10
5.2559531
20
52.6420022
40
0.4727857
50
331.8602128
51
349.6704139
0
ARC
8
DEFAULT_255_1_234
10
5.3292299
20
52.6063125
40
0.3913503
50
322.8939783
51
331.4081204
0
ARC
8
DEFAULT_255_1_234
10
5.3987697
20
52.5483707
40
0.300965
50
296.7249167
51
323.7044215
0
ARC
8
DEFAULT_255_1_234
10
5.4017594
20
52.5553043
40
0.3058683
50
270.6342811
51
295.6405548
0
ARC
8
DEFAULT_255_1_234
10
5.3955904
20
52.6355995
40
0.3862632
50
269.9967524
51
271.4174733
0
ARC
8
DEFAULT_255_1_234
10
5.3917568
20
52.6220686
40
0.3727515
50
253.657532
51
270.5859025
0
ARC
8
DEFAULT_255_1_234
10
5.3686674
20
52.5377235
40
0.2853216
50
217.0543181
51
253.3409865
0
ARC
8
DEFAULT_255_1_234
10
5.3753342
20
52.8561052
40
0.2934152
50
93.1931545
51
141.4760602
0
ARC
8
DEFAULT_255_1_234
10
5.3935558
20
52.7328453
40
0.4176524
50
89.9442578
51
94.747309
0
ARC
8
DEFAULT_255_1_234
10
5.3979305
20
52.815141
40
0.3353801
50
70.6103515
51
90.6779749
0
ARC
8
DEFAULT_255_1_234
10
5.4093607
20
52.860689
40
0.2886533
50
36.1152635
51
69.7489296
0
ARC
8
DEFAULT_255_1_234
10
5.3107011
20
52.7853708
40
0.4127561
50
15.4648517
51
36.4891396
0
ARC
8
DEFAULT_255_1_234
10
5.1048697
20
52.7254524
40
0.6271187
50
3.9220813
51
15.7265815
0
ARC
8
DEFAULT_255_1_234
10
4.8689541
20
52.7042325
40
0.863948
50
359.9268643
51
4.2559037
0
ARC
8
DEFAULT_255_1_234
10
4.9503922
20
52.7102103
40
0.6339295
50
359.7230081
51
7.7115859
0
ARC
8
DEFAULT_255_1_234
10
5.1765487
20
52.7418172
40
0.4055784
50
7.5740023
51
19.4151451
0
ARC
8
DEFAULT_255_1_234
10
5.3033126
20
52.7864519
40
0.2711858
50
19.4238354
51
34.9161182
0
ARC
8
DEFAULT_255_1_234
10
5.3703864
20
52.8351172
40
0.1883373
50
34.4556322
51
84.4656458
0
ARC
8
DEFAULT_255_1_234
10
5.3575312
20
52.7596057
40
0.2647939
50
83.2727306
51
90.1114621
0
ARC
8
DEFAULT_255_1_234
10
5.3533169
20
52.7794509
40
0.2449763
50
89.1347934
51
111.4089923
0
ARC
8
DEFAULT_255_1_234
10
5.345372
20
52.8122473
40
0.2115923
50
112.6478598
51
148.9260864
0
ARC
8
DEFAULT_255_1_234
10
5.4231518
20
52.7580985
40
0.3062228
50
147.7597608
51
154.928557
0
ARC
8
DEFAULT_255_1_234
10
5.3971579
20
52.6336379
40
0.2792708
50
205.8264786
51
224.5301003
0
ARC
8
DEFAULT_255_1_234
10
5.3493883
20
52.5909914
40
0.2153317
50
225.354483
51
269.2437579
0
ARC
8
DEFAULT_255_1_234
10
5.3585518
20
52.6716292
40
0.2961942
50
267.6770046
51
270.0136612
0
ARC
8
DEFAULT_255_1_234
10
5.3612869
20
52.5957938
40
0.2203751
50
269.3072485
51
289.499141
0
ARC
8
DEFAULT_255_1_234
10
5.3684933
20
52.5661394
40
0.1900415
50
290.4353973
51
325.3766314
0
ARC
8
DEFAULT_255_1_234
10
5.3056156
20
52.6115643
40
0.2675986
50
325.0223901
51
342.692398
0
ARC
8
DEFAULT_255_1_234
10
5.1359044
20
52.6667812
40
0.446058
50
342.4062876
51
352.8669243
0
ARC
8
DEFAULT_255_1_234
10
4.8638519
20
52.7024975
40
0.7204419
50
352.7350668
51
359.8556985
0
ARC
8
DEFAULT_255_1_234
10
4.6728215
20
52.7071018
40
0.9114927
50
359.5965197
51
0.0027543
0
LINE
8
DEFAULT_255_1_234
10
4.8807119
20
60.3241792
11
4.8807119
21
60.2029
0
LINE
8
DEFAULT_255_1_234
10
4.8807119
20
60.2029
11
4.114484
21
60.2029
0
LINE
8
DEFAULT_255_1_234
10
4.114484
20
60.2029
11
4.114484
21
60.3097221
0
LINE
8
DEFAULT_255_1_234
10
4.114484
20
60.3097221
11
4.5192836
21
60.7594995
0
LINE
8
DEFAULT_255_1_234
10
4.2405823
20
61.0277595
11
4.0919952
21
61.0277595
0
LINE
8
DEFAULT_255_1_234
10
4.6068296
20
60.6639218
11
4.2935918
21
60.3241792
0
LINE
8
DEFAULT_255_1_234
10
4.2935918
20
60.3241792
11
4.8807119
21
60.3241792
0
ARC
8
DEFAULT_255_1_234
10
3.170267
20
61.9524527
40
1.8008286
50
318.5132453
51
320.7828378
0
ARC
8
DEFAULT_255_1_234
10
3.6989644
20
61.5221426
40
1.1191493
50
320.7372736
51
323.9737074
0
ARC
8
DEFAULT_255_1_234
10
4.0909501
20
61.2381361
40
0.6350923
50
323.8961724
51
328.6421089
0
ARC
8
DEFAULT_255_1_234
10
4.2956096
20
61.1119031
40
0.3946393
50
328.8299013
51
331.789948
0
ARC
8
DEFAULT_255_1_234
10
4.3953274
20
61.0604509
40
0.2824501
50
331.4255242
51
352.9364833
0
ARC
8
DEFAULT_255_1_234
10
4.4089775
20
61.0573976
40
0.2685315
50
353.2248685
51
0.0169286
0
ARC
8
DEFAULT_255_1_234
10
4.4299652
20
61.059695
40
0.2475536
50
359.4866256
51
15.9339782
0
ARC
8
DEFAULT_255_1_234
10
4.4806637
20
61.0733286
40
0.1950618
50
16.1714718
51
43.5284424
0
ARC
8
DEFAULT_255_1_234
10
4.4883946
20
61.0810573
40
0.184134
50
43.4415429
51
83.1661404
0
ARC
8
DEFAULT_255_1_234
10
4.4749864
20
61.0073771
40
0.258926
50
82.160215
51
90.1505798
0
ARC
8
DEFAULT_255_1_234
10
4.4718291
20
60.9536865
40
0.3126255
50
89.5460705
51
102.5418777
0
ARC
8
DEFAULT_255_1_234
10
4.4475377
20
61.0567665
40
0.2067346
50
102.1739365
51
129.2061916
0
ARC
8
DEFAULT_255_1_234
10
4.4396449
20
61.0692094
40
0.1921118
50
129.7279328
51
135.7542026
0
ARC
8
DEFAULT_255_1_234
10
4.4517977
20
61.0595045
40
0.2075944
50
136.175737
51
166.3674722
0
ARC
8
DEFAULT_255_1_234
10
4.5524896
20
61.0325182
40
0.3118201
50
165.9092917
51
178.8683903
0
ARC
8
DEFAULT_255_1_234
10
4.6389757
20
61.0278179
40
0.3983935
50
178.438168
51
180.0083905
0
ARC
8
DEFAULT_255_1_234
10
4.4988359
20
61.0317231
40
0.4068601
50
163.2878735
51
180.5581814
0
ARC
8
DEFAULT_255_1_234
10
4.4186621
20
61.053784
40
0.3237344
50
133.454115
51
162.9470031
0
ARC
8
DEFAULT_255_1_234
10
4.4365162
20
61.0348
40
0.349795
50
100.7869394
51
133.4384016
0
ARC
8
DEFAULT_255_1_234
10
4.4712934
20
60.8799319
40
0.5084616
50
89.6605301
51
101.3704185
0
ARC
8
DEFAULT_255_1_234
10
4.4779273
20
60.8860496
40
0.502348
50
78.2171172
51
90.4130393
0
ARC
8
DEFAULT_255_1_234
10
4.5134351
20
61.0484637
40
0.3361092
50
55.9268222
51
78.4888551
0
ARC
8
DEFAULT_255_1_234
10
4.5330791
20
61.0823324
40
0.2970617
50
47.9292255
51
55.4054003
0
ARC
8
DEFAULT_255_1_234
10
4.5432352
20
61.0926502
40
0.2825983
50
4.3347696
51
48.0560701
0
ARC
8
DEFAULT_255_1_234
10
4.4336745
20
61.0756601
40
0.393225
50
359.925209
51
5.5967654
0
ARC
8
DEFAULT_255_1_234
10
4.4765637
20
61.0812816
40
0.3503892
50
337.8914096
51
358.9967724
0
ARC
8
DEFAULT_255_1_234
10
4.2052049
20
61.1859706
40
0.6412172
50
326.9135351
51
338.3505194
0
ARC
8
DEFAULT_255_1_234
10
3.8066353
20
61.4414284
40
1.1146189
50
319.6472867
51
327.095818
0
ARC
8
DEFAULT_255_1_234
10
3.4233356
20
61.7576
40
1.6114559
50
317.2586784
51
319.9046139
0
LINE
8
DEFAULT_255_1_234
10
5.4822891
20
60.2029
11
5.0766863
21
60.2029
0
LINE
8
DEFAULT_255_1_234
10
5.0766863
20
60.2029
11
5.0766863
21
61.3723211
0
LINE
8
DEFAULT_255_1_234
10
5.0766863
20
61.3723211
11
5.458997
21
61.3723211
0
LINE
8
DEFAULT_255_1_234
10
5.4879113
20
60.7498614
11
5.2308957
21
60.7498614
0
LINE
8
DEFAULT_255_1_234
10
5.2308957
20
60.7498614
11
5.2308957
21
60.3289983
0
LINE
8
DEFAULT_255_1_234
10
5.2308957
20
60.3289983
11
5.4855018
21
60.3289983
0
LINE
8
DEFAULT_255_1_234
10
5.2308957
20
61.2454196
11
5.2308957
21
60.8735501
0
LINE
8
DEFAULT_255_1_234
10
5.2308957
20
60.8735501
11
5.4638161
21
60.8735501
0
LINE
8
DEFAULT_255_1_234
10
5.458997
20
61.2454196
11
5.2308957
21
61.2454196
0
ARC
8
DEFAULT_255_1_234
10
5.4627679
20
60.6355901
40
0.7367406
50
82.1257326
51
90.2932599
0
ARC
8
DEFAULT_255_1_234
10
5.5016634
20
60.9074013
40
0.4621653
50
69.9044149
51
82.2857423
0
ARC
8
DEFAULT_255_1_234
10
5.5587312
20
61.0616637
40
0.2976871
50
51.1838526
51
70.0181538
0
ARC
8
DEFAULT_255_1_234
10
5.5842278
20
61.098724
40
0.2528517
50
12.1017251
51
50.4214761
0
ARC
8
DEFAULT_255_1_234
10
5.4458152
20
61.0639676
40
0.3955061
50
359.5251267
51
12.8211707
0
ARC
8
DEFAULT_255_1_234
10
5.6038078
20
61.0570344
40
0.2375281
50
323.4908128
51
0.8817314
0
ARC
8
DEFAULT_255_1_234
10
5.5619765
20
61.089355
40
0.2903817
50
298.6825083
51
323.2756573
0
ARC
8
DEFAULT_255_1_234
10
5.5258128
20
61.1494649
40
0.3604842
50
293.1999386
51
299.1396394
0
ARC
8
DEFAULT_255_1_234
10
5.5931101
20
60.5409126
40
0.2871098
50
54.0011765
51
74.9167975
0
ARC
8
DEFAULT_255_1_234
10
5.604746
20
60.5606332
40
0.2643248
50
36.3580696
51
53.5291921
0
ARC
8
DEFAULT_255_1_234
10
5.5920702
20
60.5515998
40
0.2798884
50
4.8189881
51
36.3089977
0
ARC
8
DEFAULT_255_1_234
10
5.5141537
20
60.540627
40
0.358478
50
359.9370252
51
5.5204067
0
ARC
8
DEFAULT_255_1_234
10
5.4817059
20
60.5365667
40
0.3909429
50
344.7478609
51
0.5373281
0
ARC
8
DEFAULT_255_1_234
10
5.580803
20
60.5098544
40
0.2883093
50
311.1786488
51
344.6886812
0
ARC
8
DEFAULT_255_1_234
10
5.5516077
20
60.5461987
40
0.3348923
50
286.0418249
51
310.8441291
0
ARC
8
DEFAULT_255_1_234
10
5.5008909
20
60.7108807
40
0.5071869
50
274.1042341
51
286.4071509
0
ARC
8
DEFAULT_255_1_234
10
5.4832165
20
60.8992229
40
0.6963234
50
269.9236873
51
274.445647
0
ARC
8
DEFAULT_255_1_234
10
5.4878166
20
60.6652537
40
0.3362634
50
269.6055768
51
281.3740047
0
ARC
8
DEFAULT_255_1_234
10
5.5108804
20
60.5559353
40
0.224546
50
281.1055983
51
302.5132223
0
ARC
8
DEFAULT_255_1_234
10
5.5255703
20
60.5295823
40
0.1944357
50
303.0368945
51
311.8811219
0
ARC
8
DEFAULT_255_1_234
10
5.532711
20
60.521089
40
0.1833454
50
311.9916004
51
351.7143462
0
ARC
8
DEFAULT_255_1_234
10
5.451034
20
60.537593
40
0.2665871
50
350.7339597
51
0.2221581
0
ARC
8
DEFAULT_255_1_234
10
5.4402786
20
60.5432467
40
0.2773789
50
359.0456241
51
17.2296242
0
ARC
8
DEFAULT_255_1_234
10
5.5441903
20
60.5741163
40
0.1689915
50
17.6685481
51
78.9940892
0
ARC
8
DEFAULT_255_1_234
10
5.4925067
20
60.3886224
40
0.3612658
50
76.5635957
51
90.6980921
0
LINE
8
DEFAULT_255_1_234
10
5.4881051
20
60.7498613
11
5.4879113
21
60.7498614
0
ARC
8
DEFAULT_255_1_234
10
5.4660727
20
61.2021036
40
0.3285612
50
269.6064736
51
281.4533503
0
ARC
8
DEFAULT_255_1_234
10
5.4883547
20
61.0969688
40
0.2210975
50
281.2041486
51
302.5148063
0
ARC
8
DEFAULT_255_1_234
10
5.5020397
20
61.0723241
40
0.1929674
50
303.021671
51
309.8369575
0
ARC
8
DEFAULT_255_1_234
10
5.5203858
20
61.0517488
40
0.1654181
50
309.5228395
51
356.9509836
0
ARC
8
DEFAULT_255_1_234
10
5.4540441
20
61.0612932
40
0.2322512
50
355.4701227
51
0.0492546
0
ARC
8
DEFAULT_255_1_234
10
5.4261532
20
61.0635094
40
0.2601498
50
359.5558597
51
11.2096359
0
ARC
8
DEFAULT_255_1_234
10
5.5218822
20
61.083323
40
0.1623975
50
10.9182341
51
31.3230275
0
ARC
8
DEFAULT_255_1_234
10
5.5504555
20
61.0992214
40
0.1297302
50
31.8852677
51
52.1412565
0
ARC
8
DEFAULT_255_1_234
10
5.5230288
20
61.060475
40
0.1771663
50
52.8285564
51
71.9850297
0
ARC
8
DEFAULT_255_1_234
10
5.4854464
20
60.9498664
40
0.2939794
50
71.6863486
51
82.8455995
0
ARC
8
DEFAULT_255_1_234
10
5.4615
20
60.7689149
40
0.476506
50
82.6984714
51
90.1729175
0
ARC
8
DEFAULT_255_1_234
10
5.4592635
20
60.8912623
40
0.3541573
50
89.8708275
51
90.0431131
0
LINE
8
DEFAULT_255_1_234
10
4.9618119
20
68.2616792
11
4.9618119
21
68.1404
0
LINE
8
DEFAULT_255_1_234
10
4.9618119
20
68.1404
11
4.195584
21
68.1404
0
LINE
8
DEFAULT_255_1_234
10
4.195584
20
68.1404
11
4.195584
21
68.2472221
0
LINE
8
DEFAULT_255_1_234
10
4.195584
20
68.2472221
11
4.6003836
21
68.6969995
0
LINE
8
DEFAULT_255_1_234
10
4.3216823
20
68.9652595
11
4.1730952
21
68.9652595
0
LINE
8
DEFAULT_255_1_234
10
4.6879296
20
68.6014218
11
4.3746918
21
68.2616792
0
LINE
8
DEFAULT_255_1_234
10
4.3746918
20
68.2616792
11
4.9618119
21
68.2616792
0
ARC
8
DEFAULT_255_1_234
10
3.251367
20
69.8899527
40
1.8008286
50
318.5132453
51
320.7828378
0
ARC
8
DEFAULT_255_1_234
10
3.7800644
20
69.4596426
40
1.1191493
50
320.7372736
51
323.9737074
0
ARC
8
DEFAULT_255_1_234
10
4.1720501
20
69.1756361
40
0.6350923
50
323.8961724
51
328.6421089
0
ARC
8
DEFAULT_255_1_234
10
4.3767096
20
69.0494031
40
0.3946393
50
328.8299013
51
331.789948
0
ARC
8
DEFAULT_255_1_234
10
4.4764274
20
68.9979509
40
0.2824501
50
331.4255242
51
352.9364833
0
ARC
8
DEFAULT_255_1_234
10
4.4900775
20
68.9948976
40
0.2685315
50
353.2248685
51
0.0169286
0
ARC
8
DEFAULT_255_1_234
10
4.5110652
20
68.997195
40
0.2475536
50
359.4866256
51
15.9339782
0
ARC
8
DEFAULT_255_1_234
10
4.5617637
20
69.0108286
40
0.1950618
50
16.1714718
51
43.5284424
0
ARC
8
DEFAULT_255_1_234
10
4.5694946
20
69.0185573
40
0.184134
50
43.4415429
51
83.1661404
0
ARC
8
DEFAULT_255_1_234
10
4.5560864
20
68.9448771
40
0.258926
50
82.160215
51
90.1505798
0
ARC
8
DEFAULT_255_1_234
10
4.5529291
20
68.8911865
40
0.3126255
50
89.5460705
51
102.5418777
0
ARC
8
DEFAULT_255_1_234
10
4.5286377
20
68.9942665
40
0.2067346
50
102.1739365
51
129.2061916
0
ARC
8
DEFAULT_255_1_234
10
4.5207449
20
69.0067094
40
0.1921118
50
129.7279328
51
135.7542026
0
ARC
8
DEFAULT_255_1_234
10
4.5328977
20
68.9970045
40
0.2075944
50
136.175737
51
166.3674722
0
ARC
8
DEFAULT_255_1_234
10
4.6335896
20
68.9700182
40
0.3118201
50
165.9092917
51
178.8683903
0
ARC
8
DEFAULT_255_1_234
10
4.7200757
20
68.9653179
40
0.3983935
50
178.438168
51
180.0083905
0
ARC
8
DEFAULT_255_1_234
10
4.5799359
20
68.9692231
40
0.4068601
50
163.2878735
51
180.5581814
0
ARC
8
DEFAULT_255_1_234
10
4.4997621
20
68.991284
40
0.3237344
50
133.454115
51
162.9470031
0
ARC
8
DEFAULT_255_1_234
10
4.5176162
20
68.9723
40
0.349795
50
100.7869394
51
133.4384016
0
ARC
8
DEFAULT_255_1_234
10
4.5523934
20
68.8174319
40
0.5084616
50
89.6605301
51
101.3704185
0
ARC
8
DEFAULT_255_1_234
10
4.5590273
20
68.8235496
40
0.502348
50
78.2171172
51
90.4130393
0
ARC
8
DEFAULT_255_1_234
10
4.5945351
20
68.9859637
40
0.3361092
50
55.9268222
51
78.4888551
0
ARC
8
DEFAULT_255_1_234
10
4.6141791
20
69.0198324
40
0.2970617
50
47.9292255
51
55.4054003
0
ARC
8
DEFAULT_255_1_234
10
4.6243352
20
69.0301502
40
0.2825983
50
4.3347696
51
48.0560701
0
ARC
8
DEFAULT_255_1_234
10
4.5147745
20
69.0131601
40
0.393225
50
359.925209
51
5.5967654
0
ARC
8
DEFAULT_255_1_234
10
4.5576637
20
69.0187816
40
0.3503892
50
337.8914096
51
358.9967724
0
ARC
8
DEFAULT_255_1_234
10
4.2863049
20
69.1234706
40
0.6412172
50
326.9135351
51
338.3505194
0
ARC
8
DEFAULT_255_1_234
10
3.8877353
20
69.3789284
40
1.1146189
50
319.6472867
51
327.095818
0
ARC
8
DEFAULT_255_1_234
10
3.5044356
20
69.6951
40
1.6114559
50
317.2586784
51
319.9046139
0
LINE
8
DEFAULT_255_1_234
10
5.9151792
20
68.1404
11
5.803538
21
68.4456061
0
LINE
8
DEFAULT_255_1_234
10
5.803538
20
68.4456061
11
5.313602
21
68.4456061
0
LINE
8
DEFAULT_255_1_234
10
5.313602
20
68.4456061
11
5.2035672
21
68.1404
0
LINE
8
DEFAULT_255_1_234
10
5.2035672
20
68.1404
11
5.0445388
21
68.1404
0
LINE
8
DEFAULT_255_1_234
10
5.0445388
20
68.1404
11
5.4911034
21
69.3098211
0
LINE
8
DEFAULT_255_1_234
10
5.4911034
20
69.3098211
11
5.6260366
21
69.3098211
0
LINE
8
DEFAULT_255_1_234
10
5.6260366
20
69.3098211
11
6.0734044
21
68.1404
0
LINE
8
DEFAULT_255_1_234
10
6.0734044
20
68.1404
11
5.9151792
21
68.1404
0
LINE
8
DEFAULT_255_1_234
10
5.55857
20
69.1194689
11
5.3601861
21
68.5725075
0
LINE
8
DEFAULT_255_1_234
10
5.3601861
20
68.5725075
11
5.7577571
21
68.5725075
0
LINE
8
DEFAULT_255_1_234
10
5.7577571
20
68.5725075
11
5.55857
21
69.1194689
0
LINE
8
DEFAULT_255_1_234
10
4.5466137
20
77.2529433
11
4.5466137
21
76.0779
0
LINE
8
DEFAULT_255_1_234
10
4.5466137
20
76.0779
11
4.3972234
21
76.0779
0
LINE
8
DEFAULT_255_1_234
10
4.3972234
20
76.0779
11
4.3972234
21
77.0682133
0
LINE
8
DEFAULT_255_1_234
10
4.3972234
20
77.0682133
11
4.0976396
21
76.9581785
0
LINE
8
DEFAULT_255_1_234
10
4.0976396
20
76.9581785
11
4.0976396
21
77.0931117
0
LINE
8
DEFAULT_255_1_234
10
4.0976396
20
77.0931117
11
4.5233217
21
77.2529433
0
LINE
8
DEFAULT_255_1_234
10
4.5233217
20
77.2529433
11
4.5466137
21
77.2529433
0
LINE
8
DEFAULT_255_1_234
10
5.7329015
20
76.5156297
11
5.7329015
21
76.502779
0
LINE
8
DEFAULT_255_1_234
10
5.1409624
20
76.1782967
11
5.1337338
21
76.0779
0
LINE
8
DEFAULT_255_1_234
10
5.1337338
20
76.0779
11
4.9971942
21
76.0779
0
LINE
8
DEFAULT_255_1_234
10
4.9971942
20
76.0779
11
4.9971942
21
77.311575
0
LINE
8
DEFAULT_255_1_234
10
4.9971942
20
77.311575
11
5.1457814
21
77.311575
0
LINE
8
DEFAULT_255_1_234
10
5.1457814
20
77.311575
11
5.1457814
21
76.8513564
0
LINE
8
DEFAULT_255_1_234
10
5.1457814
20
76.7003597
11
5.1457814
21
76.3244744
0
ARC
8
DEFAULT_255_1_234
10
5.028229
20
76.4983573
40
0.7046863
50
349.4825105
51
0.3595108
0
ARC
8
DEFAULT_255_1_234
10
5.2559531
20
76.4545022
40
0.4727857
50
331.8602128
51
349.6704139
0
ARC
8
DEFAULT_255_1_234
10
5.3292299
20
76.4188125
40
0.3913503
50
322.8939783
51
331.4081204
0
ARC
8
DEFAULT_255_1_234
10
5.3987697
20
76.3608707
40
0.300965
50
296.7249167
51
323.7044215
0
ARC
8
DEFAULT_255_1_234
10
5.4017594
20
76.3678043
40
0.3058683
50
270.6342811
51
295.6405548
0
ARC
8
DEFAULT_255_1_234
10
5.3955904
20
76.4480995
40
0.3862632
50
269.9967524
51
271.4174733
0
ARC
8
DEFAULT_255_1_234
10
5.3917568
20
76.4345686
40
0.3727515
50
253.657532
51
270.5859025
0
ARC
8
DEFAULT_255_1_234
10
5.3686674
20
76.3502235
40
0.2853216
50
217.0543181
51
253.3409865
0
ARC
8
DEFAULT_255_1_234
10
5.3753342
20
76.6686052
40
0.2934152
50
93.1931545
51
141.4760602
0
ARC
8
DEFAULT_255_1_234
10
5.3935558
20
76.5453453
40
0.4176524
50
89.9442578
51
94.747309
0
ARC
8
DEFAULT_255_1_234
10
5.3979305
20
76.627641
40
0.3353801
50
70.6103515
51
90.6779749
0
ARC
8
DEFAULT_255_1_234
10
5.4093607
20
76.673189
40
0.2886533
50
36.1152635
51
69.7489296
0
ARC
8
DEFAULT_255_1_234
10
5.3107011
20
76.5978708
40
0.4127561
50
15.4648517
51
36.4891396
0
ARC
8
DEFAULT_255_1_234
10
5.1048697
20
76.5379524
40
0.6271187
50
3.9220813
51
15.7265815
0
ARC
8
DEFAULT_255_1_234
10
4.8689541
20
76.5167325
40
0.863948
50
359.9268643
51
4.2559037
0
ARC
8
DEFAULT_255_1_234
10
4.9503922
20
76.5227103
40
0.6339295
50
359.7230081
51
7.7115859
0
ARC
8
DEFAULT_255_1_234
10
5.1765487
20
76.5543172
40
0.4055784
50
7.5740023
51
19.4151451
0
ARC
8
DEFAULT_255_1_234
10
5.3033126
20
76.5989519
40
0.2711858
50
19.4238354
51
34.9161182
0
ARC
8
DEFAULT_255_1_234
10
5.3703864
20
76.6476172
40
0.1883373
50
34.4556322
51
84.4656458
0
ARC
8
DEFAULT_255_1_234
10
5.3575312
20
76.5721057
40
0.2647939
50
83.2727306
51
90.1114621
0
ARC
8
DEFAULT_255_1_234
10
5.3533169
20
76.5919509
40
0.2449763
50
89.1347934
51
111.4089923
0
ARC
8
DEFAULT_255_1_234
10
5.345372
20
76.6247473
40
0.2115923
50
112.6478598
51
148.9260864
0
ARC
8
DEFAULT_255_1_234
10
5.4231518
20
76.5705985
40
0.3062228
50
147.7597608
51
154.928557
0
ARC
8
DEFAULT_255_1_234
10
5.3971579
20
76.4461379
40
0.2792708
50
205.8264786
51
224.5301003
0
ARC
8
DEFAULT_255_1_234
10
5.3493883
20
76.4034914
40
0.2153317
50
225.354483
51
269.2437579
0
ARC
8
DEFAULT_255_1_234
10
5.3585518
20
76.4841292
40
0.2961942
50
267.6770046
51
270.0136612
0
ARC
8
DEFAULT_255_1_234
10
5.3612869
20
76.4082938
40
0.2203751
50
269.3072485
51
289.499141
0
ARC
8
DEFAULT_255_1_234
10
5.3684933
20
76.3786394
40
0.1900415
50
290.4353973
51
325.3766314
0
ARC
8
DEFAULT_255_1_234
10
5.3056156
20
76.4240643
40
0.2675986
50
325.0223901
51
342.692398
0
ARC
8
DEFAULT_255_1_234
10
5.1359044
20
76.4792812
40
0.446058
50
342.4062876
51
352.8669243
0
ARC
8
DEFAULT_255_1_234
10
4.8638519
20
76.5149975
40
0.7204419
50
352.7350668
51
359.8556985
0
ARC
8
DEFAULT_255_1_234
10
4.6728215
20
76.5196018
40
0.9114927
50
359.5965197
51
0.0027543
0
LINE
8
DEFAULT_255_1_234
10
4.6028137
20
85.1904433
11
4.6028137
21
84.0154
0
LINE
8
DEFAULT_255_1_234
10
4.6028137
20
84.0154
11
4.4534234
21
84.0154
0
LINE
8
DEFAULT_255_1_234
10
4.4534234
20
84.0154
11
4.4534234
21
85.0057133
0
LINE
8
DEFAULT_255_1_234
10
4.4534234
20
85.0057133
11
4.1538396
21
84.8956785
0
LINE
8
DEFAULT_255_1_234
10
4.1538396
20
84.8956785
11
4.1538396
21
85.0306117
0
LINE
8
DEFAULT_255_1_234
10
4.1538396
20
85.0306117
11
4.5795217
21
85.1904433
0
LINE
8
DEFAULT_255_1_234
10
4.5795217
20
85.1904433
11
4.6028137
21
85.1904433
0
LINE
8
DEFAULT_255_1_234
10
5.4822891
20
84.0154
11
5.0766863
21
84.0154
0
LINE
8
DEFAULT_255_1_234
10
5.0766863
20
84.0154
11
5.0766863
21
85.1848211
0
LINE
8
DEFAULT_255_1_234
10
5.0766863
20
85.1848211
11
5.458997
21
85.1848211
0
LINE
8
DEFAULT_255_1_234
10
5.4879113
20
84.5623614
11
5.2308957
21
84.5623614
0
LINE
8
DEFAULT_255_1_234
10
5.2308957
20
84.5623614
11
5.2308957
21
84.1414983
0
LINE
8
DEFAULT_255_1_234
10
5.2308957
20
84.1414983
11
5.4855018
21
84.1414983
0
LINE
8
DEFAULT_255_1_234
10
5.2308957
20
85.0579196
11
5.2308957
21
84.6860501
0
LINE
8
DEFAULT_255_1_234
10
5.2308957
20
84.6860501
11
5.4638161
21
84.6860501
0
LINE
8
DEFAULT_255_1_234
10
5.458997
20
85.0579196
11
5.2308957
21
85.0579196
0
ARC
8
DEFAULT_255_1_234
10
5.4627679
20
84.4480901
40
0.7367406
50
82.1257326
51
90.2932599
0
ARC
8
DEFAULT_255_1_234
10
5.5016634
20
84.7199013
40
0.4621653
50
69.9044149
51
82.2857423
0
ARC
8
DEFAULT_255_1_234
10
5.5587312
20
84.8741637
40
0.2976871
50
51.1838526
51
70.0181538
0
ARC
8
DEFAULT_255_1_234
10
5.5842278
20
84.911224
40
0.2528517
50
12.1017251
51
50.4214761
0
ARC
8
DEFAULT_255_1_234
10
5.4458152
20
84.8764676
40
0.3955061
50
359.5251267
51
12.8211707
0
ARC
8
DEFAULT_255_1_234
10
5.6038078
20
84.8695344
40
0.2375281
50
323.4908128
51
0.8817314
0
ARC
8
DEFAULT_255_1_234
10
5.5619765
20
84.901855
40
0.2903817
50
298.6825083
51
323.2756573
0
ARC
8
DEFAULT_255_1_234
10
5.5258128
20
84.9619649
40
0.3604842
50
293.1999386
51
299.1396394
0
ARC
8
DEFAULT_255_1_234
10
5.5931101
20
84.3534126
40
0.2871098
50
54.0011765
51
74.9167975
0
ARC
8
DEFAULT_255_1_234
10
5.604746
20
84.3731332
40
0.2643248
50
36.3580696
51
53.5291921
0
ARC
8
DEFAULT_255_1_234
10
5.5920702
20
84.3640998
40
0.2798884
50
4.8189881
51
36.3089977
0
ARC
8
DEFAULT_255_1_234
10
5.5141537
20
84.353127
40
0.358478
50
359.9370252
51
5.5204067
0
ARC
8
DEFAULT_255_1_234
10
5.4817059
20
84.3490667
40
0.3909429
50
344.7478609
51
0.5373281
0
ARC
8
DEFAULT_255_1_234
10
5.580803
20
84.3223544
40
0.2883093
50
311.1786488
51
344.6886812
0
ARC
8
DEFAULT_255_1_234
10
5.5516077
20
84.3586987
40
0.3348923
50
286.0418249
51
310.8441291
0
ARC
8
DEFAULT_255_1_234
10
5.5008909
20
84.5233807
40
0.5071869
50
274.1042341
51
286.4071509
0
ARC
8
DEFAULT_255_1_234
10
5.4832165
20
84.7117229
40
0.6963234
50
269.9236873
51
274.445647
0
ARC
8
DEFAULT_255_1_234
10
5.4878166
20
84.4777537
40
0.3362634
50
269.6055768
51
281.3740047
0
ARC
8
DEFAULT_255_1_234
10
5.5108804
20
84.3684353
40
0.224546
50
281.1055983
51
302.5132223
0
ARC
8
DEFAULT_255_1_234
10
5.5255703
20
84.3420823
40
0.1944357
50
303.0368945
51
311.8811219
0
ARC
8
DEFAULT_255_1_234
10
5.532711
20
84.333589
40
0.1833454
50
311.9916004
51
351.7143462
0
ARC
8
DEFAULT_255_1_234
10
5.451034
20
84.350093
40
0.2665871
50
350.7339597
51
0.2221581
0
ARC
8
DEFAULT_255_1_234
10
5.4402786
20
84.3557467
40
0.2773789
50
359.0456241
51
17.2296242
0
ARC
8
DEFAULT_255_1_234
10
5.5441903
20
84.3866163
40
0.1689915
50
17.6685481
51
78.9940892
0
ARC
8
DEFAULT_255_1_234
10
5.4925067
20
84.2011224
40
0.3612658
50
76.5635957
51
90.6980921
0
LINE
8
DEFAULT_255_1_234
10
5.4881051
20
84.5623613
11
5.4879113
21
84.5623614
0
ARC
8
DEFAULT_255_1_234
10
5.4660727
20
85.0146036
40
0.3285612
50
269.6064736
51
281.4533503
0
ARC
8
DEFAULT_255_1_234
10
5.4883547
20
84.9094688
40
0.2210975
50
281.2041486
51
302.5148063
0
ARC
8
DEFAULT_255_1_234
10
5.5020397
20
84.8848241
40
0.1929674
50
303.021671
51
309.8369575
0
ARC
8
DEFAULT_255_1_234
10
5.5203858
20
84.8642488
40
0.1654181
50
309.5228395
51
356.9509836
0
ARC
8
DEFAULT_255_1_234
10
5.4540441
20
84.8737932
40
0.2322512
50
355.4701227
51
0.0492546
0
ARC
8
DEFAULT_255_1_234
10
5.4261532
20
84.8760094
40
0.2601498
50
359.5558597
51
11.2096359
0
ARC
8
DEFAULT_255_1_234
10
5.5218822
20
84.895823
40
0.1623975
50
10.9182341
51
31.3230275
0
ARC
8
DEFAULT_255_1_234
10
5.5504555
20
84.9117214
40
0.1297302
50
31.8852677
51
52.1412565
0
ARC
8
DEFAULT_255_1_234
10
5.5230288
20
84.872975
40
0.1771663
50
52.8285564
51
71.9850297
0
ARC
8
DEFAULT_255_1_234
10
5.4854464
20
84.7623664
40
0.2939794
50
71.6863486
51
82.8455995
0
ARC
8
DEFAULT_255_1_234
10
5.4615
20
84.5814149
40
0.476506
50
82.6984714
51
90.1729175
0
ARC
8
DEFAULT_255_1_234
10
5.4592635
20
84.7037623
40
0.3541573
50
89.8708275
51
90.0431131
0
LINE
8
DEFAULT_255_1_234
10
4.6839137
20
93.1279433
11
4.6839137
21
91.9529
0
LINE
8
DEFAULT_255_1_234
10
4.6839137
20
91.9529
11
4.5345234
21
91.9529
0
LINE
8
DEFAULT_255_1_234
10
4.5345234
20
91.9529
11
4.5345234
21
92.9432133
0
LINE
8
DEFAULT_255_1_234
10
4.5345234
20
92.9432133
11
4.2349396
21
92.8331785
0
LINE
8
DEFAULT_255_1_234
10
4.2349396
20
92.8331785
11
4.2349396
21
92.9681117
0
LINE
8
DEFAULT_255_1_234
10
4.2349396
20
92.9681117
11
4.6606217
21
93.1279433
0
LINE
8
DEFAULT_255_1_234
10
4.6606217
20
93.1279433
11
4.6839137
21
93.1279433
0
LINE
8
DEFAULT_255_1_234
10
5.9151792
20
91.9529
11
5.803538
21
92.2581061
0
LINE
8
DEFAULT_255_1_234
10
5.803538
20
92.2581061
11
5.313602
21
92.2581061
0
LINE
8
DEFAULT_255_1_234
10
5.313602
20
92.2581061
11
5.2035672
21
91.9529
0
LINE
8
DEFAULT_255_1_234
10
5.2035672
20
91.9529
11
5.0445388
21
91.9529
0
LINE
8
DEFAULT_255_1_234
10
5.0445388
20
91.9529
11
5.4911034
21
93.1223211
0
LINE
8
DEFAULT_255_1_234
10
5.4911034
20
93.1223211
11
5.6260366
21
93.1223211
0
LINE
8
DEFAULT_255_1_234
10
5.6260366
20
93.1223211
11
6.0734044
21
91.9529
0
LINE
8
DEFAULT_255_1_234
10
6.0734044
20
91.9529
11
5.9151792
21
91.9529
0
LINE
8
DEFAULT_255_1_234
10
5.55857
20
92.9319689
11
5.3601861
21
92.3850075
0
LINE
8
DEFAULT_255_1_234
10
5.3601861
20
92.3850075
11
5.7577571
21
92.3850075
0
LINE
8
DEFAULT_255_1_234
10
5.7577571
20
92.3850075
11
5.55857
21
92.9319689
0
LINE
8
DEFAULT_255_1_234
10
23.1649817
20
100.5819327
11
23.1649817
21
100.3891709
0
LINE
8
DEFAULT_255_1_234
10
22.426865
20
100.3690916
11
22.426865
21
100.5674755
0
LINE
8
DEFAULT_255_1_234
10
23.0163946
20
100.3490123
11
23.0163946
21
100.5923739
0
LINE
8
DEFAULT_255_1_234
10
22.5754521
20
100.6036184
11
22.5754521
21
100.3658789
0
ARC
8
DEFAULT_255_1_234
10
21.9402707
20
100.3842805
40
1.2247208
50
353.8441951
51
0.2287902
0
ARC
8
DEFAULT_255_1_234
10
22.4042211
20
100.3324806
40
0.7578929
50
344.4934747
51
353.9765454
0
ARC
8
DEFAULT_255_1_234
10
22.7034801
20
100.2473981
40
0.4467846
50
329.2803592
51
344.7472793
0
ARC
8
DEFAULT_255_1_234
10
22.8027626
20
100.1929018
40
0.3336173
50
324.9352394
51
328.6160465
0
ARC
8
DEFAULT_255_1_234
10
22.8404734
20
100.1665427
40
0.2876076
50
280.580143
51
324.9173126
0
ARC
8
DEFAULT_255_1_234
10
22.8003527
20
100.3336099
40
0.4592847
50
269.5977311
51
281.6734359
0
ARC
8
DEFAULT_255_1_234
10
22.7931433
20
100.3216173
40
0.4472986
50
256.6228859
51
270.51044
0
ARC
8
DEFAULT_255_1_234
10
22.752941
20
100.1667877
40
0.2873874
50
215.8618325
51
257.2788573
0
ARC
8
DEFAULT_255_1_234
10
22.8550442
20
100.2352977
40
0.4102928
50
197.9693508
51
215.2623606
0
ARC
8
DEFAULT_255_1_234
10
23.1035558
20
100.3191709
40
0.6725652
50
187.8816417
51
198.2346507
0
ARC
8
DEFAULT_255_1_234
10
23.4993766
20
100.3763079
40
1.0724845
50
180.8976217
51
188.0055519
0
ARC
8
DEFAULT_255_1_234
10
23.7793954
20
100.3866777
40
1.3526448
50
180.7449369
51
181.1510016
0
ARC
8
DEFAULT_255_1_234
10
23.6216683
20
100.5723042
40
1.1948131
50
173.7675579
51
180.231553
0
ARC
8
DEFAULT_255_1_234
10
23.169883
20
100.6233666
40
0.7401564
50
164.3058563
51
173.9002247
0
ARC
8
DEFAULT_255_1_234
10
22.8786899
20
100.7072656
40
0.4371288
50
148.7922025
51
164.568378
0
ARC
8
DEFAULT_255_1_234
10
22.7835351
20
100.7603929
40
0.3282386
50
144.5883898
51
148.1176286
0
ARC
8
DEFAULT_255_1_234
10
22.7492249
20
100.7843315
40
0.2864044
50
101.6440918
51
144.514236
0
ARC
8
DEFAULT_255_1_234
10
22.7917315
20
100.6154069
40
0.4604934
50
89.5284041
51
102.5819763
0
ARC
8
DEFAULT_255_1_234
10
22.7996403
20
100.6115018
40
0.464401
50
77.0437873
51
90.5081339
0
ARC
8
DEFAULT_255_1_234
10
22.8398405
20
100.7757615
40
0.2953195
50
48.2778575
51
77.4994676
0
ARC
8
DEFAULT_255_1_234
10
22.8471036
20
100.7886746
40
0.2808655
50
36.3142134
51
47.6305865
0
ARC
8
DEFAULT_255_1_234
10
22.7602343
20
100.7301515
40
0.3855453
50
18.2931786
51
35.6769206
0
ARC
8
DEFAULT_255_1_234
10
22.5059102
20
100.6428593
40
0.654423
50
8.024666
51
18.5605216
0
ARC
8
DEFAULT_255_1_234
10
22.0896022
20
100.5813792
40
1.0752407
50
1.1274072
51
8.1718305
0
ARC
8
DEFAULT_255_1_234
10
21.7660213
20
100.5686885
40
1.3990231
50
0.5424119
51
1.3863029
0
ARC
8
DEFAULT_255_1_234
10
21.948159
20
100.5959342
40
1.0682415
50
359.8090433
51
4.9407866
0
ARC
8
DEFAULT_255_1_234
10
22.3691604
20
100.6335113
40
0.6455691
50
4.8362157
51
12.2904523
0
ARC
8
DEFAULT_255_1_234
10
22.6446719
20
100.6948965
40
0.3633074
50
12.0805627
51
23.8173984
0
ARC
8
DEFAULT_255_1_234
10
22.7620425
20
100.7445919
40
0.2358723
50
24.2871213
51
31.3935614
0
ARC
8
DEFAULT_255_1_234
10
22.8145122
20
100.7789233
40
0.1732111
50
30.7407893
51
82.4657128
0
ARC
8
DEFAULT_255_1_234
10
22.7965256
20
100.6905691
40
0.263235
50
81.1060089
51
90.2184952
0
ARC
8
DEFAULT_255_1_234
10
22.7929555
20
100.7163924
40
0.2374236
50
89.3806855
51
105.6762551
0
ARC
8
DEFAULT_255_1_234
10
22.7746186
20
100.7830567
40
0.1682847
50
105.7981136
51
149.7388061
0
ARC
8
DEFAULT_255_1_234
10
22.8810264
20
100.719095
40
0.2924306
50
149.4208916
51
163.6286378
0
ARC
8
DEFAULT_255_1_234
10
23.0901152
20
100.655325
40
0.5110213
50
163.3763315
51
172.1410975
0
ARC
8
DEFAULT_255_1_234
10
23.4201871
20
100.6080518
40
0.8444586
50
172.0259487
51
178.0703232
0
ARC
8
DEFAULT_255_1_234
10
23.723196
20
100.5936906
40
1.1477868
50
177.8631668
51
179.5044149
0
ARC
8
DEFAULT_255_1_234
10
23.6159365
20
100.3622389
40
1.0404907
50
179.7995573
51
185.2460446
0
ARC
8
DEFAULT_255_1_234
10
23.2116404
20
100.3239513
40
0.6343885
50
185.1411642
51
193.0079639
0
ARC
8
DEFAULT_255_1_234
10
22.9472877
20
100.2614641
40
0.3627568
50
192.7897626
51
205.2507664
0
ARC
8
DEFAULT_255_1_234
10
22.8426424
20
100.2147415
40
0.2481908
50
205.8005384
51
211.2537509
0
ARC
8
DEFAULT_255_1_234
10
22.7902864
20
100.179658
40
0.1852521
50
210.3789793
51
238.4008143
0
ARC
8
DEFAULT_255_1_234
10
22.7883386
20
100.1843376
40
0.1882621
50
239.6520629
51
265.9793761
0
ARC
8
DEFAULT_255_1_234
10
22.7968586
20
100.2515427
40
0.2559272
50
265.1315437
51
270.060332
0
ARC
8
DEFAULT_255_1_234
10
22.7997365
20
100.2191534
40
0.2235528
50
269.3314664
51
287.2178029
0
ARC
8
DEFAULT_255_1_234
10
22.8135217
20
100.1688279
40
0.1714108
50
287.7958004
51
329.080874
0
ARC
8
DEFAULT_255_1_234
10
22.7177674
20
100.228593
40
0.2842745
50
328.6634704
51
343.3325132
0
ARC
8
DEFAULT_255_1_234
10
22.5004694
20
100.2962863
40
0.5118644
50
343.0499468
51
351.9393422
0
ARC
8
DEFAULT_255_1_234
10
22.1537994
20
100.3473949
40
0.8622784
50
351.8069023
51
357.7959224
0
ARC
8
DEFAULT_255_1_234
10
21.830255
20
100.3641721
40
1.1862365
50
357.5871873
51
359.2677531
0
LINE
8
DEFAULT_255_1_234
10
23.4485021
20
101.0598211
11
23.7810161
21
100.0952093
0
LINE
8
DEFAULT_255_1_234
10
23.7810161
20
100.0952093
11
24.1151364
21
101.0598211
0
LINE
8
DEFAULT_255_1_234
10
24.1151364
20
101.0598211
11
24.2838029
21
101.0598211
0
LINE
8
DEFAULT_255_1_234
10
24.2838029
20
101.0598211
11
23.850089
21
99.8904
0
LINE
8
DEFAULT_255_1_234
10
23.850089
20
99.8904
11
23.7135495
21
99.8904
0
LINE
8
DEFAULT_255_1_234
10
23.7135495
20
99.8904
11
23.2806388
21
101.0598211
0
LINE
8
DEFAULT_255_1_234
10
23.2806388
20
101.0598211
11
23.4485021
21
101.0598211
0
LINE
8
DEFAULT_255_1_234
10
20.5590293
20
68.1404
11
20.4473881
21
68.4456061
0
LINE
8
DEFAULT_255_1_234
10
20.4473881
20
68.4456061
11
19.9574521
21
68.4456061
0
LINE
8
DEFAULT_255_1_234
10
19.9574521
20
68.4456061
11
19.8474173
21
68.1404
0
LINE
8
DEFAULT_255_1_234
10
19.8474173
20
68.1404
11
19.6883889
21
68.1404
0
LINE
8
DEFAULT_255_1_234
10
19.6883889
20
68.1404
11
20.1349535
21
69.3098211
0
LINE
8
DEFAULT_255_1_234
10
20.1349535
20
69.3098211
11
20.2698867
21
69.3098211
0
LINE
8
DEFAULT_255_1_234
10
20.2698867
20
69.3098211
11
20.7172545
21
68.1404
0
LINE
8
DEFAULT_255_1_234
10
20.7172545
20
68.1404
11
20.5590293
21
68.1404
0
LINE
8
DEFAULT_255_1_234
10
20.2024201
20
69.1194689
11
20.0040362
21
68.5725075
0
LINE
8
DEFAULT_255_1_234
10
20.0040362
20
68.5725075
11
20.4016072
21
68.5725075
0
LINE
8
DEFAULT_255_1_234
10
20.4016072
20
68.5725075
11
20.2024201
21
69.1194689
0
LINE
8
DEFAULT_255_1_234
10
21.0296892
20
69.3098211
11
21.0296892
21
68.2664983
0
LINE
8
DEFAULT_255_1_234
10
21.0296892
20
68.2664983
11
21.5838791
21
68.2664983
0
LINE
8
DEFAULT_255_1_234
10
21.5838791
20
68.2664983
11
21.5838791
21
68.1404
0
LINE
8
DEFAULT_255_1_234
10
21.5838791
20
68.1404
11
20.8746766
21
68.1404
0
LINE
8
DEFAULT_255_1_234
10
20.8746766
20
68.1404
11
20.8746766
21
69.3098211
0
LINE
8
DEFAULT_255_1_234
10
20.8746766
20
69.3098211
11
21.0296892
21
69.3098211
0
LINE
8
DEFAULT_255_1_234
10
21.7597742
20
69.3098211
11
21.9589613
21
69.3098211
0
LINE
8
DEFAULT_255_1_234
10
21.9589613
20
69.3098211
11
22.341272
21
68.3556506
0
LINE
8
DEFAULT_255_1_234
10
22.341272
20
68.3556506
11
22.7235828
21
69.3098211
0
LINE
8
DEFAULT_255_1_234
10
22.7235828
20
69.3098211
11
22.923573
21
69.3098211
0
LINE
8
DEFAULT_255_1_234
10
22.923573
20
69.3098211
11
22.923573
21
68.1404
0
LINE
8
DEFAULT_255_1_234
10
22.923573
20
68.1404
11
22.7693637
21
68.1404
0
LINE
8
DEFAULT_255_1_234
10
22.7693637
20
68.1404
11
22.7693637
21
68.5957996
0
LINE
8
DEFAULT_255_1_234
10
22.7693637
20
68.5957996
11
22.7838208
21
69.0873419
0
LINE
8
DEFAULT_255_1_234
10
22.7838208
20
69.0873419
11
22.3999037
21
68.1404
0
LINE
8
DEFAULT_255_1_234
10
22.3999037
20
68.1404
11
22.2818372
21
68.1404
0
LINE
8
DEFAULT_255_1_234
10
22.2818372
20
68.1404
11
21.8987232
21
69.0849324
0
LINE
8
DEFAULT_255_1_234
10
21.8987232
20
69.0849324
11
21.9139835
21
68.5957996
0
LINE
8
DEFAULT_255_1_234
10
21.9139835
20
68.5957996
11
21.9139835
21
68.1404
0
LINE
8
DEFAULT_255_1_234
10
21.9139835
20
68.1404
11
21.7597742
21
68.1404
0
LINE
8
DEFAULT_255_1_234
10
21.7597742
20
68.1404
11
21.7597742
21
69.3098211
0
LINE
8
DEFAULT_255_1_234
10
23.7845754
20
69.3098211
11
23.7845754
21
68.533152
0
LINE
8
DEFAULT_255_1_234
10
23.7845754
20
68.533152
11
23.9468165
21
68.533152
0
LINE
8
DEFAULT_255_1_234
10
23.9468165
20
68.533152
11
23.9468165
21
68.4118728
0
LINE
8
DEFAULT_255_1_234
10
23.9468165
20
68.4118728
11
23.7845754
21
68.4118728
0
LINE
8
DEFAULT_255_1_234
10
23.7845754
20
68.4118728
11
23.7845754
21
68.1404
0
LINE
8
DEFAULT_255_1_234
10
23.7845754
20
68.1404
11
23.6351851
21
68.1404
0
LINE
8
DEFAULT_255_1_234
10
23.6351851
20
68.1404
11
23.6351851
21
68.4118728
0
LINE
8
DEFAULT_255_1_234
10
23.6351851
20
68.4118728
11
23.1026808
21
68.4118728
0
LINE
8
DEFAULT_255_1_234
10
23.1026808
20
68.4118728
11
23.1026808
21
68.4994187
0
LINE
8
DEFAULT_255_1_234
10
23.1026808
20
68.4994187
11
23.6263501
21
69.3098211
0
LINE
8
DEFAULT_255_1_234
10
23.6263501
20
69.3098211
11
23.7845754
21
69.3098211
0
LINE
8
DEFAULT_255_1_234
10
23.6175152
20
69.0744912
11
23.2713473
21
68.533152
0
LINE
8
DEFAULT_255_1_234
10
23.2713473
20
68.533152
11
23.6351851
21
68.533152
0
LINE
8
DEFAULT_255_1_234
10
23.6351851
20
68.533152
11
23.6351851
21
69.1066181
0
LINE
8
DEFAULT_255_1_234
10
23.6351851
20
69.1066181
11
23.6175152
21
69.0744912
0
LINE
8
DEFAULT_255_1_234
10
20.6648293
20
76.0779
11
20.5531881
21
76.3831061
0
LINE
8
DEFAULT_255_1_234
10
20.5531881
20
76.3831061
11
20.0632521
21
76.3831061
0
LINE
8
DEFAULT_255_1_234
10
20.0632521
20
76.3831061
11
19.9532173
21
76.0779
0
LINE
8
DEFAULT_255_1_234
10
19.9532173
20
76.0779
11
19.7941889
21
76.0779
0
LINE
8
DEFAULT_255_1_234
10
19.7941889
20
76.0779
11
20.2407535
21
77.2473211
0
LINE
8
DEFAULT_255_1_234
10
20.2407535
20
77.2473211
11
20.3756867
21
77.2473211
0
LINE
8
DEFAULT_255_1_234
10
20.3756867
20
77.2473211
11
20.8230545
21
76.0779
0
LINE
8
DEFAULT_255_1_234
10
20.8230545
20
76.0779
11
20.6648293
21
76.0779
0
LINE
8
DEFAULT_255_1_234
10
20.3082201
20
77.0569689
11
20.1098362
21
76.5100075
0
LINE
8
DEFAULT_255_1_234
10
20.1098362
20
76.5100075
11
20.5074072
21
76.5100075
0
LINE
8
DEFAULT_255_1_234
10
20.5074072
20
76.5100075
11
20.3082201
21
77.0569689
0
LINE
8
DEFAULT_255_1_234
10
21.1354892
20
77.2473211
11
21.1354892
21
76.2039983
0
LINE
8
DEFAULT_255_1_234
10
21.1354892
20
76.2039983
11
21.6896791
21
76.2039983
0
LINE
8
DEFAULT_255_1_234
10
21.6896791
20
76.2039983
11
21.6896791
21
76.0779
0
LINE
8
DEFAULT_255_1_234
10
21.6896791
20
76.0779
11
20.9804766
21
76.0779
0
LINE
8
DEFAULT_255_1_234
10
20.9804766
20
76.0779
11
20.9804766
21
77.2473211
0
LINE
8
DEFAULT_255_1_234
10
20.9804766
20
77.2473211
11
21.1354892
21
77.2473211
0
LINE
8
DEFAULT_255_1_234
10
21.8655742
20
77.2473211
11
22.0647613
21
77.2473211
0
LINE
8
DEFAULT_255_1_234
10
22.0647613
20
77.2473211
11
22.447072
21
76.2931506
0
LINE
8
DEFAULT_255_1_234
10
22.447072
20
76.2931506
11
22.8293828
21
77.2473211
0
LINE
8
DEFAULT_255_1_234
10
22.8293828
20
77.2473211
11
23.029373
21
77.2473211
0
LINE
8
DEFAULT_255_1_234
10
23.029373
20
77.2473211
11
23.029373
21
76.0779
0
LINE
8
DEFAULT_255_1_234
10
23.029373
20
76.0779
11
22.8751637
21
76.0779
0
LINE
8
DEFAULT_255_1_234
10
22.8751637
20
76.0779
11
22.8751637
21
76.5332996
0
LINE
8
DEFAULT_255_1_234
10
22.8751637
20
76.5332996
11
22.8896208
21
77.0248419
0
LINE
8
DEFAULT_255_1_234
10
22.8896208
20
77.0248419
11
22.5057037
21
76.0779
0
LINE
8
DEFAULT_255_1_234
10
22.5057037
20
76.0779
11
22.3876372
21
76.0779
0
LINE
8
DEFAULT_255_1_234
10
22.3876372
20
76.0779
11
22.0045232
21
77.0224324
0
LINE
8
DEFAULT_255_1_234
10
22.0045232
20
77.0224324
11
22.0197835
21
76.5332996
0
LINE
8
DEFAULT_255_1_234
10
22.0197835
20
76.5332996
11
22.0197835
21
76.0779
0
LINE
8
DEFAULT_255_1_234
10
22.0197835
20
76.0779
11
21.8655742
21
76.0779
0
LINE
8
DEFAULT_255_1_234
10
21.8655742
20
76.0779
11
21.8655742
21
77.2473211
0
LINE
8
DEFAULT_255_1_234
10
23.4791504
20
76.6136169
11
23.4791504
21
76.7348962
0
LINE
8
DEFAULT_255_1_234
10
23.4791504
20
76.7348962
11
23.5907916
21
76.7348962
0
LINE
8
DEFAULT_255_1_234
10
23.4004394
20
76.9405087
11
23.2518522
21
76.9405087
0
LINE
8
DEFAULT_255_1_234
10
23.2414109
20
76.3863188
11
23.3908013
21
76.3863188
0
LINE
8
DEFAULT_255_1_234
10
23.5907916
20
76.6136169
11
23.4791504
21
76.6136169
0
ARC
8
DEFAULT_255_1_234
10
23.5878782
20
77.0741713
40
0.3392876
50
270.4919872
51
281.8951556
0
ARC
8
DEFAULT_255_1_234
10
23.6120044
20
76.9639702
40
0.2264817
50
281.6691735
51
301.2943132
0
ARC
8
DEFAULT_255_1_234
10
23.6290254
20
76.9328304
40
0.1910381
50
301.7833094
51
311.7545298
0
ARC
8
DEFAULT_255_1_234
10
23.638183
20
76.9226748
40
0.1773635
50
311.7323931
51
354.2802411
0
ARC
8
DEFAULT_255_1_234
10
23.5655455
20
76.9351722
40
0.2509385
50
353.0937916
51
0.1181479
0
ARC
8
DEFAULT_255_1_234
10
23.519424
20
76.9399386
40
0.2970898
50
359.1805295
51
15.0453146
0
ARC
8
DEFAULT_255_1_234
10
23.6540077
20
76.9791992
40
0.1569564
50
13.9577229
51
77.6713066
0
ARC
8
DEFAULT_255_1_234
10
23.6153606
20
76.8406949
40
0.3006298
50
76.1116566
51
90.7026153
0
ARC
8
DEFAULT_255_1_234
10
23.6094444
20
76.8680545
40
0.2732568
50
89.5324876
51
103.531937
0
ARC
8
DEFAULT_255_1_234
10
23.5893888
20
76.9479884
40
0.1908508
50
103.2931773
51
133.5619022
0
ARC
8
DEFAULT_255_1_234
10
23.5849377
20
76.9539375
40
0.1834746
50
133.8349307
51
173.5344437
0
ARC
8
DEFAULT_255_1_234
10
23.657242
20
76.9411213
40
0.2568033
50
172.5096846
51
180.1366907
0
ARC
8
DEFAULT_255_1_234
10
23.5621314
20
76.9445622
40
0.3103056
50
155.3484492
51
180.7484736
0
ARC
8
DEFAULT_255_1_234
10
23.5572403
20
76.9416846
40
0.3070957
50
131.5744599
51
154.4798489
0
ARC
8
DEFAULT_255_1_234
10
23.588555
20
76.910031
40
0.3515643
50
96.9875458
51
131.9690667
0
ARC
8
DEFAULT_255_1_234
10
23.610503
20
76.7854636
40
0.4779224
50
89.8596053
51
97.7825159
0
ARC
8
DEFAULT_255_1_234
10
23.6153093
20
76.7592616
40
0.5041361
50
78.3655447
51
90.4131539
0
ARC
8
DEFAULT_255_1_234
10
23.6511011
20
76.9251887
40
0.3344039
50
56.6229102
51
78.638727
0
ARC
8
DEFAULT_255_1_234
10
23.6725955
20
76.9627805
40
0.2912001
50
47.0253525
51
56.0854072
0
ARC
8
DEFAULT_255_1_234
10
23.6745735
20
76.9667223
40
0.2869704
50
10.9208013
51
46.7778124
0
ARC
8
DEFAULT_255_1_234
10
23.5381801
20
76.9351857
40
0.426899
50
359.6364486
51
11.6087304
0
ARC
8
DEFAULT_255_1_234
10
23.7216645
20
76.9336752
40
0.243409
50
332.3549906
51
359.7179418
0
ARC
8
DEFAULT_255_1_234
10
23.6566247
20
76.9645142
40
0.3153459
50
325.2333722
51
332.8745602
0
ARC
8
DEFAULT_255_1_234
10
23.671887
20
76.9538828
40
0.2967456
50
292.9802137
51
325.2392345
0
ARC
8
DEFAULT_255_1_234
10
23.6444244
20
77.0072863
40
0.3566604
50
292.5402179
51
293.6924929
0
ARC
8
DEFAULT_255_1_234
10
23.683684
20
76.3618091
40
0.3307468
50
57.6435486
51
72.8625112
0
ARC
8
DEFAULT_255_1_234
10
23.719134
20
76.4192549
40
0.2632492
50
36.7248896
51
57.4697979
0
ARC
8
DEFAULT_255_1_234
10
23.7179973
20
76.420522
40
0.2634081
50
8.0545065
51
36.356114
0
ARC
8
DEFAULT_255_1_234
10
23.6317158
20
76.4050174
40
0.3510261
50
359.8320645
51
8.5869982
0
ARC
8
DEFAULT_255_1_234
10
23.5941934
20
76.4002101
40
0.3885653
50
343.9829931
51
0.5571613
0
ARC
8
DEFAULT_255_1_234
10
23.6828131
20
76.3759438
40
0.2966924
50
311.6359546
51
343.7651759
0
ARC
8
DEFAULT_255_1_234
10
23.64497
20
76.4186102
40
0.3537231
50
279.7829875
51
311.6255694
0
ARC
8
DEFAULT_255_1_234
10
23.6148476
20
76.562328
40
0.5004971
50
269.7286406
51
280.3856417
0
ARC
8
DEFAULT_255_1_234
10
23.6086549
20
76.5581996
40
0.4963778
50
256.6828919
51
270.4412052
0
ARC
8
DEFAULT_255_1_234
10
23.5747845
20
76.4197394
40
0.3538406
50
229.4223008
51
256.8556159
0
ARC
8
DEFAULT_255_1_234
10
23.5333238
20
76.3730736
40
0.2914296
50
181.818294
51
229.6455059
0
ARC
8
DEFAULT_255_1_234
10
23.6373194
20
76.3861496
40
0.3959084
50
179.9755256
51
183.2323064
0
ARC
8
DEFAULT_255_1_234
10
23.620094
20
76.3841037
40
0.2293034
50
179.4465117
51
196.2869258
0
ARC
8
DEFAULT_255_1_234
10
23.5713348
20
76.3707651
40
0.1787621
50
196.5661473
51
227.705904
0
ARC
8
DEFAULT_255_1_234
10
23.5877443
20
76.3891155
40
0.2033784
50
227.7652068
51
257.8762805
0
ARC
8
DEFAULT_255_1_234
10
23.6102413
20
76.4834156
40
0.3003081
50
257.4584385
51
270.426602
0
ARC
8
DEFAULT_255_1_234
10
23.6147979
20
76.5123996
40
0.329292
50
269.5962073
51
280.8789248
0
ARC
8
DEFAULT_255_1_234
10
23.6377508
20
76.3977685
40
0.2123908
50
280.6346389
51
299.8595945
0
ARC
8
DEFAULT_255_1_234
10
23.6568415
20
76.3615212
40
0.171457
50
300.3576302
51
314.5517981
0
ARC
8
DEFAULT_255_1_234
10
23.6485475
20
76.3675919
40
0.1816095
50
315.0728369
51
345.0431014
0
ARC
8
DEFAULT_255_1_234
10
23.5562289
20
76.3944841
40
0.2777492
50
344.5986631
51
357.9269593
0
ARC
8
DEFAULT_255_1_234
10
23.4666615
20
76.4006276
40
0.3674917
50
357.4748886
51
0.0231117
0
ARC
8
DEFAULT_255_1_234
10
23.5689725
20
76.4030679
40
0.2651907
50
359.5047933
51
13.4239635
0
ARC
8
DEFAULT_255_1_234
10
23.6556368
20
76.4252478
40
0.1757509
50
12.9498199
51
48.7551375
0
ARC
8
DEFAULT_255_1_234
10
23.6374102
20
76.40034
40
0.2065134
50
49.5088623
51
72.1836453
0
ARC
8
DEFAULT_255_1_234
10
23.6016255
20
76.2941291
40
0.3185836
50
71.9010081
51
84.3554254
0
ARC
8
DEFAULT_255_1_234
10
23.5854887
20
76.1580326
40
0.4556151
50
84.0193428
51
89.333121
0
LINE
8
DEFAULT_255_1_234
10
20.6648293
20
84.0154
11
20.5531881
21
84.3206061
0
LINE
8
DEFAULT_255_1_234
10
20.5531881
20
84.3206061
11
20.0632521
21
84.3206061
0
LINE
8
DEFAULT_255_1_234
10
20.0632521
20
84.3206061
11
19.9532173
21
84.0154
0
LINE
8
DEFAULT_255_1_234
10
19.9532173
20
84.0154
11
19.7941889
21
84.0154
0
LINE
8
DEFAULT_255_1_234
10
19.7941889
20
84.0154
11
20.2407535
21
85.1848211
0
LINE
8
DEFAULT_255_1_234
10
20.2407535
20
85.1848211
11
20.3756867
21
85.1848211
0
LINE
8
DEFAULT_255_1_234
10
20.3756867
20
85.1848211
11
20.8230545
21
84.0154
0
LINE
8
DEFAULT_255_1_234
10
20.8230545
20
84.0154
11
20.6648293
21
84.0154
0
LINE
8
DEFAULT_255_1_234
10
20.3082201
20
84.9944689
11
20.1098362
21
84.4475075
0
LINE
8
DEFAULT_255_1_234
10
20.1098362
20
84.4475075
11
20.5074072
21
84.4475075
0
LINE
8
DEFAULT_255_1_234
10
20.5074072
20
84.4475075
11
20.3082201
21
84.9944689
0
LINE
8
DEFAULT_255_1_234
10
21.1354892
20
85.1848211
11
21.1354892
21
84.1414983
0
LINE
8
DEFAULT_255_1_234
10
21.1354892
20
84.1414983
11
21.6896791
21
84.1414983
0
LINE
8
DEFAULT_255_1_234
10
21.6896791
20
84.1414983
11
21.6896791
21
84.0154
0
LINE
8
DEFAULT_255_1_234
10
21.6896791
20
84.0154
11
20.9804766
21
84.0154
0
LINE
8
DEFAULT_255_1_234
10
20.9804766
20
84.0154
11
20.9804766
21
85.1848211
0
LINE
8
DEFAULT_255_1_234
10
20.9804766
20
85.1848211
11
21.1354892
21
85.1848211
0
LINE
8
DEFAULT_255_1_234
10
21.8655742
20
85.1848211
11
22.0647613
21
85.1848211
0
LINE
8
DEFAULT_255_1_234
10
22.0647613
20
85.1848211
11
22.447072
21
84.2306506
0
LINE
8
DEFAULT_255_1_234
10
22.447072
20
84.2306506
11
22.8293828
21
85.1848211
0
LINE
8
DEFAULT_255_1_234
10
22.8293828
20
85.1848211
11
23.029373
21
85.1848211
0
LINE
8
DEFAULT_255_1_234
10
23.029373
20
85.1848211
11
23.029373
21
84.0154
0
LINE
8
DEFAULT_255_1_234
10
23.029373
20
84.0154
11
22.8751637
21
84.0154
0
LINE
8
DEFAULT_255_1_234
10
22.8751637
20
84.0154
11
22.8751637
21
84.4707996
0
LINE
8
DEFAULT_255_1_234
10
22.8751637
20
84.4707996
11
22.8896208
21
84.9623419
0
LINE
8
DEFAULT_255_1_234
10
22.8896208
20
84.9623419
11
22.5057037
21
84.0154
0
LINE
8
DEFAULT_255_1_234
10
22.5057037
20
84.0154
11
22.3876372
21
84.0154
0
LINE
8
DEFAULT_255_1_234
10
22.3876372
20
84.0154
11
22.0045232
21
84.9599324
0
LINE
8
DEFAULT_255_1_234
10
22.0045232
20
84.9599324
11
22.0197835
21
84.4707996
0
LINE
8
DEFAULT_255_1_234
10
22.0197835
20
84.4707996
11
22.0197835
21
84.0154
0
LINE
8
DEFAULT_255_1_234
10
22.0197835
20
84.0154
11
21.8655742
21
84.0154
0
LINE
8
DEFAULT_255_1_234
10
21.8655742
20
84.0154
11
21.8655742
21
85.1848211
0
LINE
8
DEFAULT_255_1_234
10
24.0293245
20
84.1366792
11
24.0293245
21
84.0154
0
LINE
8
DEFAULT_255_1_234
10
24.0293245
20
84.0154
11
23.2630966
21
84.0154
0
LINE
8
DEFAULT_255_1_234
10
23.2630966
20
84.0154
11
23.2630966
21
84.1222221
0
LINE
8
DEFAULT_255_1_234
10
23.2630966
20
84.1222221
11
23.6678962
21
84.5719995
0
LINE
8
DEFAULT_255_1_234
10
23.3891949
20
84.8402595
11
23.2406078
21
84.8402595
0
LINE
8
DEFAULT_255_1_234
10
23.7554422
20
84.4764218
11
23.4422044
21
84.1366792
0
LINE
8
DEFAULT_255_1_234
10
23.4422044
20
84.1366792
11
24.0293245
21
84.1366792
0
ARC
8
DEFAULT_255_1_234
10
22.3188796
20
85.7649527
40
1.8008286
50
318.5132453
51
320.7828378
0
ARC
8
DEFAULT_255_1_234
10
22.847577
20
85.3346426
40
1.1191493
50
320.7372736
51
323.9737074
0
ARC
8
DEFAULT_255_1_234
10
23.2395626
20
85.0506361
40
0.6350923
50
323.8961724
51
328.6421089
0
ARC
8
DEFAULT_255_1_234
10
23.4442222
20
84.9244031
40
0.3946393
50
328.8299013
51
331.789948
0
ARC
8
DEFAULT_255_1_234
10
23.54394
20
84.8729509
40
0.2824501
50
331.4255242
51
352.9364833
0
ARC
8
DEFAULT_255_1_234
10
23.5575901
20
84.8698976
40
0.2685315
50
353.2248685
51
0.0169286
0
ARC
8
DEFAULT_255_1_234
10
23.5785778
20
84.872195
40
0.2475536
50
359.4866256
51
15.9339782
0
ARC
8
DEFAULT_255_1_234
10
23.6292763
20
84.8858286
40
0.1950618
50
16.1714718
51
43.5284424
0
ARC
8
DEFAULT_255_1_234
10
23.6370072
20
84.8935573
40
0.184134
50
43.4415429
51
83.1661404
0
ARC
8
DEFAULT_255_1_234
10
23.623599
20
84.8198771
40
0.258926
50
82.160215
51
90.1505798
0
ARC
8
DEFAULT_255_1_234
10
23.6204417
20
84.7661865
40
0.3126255
50
89.5460705
51
102.5418777
0
ARC
8
DEFAULT_255_1_234
10
23.5961503
20
84.8692665
40
0.2067346
50
102.1739365
51
129.2061916
0
ARC
8
DEFAULT_255_1_234
10
23.5882575
20
84.8817094
40
0.1921118
50
129.7279328
51
135.7542026
0
ARC
8
DEFAULT_255_1_234
10
23.6004103
20
84.8720045
40
0.2075944
50
136.175737
51
166.3674722
0
ARC
8
DEFAULT_255_1_234
10
23.7011022
20
84.8450182
40
0.3118201
50
165.9092917
51
178.8683903
0
ARC
8
DEFAULT_255_1_234
10
23.7875883
20
84.8403179
40
0.3983935
50
178.438168
51
180.0083905
0
ARC
8
DEFAULT_255_1_234
10
23.6474485
20
84.8442231
40
0.4068601
50
163.2878735
51
180.5581814
0
ARC
8
DEFAULT_255_1_234
10
23.5672747
20
84.866284
40
0.3237344
50
133.454115
51
162.9470031
0
ARC
8
DEFAULT_255_1_234
10
23.5851288
20
84.8473
40
0.349795
50
100.7869394
51
133.4384016
0
ARC
8
DEFAULT_255_1_234
10
23.619906
20
84.6924319
40
0.5084616
50
89.6605301
51
101.3704185
0
ARC
8
DEFAULT_255_1_234
10
23.6265398
20
84.6985496
40
0.502348
50
78.2171172
51
90.4130393
0
ARC
8
DEFAULT_255_1_234
10
23.6620477
20
84.8609637
40
0.3361092
50
55.9268222
51
78.4888551
0
ARC
8
DEFAULT_255_1_234
10
23.6816917
20
84.8948324
40
0.2970617
50
47.9292255
51
55.4054003
0
ARC
8
DEFAULT_255_1_234
10
23.6918478
20
84.9051502
40
0.2825983
50
4.3347696
51
48.0560701
0
ARC
8
DEFAULT_255_1_234
10
23.5822871
20
84.8881601
40
0.393225
50
359.925209
51
5.5967654
0
ARC
8
DEFAULT_255_1_234
10
23.6251763
20
84.8937816
40
0.3503892
50
337.8914096
51
358.9967724
0
ARC
8
DEFAULT_255_1_234
10
23.3538175
20
84.9984706
40
0.6412172
50
326.9135351
51
338.3505194
0
ARC
8
DEFAULT_255_1_234
10
22.9552479
20
85.2539284
40
1.1146189
50
319.6472867
51
327.095818
0
ARC
8
DEFAULT_255_1_234
10
22.5719482
20
85.5701
40
1.6114559
50
317.2586784
51
319.9046139
0
LINE
8
DEFAULT_255_1_234
10
20.6739293
20
91.9529
11
20.5622881
21
92.2581061
0
LINE
8
DEFAULT_255_1_234
10
20.5622881
20
92.2581061
11
20.0723521
21
92.2581061
0
LINE
8
DEFAULT_255_1_234
10
20.0723521
20
92.2581061
11
19.9623173
21
91.9529
0
LINE
8
DEFAULT_255_1_234
10
19.9623173
20
91.9529
11
19.8032889
21
91.9529
0
LINE
8
DEFAULT_255_1_234
10
19.8032889
20
91.9529
11
20.2498535
21
93.1223211
0
LINE
8
DEFAULT_255_1_234
10
20.2498535
20
93.1223211
11
20.3847867
21
93.1223211
0
LINE
8
DEFAULT_255_1_234
10
20.3847867
20
93.1223211
11
20.8321545
21
91.9529
0
LINE
8
DEFAULT_255_1_234
10
20.8321545
20
91.9529
11
20.6739293
21
91.9529
0
LINE
8
DEFAULT_255_1_234
10
20.3173201
20
92.9319689
11
20.1189362
21
92.3850075
0
LINE
8
DEFAULT_255_1_234
10
20.1189362
20
92.3850075
11
20.5165072
21
92.3850075
0
LINE
8
DEFAULT_255_1_234
10
20.5165072
20
92.3850075
11
20.3173201
21
92.9319689
0
LINE
8
DEFAULT_255_1_234
10
21.1445892
20
93.1223211
11
21.1445892
21
92.0789983
0
LINE
8
DEFAULT_255_1_234
10
21.1445892
20
92.0789983
11
21.6987791
21
92.0789983
0
LINE
8
DEFAULT_255_1_234
10
21.6987791
20
92.0789983
11
21.6987791
21
91.9529
0
LINE
8
DEFAULT_255_1_234
10
21.6987791
20
91.9529
11
20.9895766
21
91.9529
0
LINE
8
DEFAULT_255_1_234
10
20.9895766
20
91.9529
11
20.9895766
21
93.1223211
0
LINE
8
DEFAULT_255_1_234
10
20.9895766
20
93.1223211
11
21.1445892
21
93.1223211
0
LINE
8
DEFAULT_255_1_234
10
21.8746742
20
93.1223211
11
22.0738613
21
93.1223211
0
LINE
8
DEFAULT_255_1_234
10
22.0738613
20
93.1223211
11
22.456172
21
92.1681506
0
LINE
8
DEFAULT_255_1_234
10
22.456172
20
92.1681506
11
22.8384828
21
93.1223211
0
LINE
8
DEFAULT_255_1_234
10
22.8384828
20
93.1223211
11
23.038473
21
93.1223211
0
LINE
8
DEFAULT_255_1_234
10
23.038473
20
93.1223211
11
23.038473
21
91.9529
0
LINE
8
DEFAULT_255_1_234
10
23.038473
20
91.9529
11
22.8842637
21
91.9529
0
LINE
8
DEFAULT_255_1_234
10
22.8842637
20
91.9529
11
22.8842637
21
92.4082996
0
LINE
8
DEFAULT_255_1_234
10
22.8842637
20
92.4082996
11
22.8987208
21
92.8998419
0
LINE
8
DEFAULT_255_1_234
10
22.8987208
20
92.8998419
11
22.5148037
21
91.9529
0
LINE
8
DEFAULT_255_1_234
10
22.5148037
20
91.9529
11
22.3967372
21
91.9529
0
LINE
8
DEFAULT_255_1_234
10
22.3967372
20
91.9529
11
22.0136232
21
92.8974324
0
LINE
8
DEFAULT_255_1_234
10
22.0136232
20
92.8974324
11
22.0288835
21
92.4082996
0
LINE
8
DEFAULT_255_1_234
10
22.0288835
20
92.4082996
11
22.0288835
21
91.9529
0
LINE
8
DEFAULT_255_1_234
10
22.0288835
20
91.9529
11
21.8746742
21
91.9529
0
LINE
8
DEFAULT_255_1_234
10
21.8746742
20
91.9529
11
21.8746742
21
93.1223211
0
LINE
8
DEFAULT_255_1_234
10
23.7605263
20
93.1279433
11
23.7605263
21
91.9529
0
LINE
8
DEFAULT_255_1_234
10
23.7605263
20
91.9529
11
23.611136
21
91.9529
0
LINE
8
DEFAULT_255_1_234
10
23.611136
20
91.9529
11
23.611136
21
92.9432133
0
LINE
8
DEFAULT_255_1_234
10
23.611136
20
92.9432133
11
23.3115521
21
92.8331785
0
LINE
8
DEFAULT_255_1_234
10
23.3115521
20
92.8331785
11
23.3115521
21
92.9681117
0
LINE
8
DEFAULT_255_1_234
10
23.3115521
20
92.9681117
11
23.7372343
21
93.1279433
0
LINE
8
DEFAULT_255_1_234
10
23.7372343
20
93.1279433
11
23.7605263
21
93.1279433
0
ENDSEC
0
EOF