0
SECTION
2
HEADER
9
$MEASUREMENT
70
1
0
ENDSEC
0
SECTION
2
TABLES
0
TABLE
2
LTYPE
0
LTYPE
72
65
70
64
2
CONTINUOUS
3
______
73
0
40
0
0
ENDTAB
0
TABLE
2
LAYER
0
LAYER
2
DEFAULT_255_2_778
70
0
62
255
6
CONTINUOUS
0
LAYER
2
DEFAULT_255_2_778_1
70
0
62
255
6
CONTINUOUS
0
LAYER
2
DEFAULT_255_1_234
70
0
62
255
6
CONTINUOUS
0
ENDTAB
0
ENDSEC
0
SECTION
2
ENTITIES
0
ARC
8
DEFAULT_255_2_778
10
3.5700693
20
202.8052013
40
0.7914215
50
129.1312896
51
180.1450914
0
ARC
8
DEFAULT_255_2_778
10
3.5703345
20
202.8056884
40
0.7912112
50
89.854026
51
129.1684493
0
ARC
8
DEFAULT_255_2_778
10
25.7993937
20
202.8053749
40
0.7915249
50
39.4792447
51
90.147911
0
ARC
8
DEFAULT_255_2_778
10
25.7999935
20
202.8052216
40
0.7911595
50
359.8533901
51
39.5154338
0
ARC
8
DEFAULT_255_2_778
10
25.7996693
20
-1.986351
40
0.7914836
50
309.4761667
51
0.1482649
0
ARC
8
DEFAULT_255_2_778
10
25.799398
20
-1.9867821
40
0.7913235
50
269.8517415
51
309.511178
0
ARC
8
DEFAULT_255_2_778
10
3.570342
20
-1.9867239
40
0.7913815
50
219.1282118
51
270.1454017
0
ARC
8
DEFAULT_255_2_778
10
3.5700247
20
-1.9863414
40
0.7913769
50
179.8524075
51
219.1641908
0
LINE
8
DEFAULT_255_2_778
10
3.5723503
20
203.5968971
11
25.7973503
21
203.5968971
0
LINE
8
DEFAULT_255_2_778
10
26.5911503
20
202.8031971
11
26.5911503
21
-1.9843029
0
LINE
8
DEFAULT_255_2_778
10
25.7973503
20
-2.7781029
11
3.5723503
21
-2.7781029
0
LINE
8
DEFAULT_255_2_778
10
2.7786503
20
-1.9843029
11
2.7786503
21
202.8031971
0
ARC
8
DEFAULT_255_2_778
10
15.2718323
20
201.361689
40
0.3782009
50
0.4397807
51
91.3045231
0
ARC
8
DEFAULT_255_2_778
10
15.2696879
20
201.3594064
40
0.3803695
50
269.0259909
51
0.7811192
0
ARC
8
DEFAULT_255_2_778
10
15.4288293
20
201.3469643
40
0.7639615
50
290.7362057
51
357.8000295
0
ARC
8
DEFAULT_255_2_778
10
15.3436031
20
201.3645235
40
0.8499188
50
356.8376875
51
0.0046095
0
ARC
8
DEFAULT_255_2_778
10
15.3422443
20
201.3645748
40
0.8512778
50
0.0011515
51
85.3589632
0
ARC
8
DEFAULT_255_2_778
10
15.3422371
20
201.3455092
40
0.8702827
50
85.4600549
51
90.0075769
0
ARC
8
DEFAULT_255_2_778
10
20.173385
20
201.3552426
40
0.3845507
50
1.3931151
51
90.158378
0
ARC
8
DEFAULT_255_2_778
10
20.2329096
20
201.3488635
40
0.8684198
50
359.7643557
51
42.1181505
0
ARC
8
DEFAULT_255_2_778
10
20.2353156
20
201.3492931
40
0.866348
50
42.2037872
51
87.9292218
0
ARC
8
DEFAULT_255_2_778
10
20.2305626
20
201.3080097
40
0.9077821
50
87.7235759
51
90.0025578
0
ARC
8
DEFAULT_255_2_778
10
12.9264947
20
201.3621344
40
0.3777354
50
0.3727528
51
91.1638813
0
ARC
8
DEFAULT_255_2_778
10
12.9805692
20
201.3488595
40
0.8684602
50
359.7646302
51
42.1161032
0
ARC
8
DEFAULT_255_2_778
10
12.9830774
20
201.3494127
40
0.8662296
50
42.2002176
51
87.9268901
0
ARC
8
DEFAULT_255_2_778
10
12.9783626
20
201.3083749
40
0.9074169
50
87.7231194
51
90.002558
0
ARC
8
DEFAULT_255_2_778
10
17.559042
20
200.9570858
40
1.2841942
50
233.3100129
51
270.0348017
0
ARC
8
DEFAULT_255_2_778
10
17.5711133
20
200.9774622
40
1.3077482
50
187.7860459
51
233.4193197
0
ARC
8
DEFAULT_255_2_778
10
17.5893588
20
200.9790185
40
1.3260368
50
179.9838663
51
187.7458681
0
ARC
8
DEFAULT_255_2_778
10
17.5478523
20
200.9796375
40
1.2845303
50
143.7084173
51
180.0109545
0
ARC
8
DEFAULT_255_2_778
10
17.5629238
20
200.9745899
40
1.2996747
50
94.9692901
51
143.9223324
0
ARC
8
DEFAULT_255_2_778
10
17.5597032
20
200.9752347
40
1.2987573
50
89.9947559
51
94.8302073
0
ARC
8
DEFAULT_255_2_778
10
17.5619339
20
200.9694304
40
1.3045632
50
58.1407344
51
90.0927508
0
ARC
8
DEFAULT_255_2_778
10
17.5700831
20
200.9750662
40
1.2954809
50
3.5056409
51
58.315291
0
ARC
8
DEFAULT_255_2_778
10
17.5711163
20
200.9791563
40
1.2942058
50
359.9971467
51
3.3277024
0
ARC
8
DEFAULT_255_2_778
10
17.3826088
20
200.9770483
40
1.4827147
50
0.006083
51
0.0789681
0
ARC
8
DEFAULT_255_2_778
10
17.5604187
20
200.9772022
40
1.3049047
50
315.0308293
51
0.0001529
0
ARC
8
DEFAULT_255_2_778
10
17.5609377
20
200.9769521
40
1.3043608
50
270.000667
51
315.0224921
0
LINE
8
DEFAULT_255_2_778
10
17.5609529
20
199.6725914
11
17.5598221
21
199.6725919
0
ARC
8
DEFAULT_255_2_778
10
17.5640812
20
200.9754112
40
0.7580313
50
269.6780691
51
315.5292436
0
ARC
8
DEFAULT_255_2_778
10
17.5610107
20
200.9746878
40
0.7597205
50
315.7303962
51
0.2857903
0
ARC
8
DEFAULT_255_2_778
10
17.8487376
20
200.9789382
40
0.4719845
50
359.944048
51
0.0186519
0
ARC
8
DEFAULT_255_2_778
10
17.5687772
20
200.9779605
40
0.7519457
50
0.086204
51
85.4319233
0
ARC
8
DEFAULT_255_2_778
10
17.5599609
20
200.9355338
40
0.7949581
50
85.0420495
51
90.0100075
0
ARC
8
DEFAULT_255_2_778
10
17.5579396
20
200.9922519
40
0.7382424
50
89.8538973
51
89.9999976
0
ARC
8
DEFAULT_255_2_778
10
17.558077
20
200.9793044
40
0.7511899
50
90.01048
51
134.9443097
0
ARC
8
DEFAULT_255_2_778
10
17.5582947
20
200.9791222
40
0.7514726
50
134.9462486
51
180.0023145
0
ARC
8
DEFAULT_255_2_778
10
17.5708624
20
200.9751875
40
0.7640503
50
179.7072119
51
222.5790813
0
ARC
8
DEFAULT_255_2_778
10
17.5579296
20
200.9641475
40
0.7470579
50
222.6267201
51
270.1451401
0
ARC
8
DEFAULT_255_2_778
10
9.564442
20
200.9570858
40
1.2841942
50
233.3100129
51
270.0348017
0
ARC
8
DEFAULT_255_2_778
10
9.5765133
20
200.9774622
40
1.3077482
50
187.7860459
51
233.4193197
0
ARC
8
DEFAULT_255_2_778
10
9.5947588
20
200.9790185
40
1.3260368
50
179.9838663
51
187.7458681
0
ARC
8
DEFAULT_255_2_778
10
9.5535129
20
200.9794961
40
1.2847909
50
143.1940819
51
180.0046489
0
ARC
8
DEFAULT_255_2_778
10
9.5683078
20
200.9748006
40
1.2994598
50
94.9233187
51
143.4191345
0
ARC
8
DEFAULT_255_2_778
10
9.5651008
20
200.975512
40
1.2984798
50
89.9946509
51
94.7850278
0
ARC
8
DEFAULT_255_2_778
10
9.5673902
20
200.9693441
40
1.3046496
50
58.1428905
51
90.0952196
0
ARC
8
DEFAULT_255_2_778
10
9.5758177
20
200.9754453
40
1.2950254
50
3.2656058
51
58.3171105
0
ARC
8
DEFAULT_255_2_778
10
9.5763693
20
200.9794485
40
1.2942527
50
359.997494
51
3.0900664
0
ARC
8
DEFAULT_255_2_778
10
9.5936718
20
200.9772448
40
1.276952
50
359.9949307
51
0.0963391
0
ARC
8
DEFAULT_255_2_778
10
9.5663093
20
200.9772585
40
1.3043147
50
315.0200668
51
359.994431
0
ARC
8
DEFAULT_255_2_778
10
9.5663338
20
200.97702
40
1.3041287
50
270.0008363
51
315.026719
0
LINE
8
DEFAULT_255_2_778
10
9.5663529
20
199.6728914
11
9.5652221
21
199.6728919
0
ARC
8
DEFAULT_255_2_778
10
9.5694412
20
200.9754135
40
0.7580334
50
269.6810953
51
315.6152252
0
ARC
8
DEFAULT_255_2_778
10
9.5663839
20
200.9747381
40
0.7597504
50
315.8129036
51
0.3254485
0
ARC
8
DEFAULT_255_2_778
10
9.5738176
20
200.9776565
40
0.7523058
50
0.1093155
51
85.7820321
0
ARC
8
DEFAULT_255_2_778
10
9.5653381
20
200.9361263
40
0.7943655
50
85.3923987
51
90.0083732
0
ARC
8
DEFAULT_255_2_778
10
9.5633385
20
200.9913348
40
0.7391595
50
89.8539942
51
89.9999859
0
ARC
8
DEFAULT_255_2_778
10
9.563405
20
200.9794783
40
0.7510159
50
90.0050654
51
134.9497993
0
ARC
8
DEFAULT_255_2_778
10
9.5632746
20
200.9792963
40
0.7510526
50
134.9329452
51
180.0155944
0
ARC
8
DEFAULT_255_2_778
10
9.5762945
20
200.9751612
40
0.7640826
50
179.7052536
51
222.5741919
0
ARC
8
DEFAULT_255_2_778
10
9.5632805
20
200.9641163
40
0.7470269
50
222.6256588
51
270.1489141
0
LINE
8
DEFAULT_255_2_778
10
14.0768221
20
202.1951919
11
14.0768221
21
199.7323919
0
LINE
8
DEFAULT_255_2_778
10
14.0768221
20
199.7323919
11
14.6203221
21
199.7323919
0
LINE
8
DEFAULT_255_2_778
10
14.6203221
20
199.7323919
11
14.6203221
21
201.7397919
0
LINE
8
DEFAULT_255_2_778
10
14.6203221
20
201.7397919
11
15.2632221
21
201.7397919
0
LINE
8
DEFAULT_255_2_778
10
15.2632221
20
200.9790919
11
14.7986221
21
200.9790919
0
LINE
8
DEFAULT_255_2_778
10
14.7986221
20
200.9790919
11
15.6397221
21
199.7320919
0
LINE
8
DEFAULT_255_2_778
10
15.6397221
20
199.7320919
11
16.3126221
21
199.7320919
0
LINE
8
DEFAULT_255_2_778
10
16.3126221
20
199.7320919
11
15.6993221
21
200.6324919
0
LINE
8
DEFAULT_255_2_778
10
15.3421221
20
202.2157919
11
14.6200221
21
202.2157919
0
LINE
8
DEFAULT_255_2_778
10
14.6200221
20
202.2157919
11
14.0766221
21
202.1951919
0
LINE
8
DEFAULT_255_2_778
10
14.0766221
20
202.1951919
11
14.0768221
21
202.1951919
0
LINE
8
DEFAULT_255_2_778
10
19.0142221
20
202.1951919
11
19.0142221
21
199.7323919
0
LINE
8
DEFAULT_255_2_778
10
19.0142221
20
199.7323919
11
19.5577221
21
199.7323919
0
LINE
8
DEFAULT_255_2_778
10
19.5577221
20
199.7323919
11
19.5577221
21
201.7397919
0
LINE
8
DEFAULT_255_2_778
10
19.5577221
20
201.7397919
11
20.1723221
21
201.7397919
0
LINE
8
DEFAULT_255_2_778
10
20.5578221
20
201.3645919
11
20.5578221
21
199.7323919
0
LINE
8
DEFAULT_255_2_778
10
20.5578221
20
199.7323919
11
21.1013221
21
199.7323919
0
LINE
8
DEFAULT_255_2_778
10
21.1013221
20
199.7323919
11
21.1013221
21
201.3452919
0
LINE
8
DEFAULT_255_2_778
10
20.2305221
20
202.2157919
11
19.5577221
21
202.2157919
0
LINE
8
DEFAULT_255_2_778
10
19.5577221
20
202.2157919
11
19.0142221
21
202.1951919
0
LINE
8
DEFAULT_255_2_778
10
19.0142221
20
202.1951919
11
19.0142221
21
202.1951919
0
LINE
8
DEFAULT_255_2_778
10
11.0196221
20
202.1951919
11
11.0196221
21
199.7323919
0
LINE
8
DEFAULT_255_2_778
10
11.0196221
20
199.7323919
11
11.5628221
21
199.7323919
0
LINE
8
DEFAULT_255_2_778
10
11.5628221
20
199.7323919
11
11.5628221
21
201.7397919
0
LINE
8
DEFAULT_255_2_778
10
11.5628221
20
201.7397919
11
12.1671221
21
201.7397919
0
LINE
8
DEFAULT_255_2_778
10
12.1671221
20
201.7397919
11
12.1671221
21
199.7323919
0
LINE
8
DEFAULT_255_2_778
10
12.1671221
20
199.7323919
11
12.7105221
21
199.7323919
0
LINE
8
DEFAULT_255_2_778
10
12.7105221
20
199.7323919
11
12.7105221
21
201.7397919
0
LINE
8
DEFAULT_255_2_778
10
12.7105221
20
201.7397919
11
12.9188221
21
201.7397919
0
LINE
8
DEFAULT_255_2_778
10
13.3042221
20
201.3645919
11
13.3042221
21
199.7323919
0
LINE
8
DEFAULT_255_2_778
10
13.3042221
20
199.7323919
11
13.8490221
21
199.7323919
0
LINE
8
DEFAULT_255_2_778
10
13.8490221
20
199.7323919
11
13.8490221
21
201.3452919
0
LINE
8
DEFAULT_255_2_778
10
12.9783221
20
202.2157919
11
11.5731221
21
202.2157919
0
LINE
8
DEFAULT_255_2_778
10
11.5731221
20
202.2157919
11
11.0193221
21
202.1951919
0
LINE
8
DEFAULT_255_2_778
10
11.0193221
20
202.1951919
11
11.0196221
21
202.1951919
0
LINE
8
DEFAULT_255_2_778
10
17.5598221
20
199.6725919
11
17.5598221
21
199.6728919
0
LINE
8
DEFAULT_255_2_778
10
9.5652221
20
199.6728919
11
9.5652221
21
199.6728919
0
LINE
8
DEFAULT_255_2_778
10
10.7161417
20
93.7947475
11
10.7161417
21
5.1593475
0
LINE
8
DEFAULT_255_2_778
10
10.7161417
20
5.1593475
11
9.3932417
21
5.1593475
0
LINE
8
DEFAULT_255_2_778
10
9.3932417
20
187.7218475
11
10.7161417
21
187.7218475
0
LINE
8
DEFAULT_255_2_778
10
10.7161417
20
187.7218475
11
10.7161417
21
99.0864475
0
LINE
8
DEFAULT_255_2_778
10
9.3932834
20
99.0864333
11
12.0390834
21
99.0864333
0
LINE
8
DEFAULT_255_2_778
10
12.0390834
20
99.0864333
11
12.0390834
21
93.7947333
0
LINE
8
DEFAULT_255_2_778
10
12.0390834
20
93.7947333
11
9.3932834
21
93.7947333
0
LINE
8
DEFAULT_255_2_778
10
9.3932834
20
93.7947333
11
9.3932834
21
99.0864333
0
ARC
8
DEFAULT_255_2_778_1
10
13.1928591
20
93.897177
40
4.816461
50
120.9442904
51
122.351755
0
ARC
8
DEFAULT_255_2_778_1
10
12.7462523
20
94.6008039
40
3.9830657
50
122.3407904
51
124.1946752
0
ARC
8
DEFAULT_255_2_778_1
10
12.3063464
20
95.2473306
40
3.2010724
50
124.1855758
51
126.4338849
0
ARC
8
DEFAULT_255_2_778_1
10
11.9204129
20
95.7700611
40
2.5513094
50
126.4326926
51
128.8877368
0
ARC
8
DEFAULT_255_2_778_1
10
11.5855968
20
96.1844658
40
2.0185498
50
128.8749205
51
131.8726567
0
ARC
8
DEFAULT_255_2_778_1
10
11.2884677
20
96.5154854
40
1.5737356
50
131.8616166
51
135.4168838
0
ARC
8
DEFAULT_255_2_778_1
10
11.025668
20
96.7736765
40
1.2053256
50
135.3893975
51
139.9687014
0
ARC
8
DEFAULT_255_2_778_1
10
10.7927889
20
96.9685102
40
0.9016937
50
139.9301659
51
145.9260426
0
ARC
8
DEFAULT_255_2_778_1
10
10.596654
20
97.1005104
40
0.6652776
50
145.8787362
51
153.8146208
0
ARC
8
DEFAULT_255_2_778_1
10
10.4445553
20
97.1748797
40
0.4959714
50
153.770634
51
164.3484794
0
ARC
8
DEFAULT_255_2_778_1
10
10.3432387
20
97.2030786
40
0.3908039
50
164.3220276
51
179.8083066
0
ARC
8
DEFAULT_255_2_778_1
10
10.3642789
20
97.211215
40
0.4118985
50
180.9499449
51
213.8111542
0
ARC
8
DEFAULT_255_2_778_1
10
10.6401828
20
97.3807896
40
0.73561
50
212.8271214
51
224.258472
0
ARC
8
DEFAULT_255_2_778_1
10
11.0230335
20
97.7501236
40
1.267567
50
224.1376218
51
231.4508261
0
ARC
8
DEFAULT_255_2_778_1
10
11.6657195
20
98.5531168
40
2.2960809
50
231.3955893
51
236.1256478
0
ARC
8
DEFAULT_255_2_778_1
10
13.4980223
20
101.2996293
40
5.5976905
50
236.2233172
51
239.1314682
0
ARC
8
DEFAULT_255_2_778_1
10
25.447927
20
121.0273568
40
28.6623793
50
238.8606853
51
239.0711101
0
ARC
8
DEFAULT_255_2_778_1
10
6.2757281
20
88.9302653
40
8.7248518
50
57.2420924
51
59.4062964
0
ARC
8
DEFAULT_255_2_778_1
10
9.5034241
20
93.9612102
40
2.747542
50
52.8289294
51
57.079028
0
ARC
8
DEFAULT_255_2_778_1
10
10.2780783
20
94.9815488
40
1.466457
50
46.3041868
51
52.8596521
0
ARC
8
DEFAULT_255_2_778_1
10
10.7103073
20
95.4316842
40
0.8424061
50
36.2174211
51
46.4090895
0
ARC
8
DEFAULT_255_2_778_1
10
10.9948088
20
95.6365128
40
0.4918609
50
17.400375
51
36.5489745
0
ARC
8
DEFAULT_255_2_778_1
10
11.1088994
20
95.6763754
40
0.3710912
50
0.0676858
51
16.7951297
0
ARC
8
DEFAULT_255_2_778_1
10
11.0878613
20
95.6782428
40
0.3921317
50
343.8035191
51
359.7912046
0
ARC
8
DEFAULT_255_2_778_1
10
10.9815912
20
95.7087167
40
0.5026844
50
333.2506233
51
343.8465691
0
ARC
8
DEFAULT_255_2_778_1
10
10.8277757
20
95.7854313
40
0.6745679
50
325.6600948
51
333.3122657
0
ARC
8
DEFAULT_255_2_778_1
10
10.6323344
20
95.9182296
40
0.9108568
50
319.7560915
51
325.6976089
0
ARC
8
DEFAULT_255_2_778_1
10
10.404199
20
96.1100002
40
1.2088854
50
315.4577584
51
319.8037947
0
ARC
8
DEFAULT_255_2_778_1
10
10.1408127
20
96.3688507
40
1.5781764
50
311.7298824
51
315.4670864
0
ARC
8
DEFAULT_255_2_778_1
10
9.8317879
20
96.7144074
40
2.0417554
50
308.723055
51
311.7470879
0
ARC
8
DEFAULT_255_2_778_1
10
9.477589
20
97.1556492
40
2.6075745
50
306.1165163
51
308.7300151
0
ARC
8
DEFAULT_255_2_778_1
10
9.0746091
20
97.7069523
40
3.2904564
50
303.9559446
51
306.1266333
0
ARC
8
DEFAULT_255_2_778_1
10
8.6630432
20
98.316215
40
4.0257023
50
302.3733397
51
303.9712246
0
ARC
8
DEFAULT_255_2_778_1
10
8.2434347
20
98.9777058
40
4.8090549
50
300.9434827
51
302.3758078
0
LINE
8
DEFAULT_255_1_234
10
10.171323
20
-0.2802337
11
10.3263355
21
-0.2802337
0
LINE
8
DEFAULT_255_1_234
10
9.4259777
20
-0.1212053
11
9.4259777
21
-0.0087609
0
LINE
8
DEFAULT_255_1_234
10
10.3263355
20
0.1422357
11
10.171323
21
0.1422357
0
LINE
8
DEFAULT_255_1_234
10
9.5809902
20
-0.0127768
11
9.5809902
21
-0.1260243
0
ARC
8
DEFAULT_255_1_234
10
9.7782742
20
-0.2205154
40
0.5513052
50
340.1774281
51
353.7814284
0
ARC
8
DEFAULT_255_1_234
10
9.9354095
20
-0.2790418
40
0.3836379
50
311.4558989
51
340.4421614
0
ARC
8
DEFAULT_255_1_234
10
9.9320763
20
-0.2679472
40
0.3941894
50
282.4333181
51
310.7513653
0
ARC
8
DEFAULT_255_1_234
10
9.8881502
20
-0.0864321
40
0.5809175
50
269.9358511
51
282.809604
0
ARC
8
DEFAULT_255_1_234
10
9.8829568
20
0.0593212
40
0.7266847
50
270.0021091
51
270.3581957
0
ARC
8
DEFAULT_255_1_234
10
9.8776985
20
-0.2007415
40
0.4666519
50
250.7884749
51
270.6489167
0
ARC
8
DEFAULT_255_1_234
10
9.860882
20
-0.2644681
40
0.4009729
50
219.3627325
51
250.0611886
0
ARC
8
DEFAULT_255_1_234
10
9.9438031
20
-0.1939958
40
0.5097822
50
193.5479632
51
219.5756669
0
ARC
8
DEFAULT_255_1_234
10
10.1809652
20
-0.1324081
40
0.7547848
50
181.1218675
51
193.87563
0
ARC
8
DEFAULT_255_1_234
10
10.3879833
20
-0.121342
40
0.9620055
50
179.9918545
51
181.5394234
0
ARC
8
DEFAULT_255_1_234
10
10.2028935
20
-0.0050212
40
0.7769248
50
169.5837241
51
180.2757934
0
ARC
8
DEFAULT_255_1_234
10
10.0191873
20
0.0289229
40
0.590109
50
155.0365899
51
169.6003176
0
ARC
8
DEFAULT_255_1_234
10
9.9056337
20
0.0836677
40
0.4640625
50
136.783148
51
155.2472683
0
ARC
8
DEFAULT_255_1_234
10
9.8666814
20
0.1167562
40
0.4130255
50
121.7633186
51
136.428115
0
ARC
8
DEFAULT_255_1_234
10
9.8801776
20
0.0918227
40
0.4413323
50
95.6459699
51
121.5490577
0
ARC
8
DEFAULT_255_1_234
10
9.8959058
20
-0.0190051
40
0.55319
50
89.924208
51
96.1377933
0
ARC
8
DEFAULT_255_1_234
10
9.9009491
20
-0.0071458
40
0.5413475
50
76.6779277
51
90.4563316
0
ARC
8
DEFAULT_255_1_234
10
9.9403114
20
0.1519114
40
0.3775041
50
47.485847
51
76.9287264
0
ARC
8
DEFAULT_255_1_234
10
9.9256087
20
0.1419159
40
0.3948286
50
16.5424086
51
46.8933463
0
ARC
8
DEFAULT_255_1_234
10
9.7648244
20
0.0890861
40
0.564021
50
5.4072051
51
17.0365086
0
ARC
8
DEFAULT_255_1_234
10
9.6209261
20
0.0659679
40
0.5556559
50
7.8891745
51
15.9239216
0
ARC
8
DEFAULT_255_1_234
10
9.8196274
20
0.1236631
40
0.3487515
50
15.7653144
51
27.9410532
0
ARC
8
DEFAULT_255_1_234
10
9.9300492
20
0.182779
40
0.2235026
50
27.8166557
51
46.4008329
0
ARC
8
DEFAULT_255_1_234
10
9.9350135
20
0.1822082
40
0.2205286
50
47.4371857
51
75.0698205
0
ARC
8
DEFAULT_255_1_234
10
9.9041529
20
0.0747765
40
0.3322915
50
74.7008593
51
87.8124495
0
ARC
8
DEFAULT_255_1_234
10
9.8968217
20
-0.0308156
40
0.4380987
50
87.3814673
51
90.0240855
0
ARC
8
DEFAULT_255_1_234
10
9.892976
20
0.0869291
40
0.3203749
50
89.3451631
51
108.5745436
0
ARC
8
DEFAULT_255_1_234
10
9.8792865
20
0.1382908
40
0.2673494
50
109.2998449
51
143.3037509
0
ARC
8
DEFAULT_255_1_234
10
9.9554938
20
0.0796881
40
0.3634757
50
143.0753173
51
163.1916937
0
ARC
8
DEFAULT_255_1_234
10
10.1506666
20
0.0180967
40
0.5681262
50
162.9373603
51
174.6208611
0
ARC
8
DEFAULT_255_1_234
10
10.4132708
20
-0.010699
40
0.8322832
50
174.3419979
51
180.1430411
0
ARC
8
DEFAULT_255_1_234
10
10.3201864
20
-0.1301302
40
0.7392076
50
179.6817502
51
189.150529
0
ARC
8
DEFAULT_255_1_234
10
10.0701112
20
-0.171781
40
0.4856932
50
188.9910863
51
203.5773039
0
ARC
8
DEFAULT_255_1_234
10
9.9621445
20
-0.2165789
40
0.3688271
50
203.9077269
51
215.1312379
0
ARC
8
DEFAULT_255_1_234
10
9.8698539
20
-0.2881059
40
0.2522457
50
213.9071664
51
263.8849284
0
ARC
8
DEFAULT_255_1_234
10
9.8823868
20
-0.2096482
40
0.3316174
50
263.1758525
51
270.1031083
0
ARC
8
DEFAULT_255_1_234
10
9.885596
20
-0.0849635
40
0.4563091
50
269.6719807
51
279.0609165
0
ARC
8
DEFAULT_255_1_234
10
9.9122728
20
-0.2462093
40
0.2928759
50
278.8750225
51
293.6346586
0
ARC
8
DEFAULT_255_1_234
10
9.9442936
20
-0.32141
40
0.2111472
50
293.8553404
51
310.0518804
0
ARC
8
DEFAULT_255_1_234
10
9.944779
20
-0.3276484
40
0.2060917
50
311.0646779
51
332.0108348
0
ARC
8
DEFAULT_255_1_234
10
9.8255517
20
-0.2619022
40
0.3422352
50
331.6588543
51
343.2878891
0
ARC
8
DEFAULT_255_1_234
10
9.6193032
20
-0.1985202
40
0.5580003
50
343.1446044
51
351.010618
0
ARC
8
DEFAULT_255_1_234
10
9.4651678
20
-0.1704129
40
0.7146438
50
350.7157277
51
351.1602153
0
LINE
8
DEFAULT_255_1_234
10
11.312633
20
0.1799849
11
11.1576205
21
0.1799849
0
LINE
8
DEFAULT_255_1_234
10
10.4652846
20
-0.3123606
11
10.6202972
21
-0.3123606
0
ARC
8
DEFAULT_255_1_234
10
11.2235017
20
1.0746768
40
1.252368
50
248.9199003
51
254.1439814
0
ARC
8
DEFAULT_255_1_234
10
11.0554512
20
0.6420234
40
0.788226
50
241.633709
51
249.0064503
0
ARC
8
DEFAULT_255_1_234
10
10.9025907
20
0.3619317
40
0.4691427
50
230.498225
51
241.8087113
0
ARC
8
DEFAULT_255_1_234
10
10.8241481
20
0.2619906
40
0.3421437
50
227.4064532
51
229.9881192
0
ARC
8
DEFAULT_255_1_234
10
10.7754002
20
0.2144088
40
0.2741476
50
200.6781896
51
228.1763934
0
ARC
8
DEFAULT_255_1_234
10
10.7826312
20
0.2129077
40
0.2804109
50
179.5061581
51
199.8694617
0
ARC
8
DEFAULT_255_1_234
10
10.7817064
20
0.220321
40
0.2795204
50
132.4834203
51
181.0242172
0
ARC
8
DEFAULT_255_1_234
10
10.8412646
20
0.1640704
40
0.3612768
50
129.2532479
51
133.4242687
0
ARC
8
DEFAULT_255_1_234
10
10.8559096
20
0.1420965
40
0.3875675
50
101.98776
51
128.8742646
0
ARC
8
DEFAULT_255_1_234
10
10.8957706
20
-0.0300259
40
0.5642249
50
89.5906553
51
102.3169264
0
ARC
8
DEFAULT_255_1_234
10
10.9028199
20
0.0018148
40
0.5323783
50
77.2360837
51
90.3248275
0
ARC
8
DEFAULT_255_1_234
10
10.9235278
20
0.09854
40
0.4334697
50
63.837784
51
77.0809408
0
ARC
8
DEFAULT_255_1_234
10
10.9513039
20
0.1502911
40
0.3747796
50
45.9864267
51
64.1607727
0
ARC
8
DEFAULT_255_1_234
10
10.9773921
20
0.1800866
40
0.3352302
50
32.2747395
51
45.6547121
0
ARC
8
DEFAULT_255_1_234
10
10.9840361
20
0.181988
40
0.328603
50
359.6507365
51
32.6130309
0
ARC
8
DEFAULT_255_1_234
10
10.8897457
20
0.182466
40
0.2678863
50
359.469343
51
14.9832209
0
ARC
8
DEFAULT_255_1_234
10
10.9602519
20
0.2013539
40
0.1948938
50
14.9781179
51
48.2004265
0
ARC
8
DEFAULT_255_1_234
10
10.9438163
20
0.1806983
40
0.2212521
50
48.5927837
51
74.1241538
0
ARC
8
DEFAULT_255_1_234
10
10.9104653
20
0.0706248
40
0.3362561
50
73.7888341
51
86.6652678
0
ARC
8
DEFAULT_255_1_234
10
10.9002218
20
-0.0501119
40
0.4573953
50
86.2640471
51
90.0526343
0
ARC
8
DEFAULT_255_1_234
10
10.8973931
20
-0.0105808
40
0.4178709
50
89.6697524
51
99.2309573
0
ARC
8
DEFAULT_255_1_234
10
10.8731382
20
0.1338964
40
0.2713749
50
99.069534
51
113.7658566
0
ARC
8
DEFAULT_255_1_234
10
10.8457573
20
0.1984677
40
0.2012469
50
114.0401004
51
127.9850673
0
ARC
8
DEFAULT_255_1_234
10
10.8217137
20
0.228073
40
0.1631167
50
127.7287463
51
176.7105154
0
ARC
8
DEFAULT_255_1_234
10
10.8895854
20
0.2179693
40
0.2315392
50
175.1779447
51
180.0581938
0
ARC
8
DEFAULT_255_1_234
10
10.8052701
20
0.2167428
40
0.1472271
50
179.6142195
51
228.1246017
0
ARC
8
DEFAULT_255_1_234
10
10.849437
20
0.2576308
40
0.2072299
50
226.5779593
51
230.8800004
0
ARC
8
DEFAULT_255_1_234
10
10.8965448
20
0.3201636
40
0.2854818
50
231.4635071
51
241.9260842
0
ARC
8
DEFAULT_255_1_234
10
11.0162626
20
0.54048
40
0.53622
50
241.7178533
51
248.3259551
0
ARC
8
DEFAULT_255_1_234
10
11.1547998
20
0.8837064
40
0.9063478
50
248.2007737
51
252.4528373
0
ARC
8
DEFAULT_255_1_234
10
11.2751723
20
1.2558441
40
1.2974635
50
252.3391078
51
254.3469452
0
ARC
8
DEFAULT_255_1_234
10
10.5209426
20
-1.4418852
40
1.5037162
50
71.0197183
51
74.4087047
0
ARC
8
DEFAULT_255_1_234
10
10.6904111
20
-0.9526889
40
0.9859993
50
66.1847285
51
71.086374
0
ARC
8
DEFAULT_255_1_234
10
10.8460423
20
-0.60228
40
0.6025855
50
59.3536294
51
66.2691831
0
ARC
8
DEFAULT_255_1_234
10
10.9349076
20
-0.4519391
40
0.4279449
50
49.1020879
51
59.3293958
0
ARC
8
DEFAULT_255_1_234
10
11.0167816
20
-0.3586166
40
0.3038015
50
32.7919921
51
49.2505539
0
ARC
8
DEFAULT_255_1_234
10
11.0488906
20
-0.3357809
40
0.264448
50
31.1181161
51
32.4005348
0
ARC
8
DEFAULT_255_1_234
10
11.0400443
20
-0.3393221
40
0.2738556
50
8.1116974
51
30.7958831
0
ARC
8
DEFAULT_255_1_234
10
10.9590111
20
-0.3531247
40
0.3560327
50
359.8389159
51
8.4706516
0
ARC
8
DEFAULT_255_1_234
10
11.0215903
20
-0.3579863
40
0.2934776
50
337.4731098
51
0.7537279
0
ARC
8
DEFAULT_255_1_234
10
11.0394598
20
-0.3599613
40
0.2762607
50
307.5917067
51
336.4315538
0
ARC
8
DEFAULT_255_1_234
10
10.9934426
20
-0.3086898
40
0.3449979
50
307.6551545
51
308.4529766
0
ARC
8
DEFAULT_255_1_234
10
10.9704145
20
-0.273175
40
0.3871988
50
284.3734338
51
307.1424381
0
ARC
8
DEFAULT_255_1_234
10
10.9208975
20
-0.0910068
40
0.5759636
50
272.4382747
51
284.646547
0
ARC
8
DEFAULT_255_1_234
10
10.9082184
20
0.0889893
40
0.7563528
50
269.9708387
51
272.8178037
0
ARC
8
DEFAULT_255_1_234
10
10.9039223
20
-0.1148284
40
0.5525489
50
248.2707594
51
270.4055579
0
ARC
8
DEFAULT_255_1_234
10
10.8984964
20
-0.1338808
40
0.5328452
50
246.1383403
51
248.0542782
0
ARC
8
DEFAULT_255_1_234
10
10.8566343
20
-0.2218157
40
0.4355005
50
233.1670131
51
246.4950969
0
ARC
8
DEFAULT_255_1_234
10
10.8012248
20
-0.2966188
40
0.3424126
50
215.3403242
51
233.0843104
0
ARC
8
DEFAULT_255_1_234
10
10.7739679
20
-0.3164451
40
0.3087104
50
179.2419209
51
215.2648451
0
ARC
8
DEFAULT_255_1_234
10
10.8507273
20
-0.3150334
40
0.2304457
50
179.335461
51
199.1045811
0
ARC
8
DEFAULT_255_1_234
10
10.817495
20
-0.3237234
40
0.1962176
50
199.8828939
51
232.7063202
0
ARC
8
DEFAULT_255_1_234
10
10.8647218
20
-0.2643212
40
0.2720938
50
232.3738199
51
255.5136649
0
ARC
8
DEFAULT_255_1_234
10
10.8988085
20
-0.1399165
40
0.4010747
50
255.2446292
51
267.5320849
0
ARC
8
DEFAULT_255_1_234
10
10.9075708
20
-0.0166298
40
0.5246356
50
267.1557994
51
270.0286766
0
ARC
8
DEFAULT_255_1_234
10
10.910348
20
-0.061005
40
0.4802668
50
269.7000017
51
278.1660162
0
ARC
8
DEFAULT_255_1_234
10
10.9359485
20
-0.2340485
40
0.3053425
50
278.0231263
51
290.625471
0
ARC
8
DEFAULT_255_1_234
10
10.9707172
20
-0.3267975
40
0.206291
50
290.6619762
51
307.0370976
0
ARC
8
DEFAULT_255_1_234
10
11.0007562
20
-0.3636496
40
0.1587906
50
306.3943566
51
355.3030547
0
ARC
8
DEFAULT_255_1_234
10
10.9495493
20
-0.3559887
40
0.2104809
50
354.3660432
51
0.0698737
0
ARC
8
DEFAULT_255_1_234
10
10.9637838
20
-0.3537383
40
0.1962563
50
359.417946
51
16.1971788
0
ARC
8
DEFAULT_255_1_234
10
11.0093149
20
-0.3412582
40
0.149053
50
16.4723299
51
52.6262157
0
ARC
8
DEFAULT_255_1_234
10
10.9272202
20
-0.4496567
40
0.2850296
50
52.7386432
51
62.4979148
0
ARC
8
DEFAULT_255_1_234
10
10.7887279
20
-0.7102717
40
0.5801521
50
62.2515216
51
68.1220564
0
ARC
8
DEFAULT_255_1_234
10
10.616719
20
-1.1330128
40
1.0365451
50
68.0062803
51
71.8053402
0
ARC
8
DEFAULT_255_1_234
10
10.4371562
20
-1.6715242
40
1.6042013
50
71.7183119
51
73.9258742
0
LINE
8
DEFAULT_255_1_234
10
11.9624006
20
0.5237433
11
11.9624006
21
-0.6513
0
LINE
8
DEFAULT_255_1_234
10
11.9624006
20
-0.6513
11
11.8130103
21
-0.6513
0
LINE
8
DEFAULT_255_1_234
10
11.8130103
20
-0.6513
11
11.8130103
21
0.3390133
0
LINE
8
DEFAULT_255_1_234
10
11.8130103
20
0.3390133
11
11.5134265
21
0.2289785
0
LINE
8
DEFAULT_255_1_234
10
11.5134265
20
0.2289785
11
11.5134265
21
0.3639117
0
LINE
8
DEFAULT_255_1_234
10
11.5134265
20
0.3639117
11
11.9391086
21
0.5237433
0
LINE
8
DEFAULT_255_1_234
10
11.9391086
20
0.5237433
11
11.9624006
21
0.5237433
0
LINE
8
DEFAULT_255_1_234
10
12.5037398
20
0.5181211
11
12.6884698
21
-0.2826432
0
LINE
8
DEFAULT_255_1_234
10
12.6884698
20
-0.2826432
11
12.7109586
21
-0.4368526
0
LINE
8
DEFAULT_255_1_234
10
12.7109586
20
-0.4368526
11
12.7438888
21
-0.2979035
0
LINE
8
DEFAULT_255_1_234
10
12.7438888
20
-0.2979035
11
12.9752028
21
0.5181211
0
LINE
8
DEFAULT_255_1_234
10
12.9752028
20
0.5181211
11
13.105317
21
0.5181211
0
LINE
8
DEFAULT_255_1_234
10
13.105317
20
0.5181211
11
13.3310088
21
-0.2979035
0
LINE
8
DEFAULT_255_1_234
10
13.3310088
20
-0.2979035
11
13.3631358
21
-0.4392621
0
LINE
8
DEFAULT_255_1_234
10
13.3631358
20
-0.4392621
11
13.3880342
21
-0.28184
0
LINE
8
DEFAULT_255_1_234
10
13.3880342
20
-0.28184
11
13.5695515
21
0.5181211
0
LINE
8
DEFAULT_255_1_234
10
13.5695515
20
0.5181211
11
13.724564
21
0.5181211
0
LINE
8
DEFAULT_255_1_234
10
13.724564
20
0.5181211
11
13.4410437
21
-0.6513
0
LINE
8
DEFAULT_255_1_234
10
13.4410437
20
-0.6513
11
13.3004882
21
-0.6513
0
LINE
8
DEFAULT_255_1_234
10
13.3004882
20
-0.6513
11
13.0595361
21
0.2008674
0
LINE
8
DEFAULT_255_1_234
10
13.0595361
20
0.2008674
11
13.0410631
21
0.2900197
0
LINE
8
DEFAULT_255_1_234
10
13.0410631
20
0.2900197
11
13.0225901
21
0.2008674
0
LINE
8
DEFAULT_255_1_234
10
13.0225901
20
0.2008674
11
12.772803
21
-0.6513
0
LINE
8
DEFAULT_255_1_234
10
12.772803
20
-0.6513
11
12.6322476
21
-0.6513
0
LINE
8
DEFAULT_255_1_234
10
12.6322476
20
-0.6513
11
12.3495304
21
0.5181211
0
LINE
8
DEFAULT_255_1_234
10
12.3495304
20
0.5181211
11
12.5037398
21
0.5181211
0
LINE
8
DEFAULT_255_1_234
10
14.1333795
20
-0.0938974
11
14.1333795
21
-0.2151766
0
LINE
8
DEFAULT_255_1_234
10
14.1333795
20
-0.2151766
11
13.7414307
21
-0.2151766
0
LINE
8
DEFAULT_255_1_234
10
13.7414307
20
-0.2151766
11
13.7414307
21
-0.0938974
0
LINE
8
DEFAULT_255_1_234
10
13.7414307
20
-0.0938974
11
14.1333795
21
-0.0938974
0
LINE
8
DEFAULT_255_1_234
10
14.7309408
20
-0.1934909
11
14.4554522
21
-0.1934909
0
LINE
8
DEFAULT_255_1_234
10
14.4554522
20
-0.1934909
11
14.4554522
21
-0.6513
0
LINE
8
DEFAULT_255_1_234
10
14.4554522
20
-0.6513
11
14.3012428
21
-0.6513
0
LINE
8
DEFAULT_255_1_234
10
14.3012428
20
-0.6513
11
14.3012428
21
0.5181211
0
LINE
8
DEFAULT_255_1_234
10
14.3012428
20
0.5181211
11
14.7325472
21
0.5181211
0
LINE
8
DEFAULT_255_1_234
10
14.4554522
20
0.3912196
11
14.4554522
21
-0.0673926
0
LINE
8
DEFAULT_255_1_234
10
14.4554522
20
-0.0673926
11
14.7325472
21
-0.0673926
0
LINE
8
DEFAULT_255_1_234
10
14.7413821
20
0.3912196
11
14.4554522
21
0.3912196
0
ARC
8
DEFAULT_255_1_234
10
14.7367599
20
-0.0877805
40
0.6059162
50
78.8378113
51
90.3983573
0
ARC
8
DEFAULT_255_1_234
10
14.7783612
20
0.1142879
40
0.3996205
50
58.9632738
51
79.0810598
0
ARC
8
DEFAULT_255_1_234
10
14.8085154
20
0.1702721
40
0.3361177
50
48.0197965
51
58.447194
0
ARC
8
DEFAULT_255_1_234
10
14.8174015
20
0.1788225
40
0.3238191
50
3.3375044
51
48.1766626
0
ARC
8
DEFAULT_255_1_234
10
14.6943855
20
0.1611171
40
0.4477806
50
359.9477528
51
4.6829065
0
ARC
8
DEFAULT_255_1_234
10
14.7067172
20
0.1568628
40
0.4354656
50
346.1877825
51
0.5060252
0
ARC
8
DEFAULT_255_1_234
10
14.8426039
20
0.1215731
40
0.295089
50
310.8831995
51
346.5426355
0
ARC
8
DEFAULT_255_1_234
10
14.8117459
20
0.1632695
40
0.3468331
50
286.6925341
51
310.2288297
0
ARC
8
DEFAULT_255_1_234
10
14.754829
20
0.3422882
40
0.5346654
50
274.6850312
51
287.0245141
0
ARC
8
DEFAULT_255_1_234
10
14.7323013
20
0.5631932
40
0.7566852
50
269.8969846
51
275.018904
0
ARC
8
DEFAULT_255_1_234
10
14.7350604
20
0.3552707
40
0.4226708
50
269.6593078
51
279.4153575
0
ARC
8
DEFAULT_255_1_234
10
14.760788
20
0.2062133
40
0.2714146
50
279.2049762
51
294.9900808
0
ARC
8
DEFAULT_255_1_234
10
14.7898205
20
0.1414508
40
0.2004525
50
295.2888114
51
311.2911209
0
ARC
8
DEFAULT_255_1_234
10
14.79691
20
0.130922
40
0.1878703
50
311.7854996
51
347.2861051
0
ARC
8
DEFAULT_255_1_234
10
14.6985258
20
0.1562092
40
0.2894234
50
346.6893224
51
0.1059443
0
ARC
8
DEFAULT_255_1_234
10
14.6230153
20
0.1590685
40
0.3649409
50
359.6350983
51
0.0053152
0
ARC
8
DEFAULT_255_1_234
10
14.7200482
20
0.1615937
40
0.2679199
50
359.4672059
51
15.5933957
0
ARC
8
DEFAULT_255_1_234
10
14.782537
20
0.1784779
40
0.2031932
50
15.7442113
51
46.6203375
0
ARC
8
DEFAULT_255_1_234
10
14.7677591
20
0.1614484
40
0.2257226
50
46.8628658
51
75.6676503
0
ARC
8
DEFAULT_255_1_234
10
14.7383412
20
0.0555718
40
0.3355939
50
75.276167
51
88.2915297
0
ARC
8
DEFAULT_255_1_234
10
14.7325118
20
-0.0322476
40
0.4235602
50
87.8575022
51
88.8000139
0
LINE
8
DEFAULT_255_1_234
10
16.1469363
20
0.5181211
11
16.1469363
21
0.3912196
0
LINE
8
DEFAULT_255_1_234
10
16.1469363
20
0.3912196
11
15.7710509
21
0.3912196
0
LINE
8
DEFAULT_255_1_234
10
15.7710509
20
0.3912196
11
15.7710509
21
-0.6513
0
LINE
8
DEFAULT_255_1_234
10
15.7710509
20
-0.6513
11
15.6176447
21
-0.6513
0
LINE
8
DEFAULT_255_1_234
10
15.6176447
20
-0.6513
11
15.6176447
21
0.3912196
0
LINE
8
DEFAULT_255_1_234
10
15.6176447
20
0.3912196
11
15.2425625
21
0.3912196
0
LINE
8
DEFAULT_255_1_234
10
15.2425625
20
0.3912196
11
15.2425625
21
0.5181211
0
LINE
8
DEFAULT_255_1_234
10
15.2425625
20
0.5181211
11
16.1469363
21
0.5181211
0
LINE
8
DEFAULT_255_1_234
10
17.083437
20
0.1799849
11
16.9284244
21
0.1799849
0
LINE
8
DEFAULT_255_1_234
10
16.2360886
20
-0.3123606
11
16.3911011
21
-0.3123606
0
ARC
8
DEFAULT_255_1_234
10
16.9943057
20
1.0746768
40
1.252368
50
248.9199003
51
254.1439814
0
ARC
8
DEFAULT_255_1_234
10
16.8262552
20
0.6420234
40
0.788226
50
241.633709
51
249.0064503
0
ARC
8
DEFAULT_255_1_234
10
16.6733946
20
0.3619317
40
0.4691427
50
230.498225
51
241.8087113
0
ARC
8
DEFAULT_255_1_234
10
16.594952
20
0.2619906
40
0.3421437
50
227.4064532
51
229.9881192
0
ARC
8
DEFAULT_255_1_234
10
16.5462041
20
0.2144088
40
0.2741476
50
200.6781896
51
228.1763934
0
ARC
8
DEFAULT_255_1_234
10
16.5534352
20
0.2129077
40
0.2804109
50
179.5061581
51
199.8694617
0
ARC
8
DEFAULT_255_1_234
10
16.5525103
20
0.220321
40
0.2795204
50
132.4834203
51
181.0242172
0
ARC
8
DEFAULT_255_1_234
10
16.6120686
20
0.1640704
40
0.3612768
50
129.2532479
51
133.4242687
0
ARC
8
DEFAULT_255_1_234
10
16.6267135
20
0.1420965
40
0.3875675
50
101.98776
51
128.8742646
0
ARC
8
DEFAULT_255_1_234
10
16.6665746
20
-0.0300259
40
0.5642249
50
89.5906553
51
102.3169264
0
ARC
8
DEFAULT_255_1_234
10
16.6736238
20
0.0018148
40
0.5323783
50
77.2360837
51
90.3248275
0
ARC
8
DEFAULT_255_1_234
10
16.6943317
20
0.09854
40
0.4334697
50
63.837784
51
77.0809408
0
ARC
8
DEFAULT_255_1_234
10
16.7221079
20
0.1502911
40
0.3747796
50
45.9864267
51
64.1607727
0
ARC
8
DEFAULT_255_1_234
10
16.748196
20
0.1800866
40
0.3352302
50
32.2747395
51
45.6547121
0
ARC
8
DEFAULT_255_1_234
10
16.7548401
20
0.181988
40
0.328603
50
359.6507365
51
32.6130309
0
ARC
8
DEFAULT_255_1_234
10
16.6605496
20
0.182466
40
0.2678863
50
359.469343
51
14.9832209
0
ARC
8
DEFAULT_255_1_234
10
16.7310559
20
0.2013539
40
0.1948938
50
14.9781179
51
48.2004265
0
ARC
8
DEFAULT_255_1_234
10
16.7146203
20
0.1806983
40
0.2212521
50
48.5927837
51
74.1241538
0
ARC
8
DEFAULT_255_1_234
10
16.6812692
20
0.0706248
40
0.3362561
50
73.7888341
51
86.6652678
0
ARC
8
DEFAULT_255_1_234
10
16.6710258
20
-0.0501119
40
0.4573953
50
86.2640471
51
90.0526343
0
ARC
8
DEFAULT_255_1_234
10
16.6681971
20
-0.0105808
40
0.4178709
50
89.6697524
51
99.2309573
0
ARC
8
DEFAULT_255_1_234
10
16.6439421
20
0.1338964
40
0.2713749
50
99.069534
51
113.7658566
0
ARC
8
DEFAULT_255_1_234
10
16.6165613
20
0.1984677
40
0.2012469
50
114.0401004
51
127.9850673
0
ARC
8
DEFAULT_255_1_234
10
16.5925177
20
0.228073
40
0.1631167
50
127.7287463
51
176.7105154
0
ARC
8
DEFAULT_255_1_234
10
16.6603894
20
0.2179693
40
0.2315392
50
175.1779447
51
180.0581938
0
ARC
8
DEFAULT_255_1_234
10
16.5760741
20
0.2167428
40
0.1472271
50
179.6142195
51
228.1246017
0
ARC
8
DEFAULT_255_1_234
10
16.6202409
20
0.2576308
40
0.2072299
50
226.5779593
51
230.8800004
0
ARC
8
DEFAULT_255_1_234
10
16.6673488
20
0.3201636
40
0.2854818
50
231.4635071
51
241.9260842
0
ARC
8
DEFAULT_255_1_234
10
16.7870666
20
0.54048
40
0.53622
50
241.7178533
51
248.3259551
0
ARC
8
DEFAULT_255_1_234
10
16.9256038
20
0.8837064
40
0.9063478
50
248.2007737
51
252.4528373
0
ARC
8
DEFAULT_255_1_234
10
17.0459763
20
1.2558441
40
1.2974635
50
252.3391078
51
254.3469452
0
ARC
8
DEFAULT_255_1_234
10
16.2917465
20
-1.4418852
40
1.5037162
50
71.0197183
51
74.4087047
0
ARC
8
DEFAULT_255_1_234
10
16.4612151
20
-0.9526889
40
0.9859993
50
66.1847285
51
71.086374
0
ARC
8
DEFAULT_255_1_234
10
16.6168463
20
-0.60228
40
0.6025855
50
59.3536294
51
66.2691831
0
ARC
8
DEFAULT_255_1_234
10
16.7057115
20
-0.4519391
40
0.4279449
50
49.1020879
51
59.3293958
0
ARC
8
DEFAULT_255_1_234
10
16.7875855
20
-0.3586166
40
0.3038015
50
32.7919921
51
49.2505539
0
ARC
8
DEFAULT_255_1_234
10
16.8196945
20
-0.3357809
40
0.264448
50
31.1181161
51
32.4005348
0
ARC
8
DEFAULT_255_1_234
10
16.8108483
20
-0.3393221
40
0.2738556
50
8.1116974
51
30.7958831
0
ARC
8
DEFAULT_255_1_234
10
16.7298151
20
-0.3531247
40
0.3560327
50
359.8389159
51
8.4706516
0
ARC
8
DEFAULT_255_1_234
10
16.7923943
20
-0.3579863
40
0.2934776
50
337.4731098
51
0.7537279
0
ARC
8
DEFAULT_255_1_234
10
16.8102637
20
-0.3599613
40
0.2762607
50
307.5917067
51
336.4315538
0
ARC
8
DEFAULT_255_1_234
10
16.7642465
20
-0.3086898
40
0.3449979
50
307.6551545
51
308.4529766
0
ARC
8
DEFAULT_255_1_234
10
16.7412184
20
-0.273175
40
0.3871988
50
284.3734338
51
307.1424381
0
ARC
8
DEFAULT_255_1_234
10
16.6917014
20
-0.0910068
40
0.5759636
50
272.4382747
51
284.646547
0
ARC
8
DEFAULT_255_1_234
10
16.6790223
20
0.0889893
40
0.7563528
50
269.9708387
51
272.8178037
0
ARC
8
DEFAULT_255_1_234
10
16.6747263
20
-0.1148284
40
0.5525489
50
248.2707594
51
270.4055579
0
ARC
8
DEFAULT_255_1_234
10
16.6693004
20
-0.1338808
40
0.5328452
50
246.1383403
51
248.0542782
0
ARC
8
DEFAULT_255_1_234
10
16.6274383
20
-0.2218157
40
0.4355005
50
233.1670131
51
246.4950969
0
ARC
8
DEFAULT_255_1_234
10
16.5720288
20
-0.2966188
40
0.3424126
50
215.3403242
51
233.0843104
0
ARC
8
DEFAULT_255_1_234
10
16.5447719
20
-0.3164451
40
0.3087104
50
179.2419209
51
215.2648451
0
ARC
8
DEFAULT_255_1_234
10
16.6215313
20
-0.3150334
40
0.2304457
50
179.335461
51
199.1045811
0
ARC
8
DEFAULT_255_1_234
10
16.5882989
20
-0.3237234
40
0.1962176
50
199.8828939
51
232.7063202
0
ARC
8
DEFAULT_255_1_234
10
16.6355258
20
-0.2643212
40
0.2720938
50
232.3738199
51
255.5136649
0
ARC
8
DEFAULT_255_1_234
10
16.6696124
20
-0.1399165
40
0.4010747
50
255.2446292
51
267.5320849
0
ARC
8
DEFAULT_255_1_234
10
16.6783748
20
-0.0166298
40
0.5246356
50
267.1557994
51
270.0286766
0
ARC
8
DEFAULT_255_1_234
10
16.681152
20
-0.061005
40
0.4802668
50
269.7000017
51
278.1660162
0
ARC
8
DEFAULT_255_1_234
10
16.7067525
20
-0.2340485
40
0.3053425
50
278.0231263
51
290.625471
0
ARC
8
DEFAULT_255_1_234
10
16.7415212
20
-0.3267975
40
0.206291
50
290.6619762
51
307.0370976
0
ARC
8
DEFAULT_255_1_234
10
16.7715601
20
-0.3636496
40
0.1587906
50
306.3943566
51
355.3030547
0
ARC
8
DEFAULT_255_1_234
10
16.7203533
20
-0.3559887
40
0.2104809
50
354.3660432
51
0.0698737
0
ARC
8
DEFAULT_255_1_234
10
16.7345878
20
-0.3537383
40
0.1962563
50
359.417946
51
16.1971788
0
ARC
8
DEFAULT_255_1_234
10
16.7801188
20
-0.3412582
40
0.149053
50
16.4723299
51
52.6262157
0
ARC
8
DEFAULT_255_1_234
10
16.6980242
20
-0.4496567
40
0.2850296
50
52.7386432
51
62.4979148
0
ARC
8
DEFAULT_255_1_234
10
16.5595319
20
-0.7102717
40
0.5801521
50
62.2515216
51
68.1220564
0
ARC
8
DEFAULT_255_1_234
10
16.387523
20
-1.1330128
40
1.0365451
50
68.0062803
51
71.8053402
0
ARC
8
DEFAULT_255_1_234
10
16.2079601
20
-1.6715242
40
1.6042013
50
71.7183119
51
73.9258742
0
LINE
8
DEFAULT_255_1_234
10
17.4320144
20
-0.0955037
11
17.3131447
21
-0.0649831
0
LINE
8
DEFAULT_255_1_234
10
17.3131447
20
-0.0649831
11
17.3725795
21
0.5181211
0
LINE
8
DEFAULT_255_1_234
10
17.3725795
20
0.5181211
11
17.9717472
21
0.5181211
0
LINE
8
DEFAULT_255_1_234
10
17.9717472
20
0.5181211
11
17.9717472
21
0.3807784
0
LINE
8
DEFAULT_255_1_234
10
17.9717472
20
0.3807784
11
17.4986778
21
0.3807784
0
LINE
8
DEFAULT_255_1_234
10
17.4986778
20
0.3807784
11
17.4633382
21
0.0619184
0
LINE
8
DEFAULT_255_1_234
10
17.2713796
20
-0.3436844
11
17.4119351
21
-0.3436844
0
LINE
8
DEFAULT_255_1_234
10
17.4713699
20
-0.0633768
11
17.4320144
21
-0.0955037
0
ARC
8
DEFAULT_255_1_234
10
17.6488166
20
-0.256077
40
0.3681349
50
93.7182161
51
120.2538958
0
ARC
8
DEFAULT_255_1_234
10
17.6582429
20
-0.3368606
40
0.449379
50
89.9660152
51
94.2496022
0
ARC
8
DEFAULT_255_1_234
10
17.6623163
20
-0.2779451
40
0.390482
50
73.8043271
51
90.5585896
0
ARC
8
DEFAULT_255_1_234
10
17.685806
20
-0.1921398
40
0.3015334
50
41.3071453
51
73.5430202
0
ARC
8
DEFAULT_255_1_234
10
17.6441887
20
-0.2279676
40
0.3564457
50
13.5075983
51
41.2174222
0
ARC
8
DEFAULT_255_1_234
10
17.4800091
20
-0.2709514
40
0.5261351
50
1.1331335
51
13.8829381
0
ARC
8
DEFAULT_255_1_234
10
17.338846
20
-0.2785335
40
0.6674378
50
359.9919444
51
1.544251
0
ARC
8
DEFAULT_255_1_234
10
17.4665286
20
-0.282672
40
0.5397702
50
347.8572367
51
0.4293338
0
ARC
8
DEFAULT_255_1_234
10
17.6415604
20
-0.3223264
40
0.3603188
50
323.673004
51
348.1672506
0
ARC
8
DEFAULT_255_1_234
10
17.6710112
20
-0.3402832
40
0.3259678
50
316.8171152
51
323.1492751
0
ARC
8
DEFAULT_255_1_234
10
17.6771301
20
-0.343954
40
0.3189975
50
281.8396411
51
316.5457803
0
ARC
8
DEFAULT_255_1_234
10
17.6395564
20
-0.1884238
40
0.4789527
50
269.5770101
51
282.4214771
0
ARC
8
DEFAULT_255_1_234
10
17.6324376
20
-0.2097875
40
0.45759
50
256.2427136
51
270.4486331
0
ARC
8
DEFAULT_255_1_234
10
17.6025278
20
-0.3297771
40
0.3339303
50
228.9023911
51
256.3314342
0
ARC
8
DEFAULT_255_1_234
10
17.5951511
20
-0.3414254
40
0.32031
50
193.753695
51
228.5271154
0
ARC
8
DEFAULT_255_1_234
10
17.7189465
20
-0.30512
40
0.4492253
50
184.924711
51
194.497588
0
ARC
8
DEFAULT_255_1_234
10
17.7382032
20
-0.3015409
40
0.3289787
50
187.3600538
51
198.6732863
0
ARC
8
DEFAULT_255_1_234
10
17.6332326
20
-0.3379326
40
0.217884
50
198.4451669
51
217.794479
0
ARC
8
DEFAULT_255_1_234
10
17.6036501
20
-0.3588915
40
0.1816698
50
218.2887171
51
228.5612368
0
ARC
8
DEFAULT_255_1_234
10
17.6134288
20
-0.3457037
40
0.1980329
50
228.9654866
51
258.1234728
0
ARC
8
DEFAULT_255_1_234
10
17.6339998
20
-0.2576167
40
0.2884748
50
257.7258293
51
270.401361
0
ARC
8
DEFAULT_255_1_234
10
17.6384884
20
-0.3021179
40
0.2439788
50
269.4204404
51
286.4209037
0
ARC
8
DEFAULT_255_1_234
10
17.6533372
20
-0.3560343
40
0.1880666
50
286.7251356
51
320.600362
0
ARC
8
DEFAULT_255_1_234
10
17.6150197
20
-0.3249405
40
0.2374121
50
320.6712579
51
344.5441685
0
ARC
8
DEFAULT_255_1_234
10
17.4993523
20
-0.2909955
40
0.3579479
50
344.2412205
51
356.7357071
0
ARC
8
DEFAULT_255_1_234
10
17.3744671
20
-0.2806556
40
0.4832297
50
356.3548756
51
0.0500261
0
ARC
8
DEFAULT_255_1_234
10
17.5081181
20
-0.277535
40
0.3495889
50
359.5576869
51
12.953486
0
ARC
8
DEFAULT_255_1_234
10
17.6136078
20
-0.2519566
40
0.2410532
50
12.6490276
51
41.6081334
0
ARC
8
DEFAULT_255_1_234
10
17.6366449
20
-0.2323679
40
0.2108218
50
41.7850273
51
85.9892764
0
ARC
8
DEFAULT_255_1_234
10
17.6243186
20
-0.3136538
40
0.2928454
50
84.6957577
51
90.0676183
0
ARC
8
DEFAULT_255_1_234
10
17.621967
20
-0.3805284
40
0.3597255
50
89.6804936
51
99.1614436
0
ARC
8
DEFAULT_255_1_234
10
17.6014301
20
-0.2577869
40
0.235281
50
98.9830931
51
113.8908934
0
ARC
8
DEFAULT_255_1_234
10
17.5784711
20
-0.2036413
40
0.176479
50
114.1950727
51
127.3641004
0
LINE
8
DEFAULT_255_1_234
10
18.7251243
20
0.5189243
11
18.751629
21
0.5189243
0
LINE
8
DEFAULT_255_1_234
10
18.751629
20
0.5189243
11
18.751629
21
0.392826
0
LINE
8
DEFAULT_255_1_234
10
18.751629
20
0.392826
11
18.7243211
21
0.392826
0
LINE
8
DEFAULT_255_1_234
10
18.1773597
20
-0.2063417
11
18.1773597
21
-0.1493164
0
LINE
8
DEFAULT_255_1_234
10
18.32675
20
-0.1685925
11
18.32675
21
-0.2232083
0
ARC
8
DEFAULT_255_1_234
10
18.7295559
20
-0.1069545
40
0.4998079
50
90.6001036
51
104.514704
0
ARC
8
DEFAULT_255_1_234
10
18.6907074
20
0.0375131
40
0.3502176
50
104.2855254
51
133.862935
0
ARC
8
DEFAULT_255_1_234
10
18.7070832
20
0.026683
40
0.3693984
50
134.5302688
51
161.6210873
0
ARC
8
DEFAULT_255_1_234
10
18.872402
20
-0.0316105
40
0.5446739
50
161.2849839
51
174.2076652
0
ARC
8
DEFAULT_255_1_234
10
19.0130957
20
-0.0510213
40
0.6866274
50
173.7810589
51
174.9254635
0
ARC
8
DEFAULT_255_1_234
10
18.5580789
20
-0.1893161
40
0.3033419
50
95.8330959
51
138.9954921
0
ARC
8
DEFAULT_255_1_234
10
18.5804145
20
-0.3171625
40
0.4328947
50
89.8753725
51
97.0544009
0
ARC
8
DEFAULT_255_1_234
10
18.5851611
20
-0.2336252
40
0.3493769
50
71.6407809
51
90.6240094
0
ARC
8
DEFAULT_255_1_234
10
18.6002185
20
-0.1781918
40
0.2920396
50
39.6367836
51
71.019018
0
ARC
8
DEFAULT_255_1_234
10
18.5365658
20
-0.2332002
40
0.3761538
50
10.658731
51
39.9043955
0
ARC
8
DEFAULT_255_1_234
10
18.3817741
20
-0.2668314
40
0.5345136
50
359.682601
51
11.132623
0
ARC
8
DEFAULT_255_1_234
10
18.3777872
20
-0.273899
40
0.5385081
50
347.2486944
51
0.4369317
0
ARC
8
DEFAULT_255_1_234
10
18.5445349
20
-0.3140193
40
0.3670249
50
318.1409698
51
347.6118597
0
ARC
8
DEFAULT_255_1_234
10
18.5770342
20
-0.3407298
40
0.3250007
50
275.6342139
51
317.8248465
0
ARC
8
DEFAULT_255_1_234
10
18.5549453
20
-0.2107781
40
0.4565864
50
269.8874292
51
276.7917694
0
ARC
8
DEFAULT_255_1_234
10
18.5494524
20
-0.3133257
40
0.3540676
50
246.9140195
51
270.7437342
0
ARC
8
DEFAULT_255_1_234
10
18.5500914
20
-0.3275616
40
0.3412781
50
218.1665114
51
245.878116
0
ARC
8
DEFAULT_255_1_234
10
18.6380375
20
-0.2539721
40
0.455911
50
191.4115814
51
218.6077802
0
ARC
8
DEFAULT_255_1_234
10
18.8318464
20
-0.2105167
40
0.6545001
50
179.6345085
51
191.7836486
0
ARC
8
DEFAULT_255_1_234
10
19.3900801
20
-0.1426303
40
1.2127388
50
171.4525249
51
180.3158839
0
ARC
8
DEFAULT_255_1_234
10
18.9505676
20
-0.0742392
40
0.7679464
50
157.9802646
51
171.6246686
0
ARC
8
DEFAULT_255_1_234
10
18.7291697
20
0.0140421
40
0.5296008
50
141.4298019
51
157.854097
0
ARC
8
DEFAULT_255_1_234
10
18.6650018
20
0.0594381
40
0.4511509
50
102.8715806
51
140.8564722
0
ARC
8
DEFAULT_255_1_234
10
18.7297633
20
-0.1845448
40
0.7034845
50
90.3778349
51
103.5869322
0
ARC
8
DEFAULT_255_1_234
10
18.555941
20
-0.245027
40
0.2370698
50
89.8751008
51
126.2071704
0
ARC
8
DEFAULT_255_1_234
10
18.5605199
20
-0.2604697
40
0.2522934
50
124.9745049
51
144.895901
0
ARC
8
DEFAULT_255_1_234
10
18.542939
20
-0.246144
40
0.2296779
50
145.2974905
51
160.2660252
0
ARC
8
DEFAULT_255_1_234
10
18.8501929
20
-0.2263929
40
0.5234525
50
179.6514266
51
190.2855912
0
ARC
8
DEFAULT_255_1_234
10
18.6808066
20
-0.2583214
40
0.3510893
50
190.0945431
51
207.5098196
0
ARC
8
DEFAULT_255_1_234
10
18.6242336
20
-0.2852377
40
0.288489
50
207.9583163
51
216.3251085
0
ARC
8
DEFAULT_255_1_234
10
18.5902444
20
-0.3131895
40
0.2445587
50
215.7661442
51
232.5456785
0
ARC
8
DEFAULT_255_1_234
10
18.5519427
20
-0.3618518
40
0.1826382
50
232.8005391
51
270.6605633
0
ARC
8
DEFAULT_255_1_234
10
18.5565127
20
-0.3254388
40
0.2190529
50
269.35537
51
288.4744281
0
ARC
8
DEFAULT_255_1_234
10
18.5658025
20
-0.3603882
40
0.1829749
50
289.1833337
51
322.9683818
0
ARC
8
DEFAULT_255_1_234
10
18.5046547
20
-0.3121609
40
0.2608399
50
322.6007884
51
346.5182367
0
ARC
8
DEFAULT_255_1_234
10
18.3889143
20
-0.2826384
40
0.3802777
50
346.2582162
51
358.7741648
0
ARC
8
DEFAULT_255_1_234
10
18.2870812
20
-0.2771035
40
0.4822176
50
358.3755224
51
0.0098023
0
ARC
8
DEFAULT_255_1_234
10
18.3626999
20
-0.2743343
40
0.4066078
50
359.6214041
51
11.2839074
0
ARC
8
DEFAULT_255_1_234
10
18.4904146
20
-0.2476934
40
0.2761514
50
11.0482309
51
31.8146458
0
ARC
8
DEFAULT_255_1_234
10
18.5213189
20
-0.2309416
40
0.2410679
50
32.3035391
51
38.082671
0
ARC
8
DEFAULT_255_1_234
10
18.5633849
20
-0.1928338
40
0.1844966
50
36.825067
51
85.7415724
0
ARC
8
DEFAULT_255_1_234
10
18.5566682
20
-0.2428699
40
0.2349122
50
85.0140713
51
90.0513278
0
LINE
8
DEFAULT_255_1_234
10
11.487623
20
197.4957663
11
11.6426355
21
197.4957663
0
LINE
8
DEFAULT_255_1_234
10
10.7422777
20
197.6547947
11
10.7422777
21
197.7672391
0
LINE
8
DEFAULT_255_1_234
10
11.6426355
20
197.9182357
11
11.487623
21
197.9182357
0
LINE
8
DEFAULT_255_1_234
10
10.8972902
20
197.7632232
11
10.8972902
21
197.6499757
0
ARC
8
DEFAULT_255_1_234
10
11.0945742
20
197.5554846
40
0.5513052
50
340.1774281
51
353.7814284
0
ARC
8
DEFAULT_255_1_234
10
11.2517095
20
197.4969582
40
0.3836379
50
311.4558989
51
340.4421614
0
ARC
8
DEFAULT_255_1_234
10
11.2483763
20
197.5080528
40
0.3941894
50
282.4333181
51
310.7513653
0
ARC
8
DEFAULT_255_1_234
10
11.2044502
20
197.6895679
40
0.5809175
50
269.9358511
51
282.809604
0
ARC
8
DEFAULT_255_1_234
10
11.1992568
20
197.8353212
40
0.7266847
50
270.0021091
51
270.3581957
0
ARC
8
DEFAULT_255_1_234
10
11.1939985
20
197.5752585
40
0.4666519
50
250.7884749
51
270.6489167
0
ARC
8
DEFAULT_255_1_234
10
11.177182
20
197.5115319
40
0.4009729
50
219.3627325
51
250.0611886
0
ARC
8
DEFAULT_255_1_234
10
11.2601031
20
197.5820042
40
0.5097822
50
193.5479632
51
219.5756669
0
ARC
8
DEFAULT_255_1_234
10
11.4972652
20
197.6435919
40
0.7547848
50
181.1218675
51
193.87563
0
ARC
8
DEFAULT_255_1_234
10
11.7042833
20
197.654658
40
0.9620055
50
179.9918545
51
181.5394234
0
ARC
8
DEFAULT_255_1_234
10
11.5191935
20
197.7709788
40
0.7769248
50
169.5837241
51
180.2757934
0
ARC
8
DEFAULT_255_1_234
10
11.3354873
20
197.8049229
40
0.590109
50
155.0365899
51
169.6003176
0
ARC
8
DEFAULT_255_1_234
10
11.2219337
20
197.8596677
40
0.4640625
50
136.783148
51
155.2472683
0
ARC
8
DEFAULT_255_1_234
10
11.1829814
20
197.8927562
40
0.4130255
50
121.7633186
51
136.428115
0
ARC
8
DEFAULT_255_1_234
10
11.1964776
20
197.8678227
40
0.4413323
50
95.6459699
51
121.5490577
0
ARC
8
DEFAULT_255_1_234
10
11.2122058
20
197.7569949
40
0.55319
50
89.924208
51
96.1377933
0
ARC
8
DEFAULT_255_1_234
10
11.2172491
20
197.7688542
40
0.5413475
50
76.6779277
51
90.4563316
0
ARC
8
DEFAULT_255_1_234
10
11.2566114
20
197.9279114
40
0.3775041
50
47.485847
51
76.9287264
0
ARC
8
DEFAULT_255_1_234
10
11.2419087
20
197.9179159
40
0.3948286
50
16.5424086
51
46.8933463
0
ARC
8
DEFAULT_255_1_234
10
11.0811244
20
197.8650861
40
0.564021
50
5.4072051
51
17.0365086
0
ARC
8
DEFAULT_255_1_234
10
10.9372261
20
197.8419679
40
0.5556559
50
7.8891745
51
15.9239216
0
ARC
8
DEFAULT_255_1_234
10
11.1359274
20
197.8996631
40
0.3487515
50
15.7653144
51
27.9410532
0
ARC
8
DEFAULT_255_1_234
10
11.2463492
20
197.958779
40
0.2235026
50
27.8166557
51
46.4008329
0
ARC
8
DEFAULT_255_1_234
10
11.2513135
20
197.9582082
40
0.2205286
50
47.4371857
51
75.0698205
0
ARC
8
DEFAULT_255_1_234
10
11.2204529
20
197.8507765
40
0.3322915
50
74.7008593
51
87.8124495
0
ARC
8
DEFAULT_255_1_234
10
11.2131217
20
197.7451844
40
0.4380987
50
87.3814673
51
90.0240855
0
ARC
8
DEFAULT_255_1_234
10
11.209276
20
197.8629291
40
0.3203749
50
89.3451631
51
108.5745436
0
ARC
8
DEFAULT_255_1_234
10
11.1955865
20
197.9142908
40
0.2673494
50
109.2998449
51
143.3037509
0
ARC
8
DEFAULT_255_1_234
10
11.2717938
20
197.8556881
40
0.3634757
50
143.0753173
51
163.1916937
0
ARC
8
DEFAULT_255_1_234
10
11.4669666
20
197.7940967
40
0.5681262
50
162.9373603
51
174.6208611
0
ARC
8
DEFAULT_255_1_234
10
11.7295708
20
197.765301
40
0.8322832
50
174.3419979
51
180.1430411
0
ARC
8
DEFAULT_255_1_234
10
11.6364864
20
197.6458698
40
0.7392076
50
179.6817502
51
189.150529
0
ARC
8
DEFAULT_255_1_234
10
11.3864112
20
197.604219
40
0.4856932
50
188.9910863
51
203.5773039
0
ARC
8
DEFAULT_255_1_234
10
11.2784445
20
197.5594211
40
0.3688271
50
203.9077269
51
215.1312379
0
ARC
8
DEFAULT_255_1_234
10
11.1861539
20
197.4878941
40
0.2522457
50
213.9071664
51
263.8849284
0
ARC
8
DEFAULT_255_1_234
10
11.1986868
20
197.5663518
40
0.3316174
50
263.1758525
51
270.1031083
0
ARC
8
DEFAULT_255_1_234
10
11.201896
20
197.6910365
40
0.4563091
50
269.6719807
51
279.0609165
0
ARC
8
DEFAULT_255_1_234
10
11.2285728
20
197.5297907
40
0.2928759
50
278.8750225
51
293.6346586
0
ARC
8
DEFAULT_255_1_234
10
11.2605936
20
197.45459
40
0.2111472
50
293.8553404
51
310.0518804
0
ARC
8
DEFAULT_255_1_234
10
11.261079
20
197.4483516
40
0.2060917
50
311.0646779
51
332.0108348
0
ARC
8
DEFAULT_255_1_234
10
11.1418517
20
197.5140978
40
0.3422352
50
331.6588543
51
343.2878891
0
ARC
8
DEFAULT_255_1_234
10
10.9356032
20
197.5774798
40
0.5580003
50
343.1446044
51
351.010618
0
ARC
8
DEFAULT_255_1_234
10
10.7814678
20
197.6055871
40
0.7146438
50
350.7157277
51
351.1602153
0
LINE
8
DEFAULT_255_1_234
10
12.628933
20
197.9559849
11
12.4739205
21
197.9559849
0
LINE
8
DEFAULT_255_1_234
10
11.7815846
20
197.4636394
11
11.9365972
21
197.4636394
0
ARC
8
DEFAULT_255_1_234
10
12.5398017
20
198.8506768
40
1.252368
50
248.9199003
51
254.1439814
0
ARC
8
DEFAULT_255_1_234
10
12.3717512
20
198.4180234
40
0.788226
50
241.633709
51
249.0064503
0
ARC
8
DEFAULT_255_1_234
10
12.2188907
20
198.1379317
40
0.4691427
50
230.498225
51
241.8087113
0
ARC
8
DEFAULT_255_1_234
10
12.1404481
20
198.0379906
40
0.3421437
50
227.4064532
51
229.9881192
0
ARC
8
DEFAULT_255_1_234
10
12.0917002
20
197.9904088
40
0.2741476
50
200.6781896
51
228.1763934
0
ARC
8
DEFAULT_255_1_234
10
12.0989312
20
197.9889077
40
0.2804109
50
179.5061581
51
199.8694617
0
ARC
8
DEFAULT_255_1_234
10
12.0980064
20
197.996321
40
0.2795204
50
132.4834203
51
181.0242172
0
ARC
8
DEFAULT_255_1_234
10
12.1575646
20
197.9400704
40
0.3612768
50
129.2532479
51
133.4242687
0
ARC
8
DEFAULT_255_1_234
10
12.1722096
20
197.9180965
40
0.3875675
50
101.98776
51
128.8742646
0
ARC
8
DEFAULT_255_1_234
10
12.2120706
20
197.7459741
40
0.5642249
50
89.5906553
51
102.3169264
0
ARC
8
DEFAULT_255_1_234
10
12.2191199
20
197.7778148
40
0.5323783
50
77.2360837
51
90.3248275
0
ARC
8
DEFAULT_255_1_234
10
12.2398278
20
197.87454
40
0.4334697
50
63.837784
51
77.0809408
0
ARC
8
DEFAULT_255_1_234
10
12.2676039
20
197.9262911
40
0.3747796
50
45.9864267
51
64.1607727
0
ARC
8
DEFAULT_255_1_234
10
12.2936921
20
197.9560866
40
0.3352302
50
32.2747395
51
45.6547121
0
ARC
8
DEFAULT_255_1_234
10
12.3003361
20
197.957988
40
0.328603
50
359.6507365
51
32.6130309
0
ARC
8
DEFAULT_255_1_234
10
12.2060457
20
197.958466
40
0.2678863
50
359.469343
51
14.9832209
0
ARC
8
DEFAULT_255_1_234
10
12.2765519
20
197.9773539
40
0.1948938
50
14.9781179
51
48.2004265
0
ARC
8
DEFAULT_255_1_234
10
12.2601163
20
197.9566983
40
0.2212521
50
48.5927837
51
74.1241538
0
ARC
8
DEFAULT_255_1_234
10
12.2267653
20
197.8466248
40
0.3362561
50
73.7888341
51
86.6652678
0
ARC
8
DEFAULT_255_1_234
10
12.2165218
20
197.7258881
40
0.4573953
50
86.2640471
51
90.0526343
0
ARC
8
DEFAULT_255_1_234
10
12.2136931
20
197.7654192
40
0.4178709
50
89.6697524
51
99.2309573
0
ARC
8
DEFAULT_255_1_234
10
12.1894382
20
197.9098964
40
0.2713749
50
99.069534
51
113.7658566
0
ARC
8
DEFAULT_255_1_234
10
12.1620573
20
197.9744677
40
0.2012469
50
114.0401004
51
127.9850673
0
ARC
8
DEFAULT_255_1_234
10
12.1380137
20
198.004073
40
0.1631167
50
127.7287463
51
176.7105154
0
ARC
8
DEFAULT_255_1_234
10
12.2058854
20
197.9939693
40
0.2315392
50
175.1779447
51
180.0581938
0
ARC
8
DEFAULT_255_1_234
10
12.1215701
20
197.9927428
40
0.1472271
50
179.6142195
51
228.1246017
0
ARC
8
DEFAULT_255_1_234
10
12.165737
20
198.0336308
40
0.2072299
50
226.5779593
51
230.8800004
0
ARC
8
DEFAULT_255_1_234
10
12.2128448
20
198.0961636
40
0.2854818
50
231.4635071
51
241.9260842
0
ARC
8
DEFAULT_255_1_234
10
12.3325626
20
198.31648
40
0.53622
50
241.7178533
51
248.3259551
0
ARC
8
DEFAULT_255_1_234
10
12.4710998
20
198.6597064
40
0.9063478
50
248.2007737
51
252.4528373
0
ARC
8
DEFAULT_255_1_234
10
12.5914723
20
199.0318441
40
1.2974635
50
252.3391078
51
254.3469452
0
ARC
8
DEFAULT_255_1_234
10
11.8372426
20
196.3341148
40
1.5037162
50
71.0197183
51
74.4087047
0
ARC
8
DEFAULT_255_1_234
10
12.0067111
20
196.8233111
40
0.9859993
50
66.1847285
51
71.086374
0
ARC
8
DEFAULT_255_1_234
10
12.1623423
20
197.17372
40
0.6025855
50
59.3536294
51
66.2691831
0
ARC
8
DEFAULT_255_1_234
10
12.2512076
20
197.3240609
40
0.4279449
50
49.1020879
51
59.3293958
0
ARC
8
DEFAULT_255_1_234
10
12.3330816
20
197.4173834
40
0.3038015
50
32.7919921
51
49.2505539
0
ARC
8
DEFAULT_255_1_234
10
12.3651906
20
197.4402191
40
0.264448
50
31.1181161
51
32.4005348
0
ARC
8
DEFAULT_255_1_234
10
12.3563443
20
197.4366779
40
0.2738556
50
8.1116974
51
30.7958831
0
ARC
8
DEFAULT_255_1_234
10
12.2753111
20
197.4228753
40
0.3560327
50
359.8389159
51
8.4706516
0
ARC
8
DEFAULT_255_1_234
10
12.3378903
20
197.4180137
40
0.2934776
50
337.4731098
51
0.7537279
0
ARC
8
DEFAULT_255_1_234
10
12.3557598
20
197.4160387
40
0.2762607
50
307.5917067
51
336.4315538
0
ARC
8
DEFAULT_255_1_234
10
12.3097426
20
197.4673102
40
0.3449979
50
307.6551545
51
308.4529766
0
ARC
8
DEFAULT_255_1_234
10
12.2867145
20
197.502825
40
0.3871988
50
284.3734338
51
307.1424381
0
ARC
8
DEFAULT_255_1_234
10
12.2371975
20
197.6849932
40
0.5759636
50
272.4382747
51
284.646547
0
ARC
8
DEFAULT_255_1_234
10
12.2245184
20
197.8649893
40
0.7563528
50
269.9708387
51
272.8178037
0
ARC
8
DEFAULT_255_1_234
10
12.2202223
20
197.6611716
40
0.5525489
50
248.2707594
51
270.4055579
0
ARC
8
DEFAULT_255_1_234
10
12.2147964
20
197.6421192
40
0.5328452
50
246.1383403
51
248.0542782
0
ARC
8
DEFAULT_255_1_234
10
12.1729343
20
197.5541843
40
0.4355005
50
233.1670131
51
246.4950969
0
ARC
8
DEFAULT_255_1_234
10
12.1175248
20
197.4793812
40
0.3424126
50
215.3403242
51
233.0843104
0
ARC
8
DEFAULT_255_1_234
10
12.0902679
20
197.4595549
40
0.3087104
50
179.2419209
51
215.2648451
0
ARC
8
DEFAULT_255_1_234
10
12.1670273
20
197.4609666
40
0.2304457
50
179.335461
51
199.1045811
0
ARC
8
DEFAULT_255_1_234
10
12.133795
20
197.4522766
40
0.1962176
50
199.8828939
51
232.7063202
0
ARC
8
DEFAULT_255_1_234
10
12.1810218
20
197.5116788
40
0.2720938
50
232.3738199
51
255.5136649
0
ARC
8
DEFAULT_255_1_234
10
12.2151085
20
197.6360835
40
0.4010747
50
255.2446292
51
267.5320849
0
ARC
8
DEFAULT_255_1_234
10
12.2238708
20
197.7593702
40
0.5246356
50
267.1557994
51
270.0286766
0
ARC
8
DEFAULT_255_1_234
10
12.226648
20
197.714995
40
0.4802668
50
269.7000017
51
278.1660162
0
ARC
8
DEFAULT_255_1_234
10
12.2522485
20
197.5419515
40
0.3053425
50
278.0231263
51
290.625471
0
ARC
8
DEFAULT_255_1_234
10
12.2870172
20
197.4492025
40
0.206291
50
290.6619762
51
307.0370976
0
ARC
8
DEFAULT_255_1_234
10
12.3170562
20
197.4123504
40
0.1587906
50
306.3943566
51
355.3030547
0
ARC
8
DEFAULT_255_1_234
10
12.2658493
20
197.4200113
40
0.2104809
50
354.3660432
51
0.0698737
0
ARC
8
DEFAULT_255_1_234
10
12.2800838
20
197.4222617
40
0.1962563
50
359.417946
51
16.1971788
0
ARC
8
DEFAULT_255_1_234
10
12.3256149
20
197.4347418
40
0.149053
50
16.4723299
51
52.6262157
0
ARC
8
DEFAULT_255_1_234
10
12.2435202
20
197.3263433
40
0.2850296
50
52.7386432
51
62.4979148
0
ARC
8
DEFAULT_255_1_234
10
12.1050279
20
197.0657283
40
0.5801521
50
62.2515216
51
68.1220564
0
ARC
8
DEFAULT_255_1_234
10
11.933019
20
196.6429872
40
1.0365451
50
68.0062803
51
71.8053402
0
ARC
8
DEFAULT_255_1_234
10
11.7534562
20
196.1044758
40
1.6042013
50
71.7183119
51
73.9258742
0
LINE
8
DEFAULT_255_1_234
10
13.1148532
20
197.6821026
11
13.1148532
21
197.5608234
0
LINE
8
DEFAULT_255_1_234
10
13.1148532
20
197.5608234
11
12.7229043
21
197.5608234
0
LINE
8
DEFAULT_255_1_234
10
12.7229043
20
197.5608234
11
12.7229043
21
197.6821026
0
LINE
8
DEFAULT_255_1_234
10
12.7229043
20
197.6821026
11
13.1148532
21
197.6821026
0
LINE
8
DEFAULT_255_1_234
10
14.0585824
20
197.9559849
11
13.9035699
21
197.9559849
0
LINE
8
DEFAULT_255_1_234
10
13.211234
20
197.4636394
11
13.3662466
21
197.4636394
0
ARC
8
DEFAULT_255_1_234
10
13.9694512
20
198.8506768
40
1.252368
50
248.9199003
51
254.1439814
0
ARC
8
DEFAULT_255_1_234
10
13.8014006
20
198.4180234
40
0.788226
50
241.633709
51
249.0064503
0
ARC
8
DEFAULT_255_1_234
10
13.6485401
20
198.1379317
40
0.4691427
50
230.498225
51
241.8087113
0
ARC
8
DEFAULT_255_1_234
10
13.5700975
20
198.0379906
40
0.3421437
50
227.4064532
51
229.9881192
0
ARC
8
DEFAULT_255_1_234
10
13.5213496
20
197.9904088
40
0.2741476
50
200.6781896
51
228.1763934
0
ARC
8
DEFAULT_255_1_234
10
13.5285806
20
197.9889077
40
0.2804109
50
179.5061581
51
199.8694617
0
ARC
8
DEFAULT_255_1_234
10
13.5276558
20
197.996321
40
0.2795204
50
132.4834203
51
181.0242172
0
ARC
8
DEFAULT_255_1_234
10
13.587214
20
197.9400704
40
0.3612768
50
129.2532479
51
133.4242687
0
ARC
8
DEFAULT_255_1_234
10
13.601859
20
197.9180965
40
0.3875675
50
101.98776
51
128.8742646
0
ARC
8
DEFAULT_255_1_234
10
13.6417201
20
197.7459741
40
0.5642249
50
89.5906553
51
102.3169264
0
ARC
8
DEFAULT_255_1_234
10
13.6487693
20
197.7778148
40
0.5323783
50
77.2360837
51
90.3248275
0
ARC
8
DEFAULT_255_1_234
10
13.6694772
20
197.87454
40
0.4334697
50
63.837784
51
77.0809408
0
ARC
8
DEFAULT_255_1_234
10
13.6972534
20
197.9262911
40
0.3747796
50
45.9864267
51
64.1607727
0
ARC
8
DEFAULT_255_1_234
10
13.7233415
20
197.9560866
40
0.3352302
50
32.2747395
51
45.6547121
0
ARC
8
DEFAULT_255_1_234
10
13.7299856
20
197.957988
40
0.328603
50
359.6507365
51
32.6130309
0
ARC
8
DEFAULT_255_1_234
10
13.6356951
20
197.958466
40
0.2678863
50
359.469343
51
14.9832209
0
ARC
8
DEFAULT_255_1_234
10
13.7062013
20
197.9773539
40
0.1948938
50
14.9781179
51
48.2004265
0
ARC
8
DEFAULT_255_1_234
10
13.6897657
20
197.9566983
40
0.2212521
50
48.5927837
51
74.1241538
0
ARC
8
DEFAULT_255_1_234
10
13.6564147
20
197.8466248
40
0.3362561
50
73.7888341
51
86.6652678
0
ARC
8
DEFAULT_255_1_234
10
13.6461713
20
197.7258881
40
0.4573953
50
86.2640471
51
90.0526343
0
ARC
8
DEFAULT_255_1_234
10
13.6433425
20
197.7654192
40
0.4178709
50
89.6697524
51
99.2309573
0
ARC
8
DEFAULT_255_1_234
10
13.6190876
20
197.9098964
40
0.2713749
50
99.069534
51
113.7658566
0
ARC
8
DEFAULT_255_1_234
10
13.5917067
20
197.9744677
40
0.2012469
50
114.0401004
51
127.9850673
0
ARC
8
DEFAULT_255_1_234
10
13.5676631
20
198.004073
40
0.1631167
50
127.7287463
51
176.7105154
0
ARC
8
DEFAULT_255_1_234
10
13.6355348
20
197.9939693
40
0.2315392
50
175.1779447
51
180.0581938
0
ARC
8
DEFAULT_255_1_234
10
13.5512195
20
197.9927428
40
0.1472271
50
179.6142195
51
228.1246017
0
ARC
8
DEFAULT_255_1_234
10
13.5953864
20
198.0336308
40
0.2072299
50
226.5779593
51
230.8800004
0
ARC
8
DEFAULT_255_1_234
10
13.6424943
20
198.0961636
40
0.2854818
50
231.4635071
51
241.9260842
0
ARC
8
DEFAULT_255_1_234
10
13.7622121
20
198.31648
40
0.53622
50
241.7178533
51
248.3259551
0
ARC
8
DEFAULT_255_1_234
10
13.9007492
20
198.6597064
40
0.9063478
50
248.2007737
51
252.4528373
0
ARC
8
DEFAULT_255_1_234
10
14.0211217
20
199.0318441
40
1.2974635
50
252.3391078
51
254.3469452
0
ARC
8
DEFAULT_255_1_234
10
13.266892
20
196.3341148
40
1.5037162
50
71.0197183
51
74.4087047
0
ARC
8
DEFAULT_255_1_234
10
13.4363605
20
196.8233111
40
0.9859993
50
66.1847285
51
71.086374
0
ARC
8
DEFAULT_255_1_234
10
13.5919918
20
197.17372
40
0.6025855
50
59.3536294
51
66.2691831
0
ARC
8
DEFAULT_255_1_234
10
13.680857
20
197.3240609
40
0.4279449
50
49.1020879
51
59.3293958
0
ARC
8
DEFAULT_255_1_234
10
13.762731
20
197.4173834
40
0.3038015
50
32.7919921
51
49.2505539
0
ARC
8
DEFAULT_255_1_234
10
13.79484
20
197.4402191
40
0.264448
50
31.1181161
51
32.4005348
0
ARC
8
DEFAULT_255_1_234
10
13.7859938
20
197.4366779
40
0.2738556
50
8.1116974
51
30.7958831
0
ARC
8
DEFAULT_255_1_234
10
13.7049606
20
197.4228753
40
0.3560327
50
359.8389159
51
8.4706516
0
ARC
8
DEFAULT_255_1_234
10
13.7675397
20
197.4180137
40
0.2934776
50
337.4731098
51
0.7537279
0
ARC
8
DEFAULT_255_1_234
10
13.7854092
20
197.4160387
40
0.2762607
50
307.5917067
51
336.4315538
0
ARC
8
DEFAULT_255_1_234
10
13.739392
20
197.4673102
40
0.3449979
50
307.6551545
51
308.4529766
0
ARC
8
DEFAULT_255_1_234
10
13.7163639
20
197.502825
40
0.3871988
50
284.3734338
51
307.1424381
0
ARC
8
DEFAULT_255_1_234
10
13.6668469
20
197.6849932
40
0.5759636
50
272.4382747
51
284.646547
0
ARC
8
DEFAULT_255_1_234
10
13.6541678
20
197.8649893
40
0.7563528
50
269.9708387
51
272.8178037
0
ARC
8
DEFAULT_255_1_234
10
13.6498717
20
197.6611716
40
0.5525489
50
248.2707594
51
270.4055579
0
ARC
8
DEFAULT_255_1_234
10
13.6444458
20
197.6421192
40
0.5328452
50
246.1383403
51
248.0542782
0
ARC
8
DEFAULT_255_1_234
10
13.6025837
20
197.5541843
40
0.4355005
50
233.1670131
51
246.4950969
0
ARC
8
DEFAULT_255_1_234
10
13.5471742
20
197.4793812
40
0.3424126
50
215.3403242
51
233.0843104
0
ARC
8
DEFAULT_255_1_234
10
13.5199174
20
197.4595549
40
0.3087104
50
179.2419209
51
215.2648451
0
ARC
8
DEFAULT_255_1_234
10
13.5966767
20
197.4609666
40
0.2304457
50
179.335461
51
199.1045811
0
ARC
8
DEFAULT_255_1_234
10
13.5634444
20
197.4522766
40
0.1962176
50
199.8828939
51
232.7063202
0
ARC
8
DEFAULT_255_1_234
10
13.6106712
20
197.5116788
40
0.2720938
50
232.3738199
51
255.5136649
0
ARC
8
DEFAULT_255_1_234
10
13.6447579
20
197.6360835
40
0.4010747
50
255.2446292
51
267.5320849
0
ARC
8
DEFAULT_255_1_234
10
13.6535202
20
197.7593702
40
0.5246356
50
267.1557994
51
270.0286766
0
ARC
8
DEFAULT_255_1_234
10
13.6562975
20
197.714995
40
0.4802668
50
269.7000017
51
278.1660162
0
ARC
8
DEFAULT_255_1_234
10
13.6818979
20
197.5419515
40
0.3053425
50
278.0231263
51
290.625471
0
ARC
8
DEFAULT_255_1_234
10
13.7166666
20
197.4492025
40
0.206291
50
290.6619762
51
307.0370976
0
ARC
8
DEFAULT_255_1_234
10
13.7467056
20
197.4123504
40
0.1587906
50
306.3943566
51
355.3030547
0
ARC
8
DEFAULT_255_1_234
10
13.6954987
20
197.4200113
40
0.2104809
50
354.3660432
51
0.0698737
0
ARC
8
DEFAULT_255_1_234
10
13.7097332
20
197.4222617
40
0.1962563
50
359.417946
51
16.1971788
0
ARC
8
DEFAULT_255_1_234
10
13.7552643
20
197.4347418
40
0.149053
50
16.4723299
51
52.6262157
0
ARC
8
DEFAULT_255_1_234
10
13.6731697
20
197.3263433
40
0.2850296
50
52.7386432
51
62.4979148
0
ARC
8
DEFAULT_255_1_234
10
13.5346773
20
197.0657283
40
0.5801521
50
62.2515216
51
68.1220564
0
ARC
8
DEFAULT_255_1_234
10
13.3626684
20
196.6429872
40
1.0365451
50
68.0062803
51
71.8053402
0
ARC
8
DEFAULT_255_1_234
10
13.1831056
20
196.1044758
40
1.6042013
50
71.7183119
51
73.9258742
0
LINE
8
DEFAULT_255_1_234
10
14.1975315
20
197.5351218
11
14.1975315
21
197.5624297
0
LINE
8
DEFAULT_255_1_234
10
14.9348451
20
197.5784932
11
14.9348451
21
197.5166488
0
LINE
8
DEFAULT_255_1_234
10
14.9348451
20
197.5166488
11
14.3461187
21
197.5166488
0
LINE
8
DEFAULT_255_1_234
10
14.832842
20
197.3471792
11
14.9236006
21
197.2764999
0
LINE
8
DEFAULT_255_1_234
10
14.3509377
20
197.6387313
11
14.7862579
21
197.6387313
0
LINE
8
DEFAULT_255_1_234
10
14.7862579
20
197.6387313
11
14.7862579
21
197.6499757
0
ARC
8
DEFAULT_255_1_234
10
14.591468
20
197.5462332
40
0.4376191
50
252.3266134
51
270.5810217
0
ARC
8
DEFAULT_255_1_234
10
14.5709769
20
197.4721644
40
0.3608374
50
223.3000567
51
251.8561855
0
ARC
8
DEFAULT_255_1_234
10
14.592113
20
197.4926937
40
0.3902993
50
190.9374509
51
223.3654032
0
ARC
8
DEFAULT_255_1_234
10
14.7646102
20
197.5316885
40
0.5670891
50
179.6531105
51
191.4989439
0
ARC
8
DEFAULT_255_1_234
10
14.7768114
20
197.5656417
40
0.5792888
50
167.4007466
51
180.3176909
0
ARC
8
DEFAULT_255_1_234
10
14.6716176
20
197.5878885
40
0.471777
50
154.1835823
51
167.250763
0
ARC
8
DEFAULT_255_1_234
10
14.6084643
20
197.6211417
40
0.4004528
50
134.3149965
51
154.5315275
0
ARC
8
DEFAULT_255_1_234
10
14.5867138
20
197.6402228
40
0.371612
50
122.8616532
51
133.9707695
0
ARC
8
DEFAULT_255_1_234
10
14.5763713
20
197.6624703
40
0.3473289
50
89.8249009
51
123.4199222
0
ARC
8
DEFAULT_255_1_234
10
14.5813754
20
197.5977967
40
0.4120197
50
74.7876118
51
90.5482747
0
ARC
8
DEFAULT_255_1_234
10
14.6107497
20
197.706303
40
0.2996077
50
39.8178249
51
74.7633718
0
ARC
8
DEFAULT_255_1_234
10
14.5594817
20
197.6663351
40
0.3645855
50
16.8990863
51
39.4829761
0
ARC
8
DEFAULT_255_1_234
10
14.3700113
20
197.6056526
40
0.5635218
50
4.9636328
51
17.2026414
0
ARC
8
DEFAULT_255_1_234
10
14.1282184
20
197.580134
40
0.8066286
50
359.8834553
51
5.2834307
0
ARC
8
DEFAULT_255_1_234
10
14.7319708
20
197.5232803
40
0.3859091
50
180.9846213
51
194.9401313
0
ARC
8
DEFAULT_255_1_234
10
14.6269986
20
197.4945849
40
0.2770883
50
194.80314
51
222.0412631
0
ARC
8
DEFAULT_255_1_234
10
14.5965868
20
197.4644116
40
0.2343055
50
221.5417084
51
268.8614402
0
ARC
8
DEFAULT_255_1_234
10
14.6038862
20
197.5320686
40
0.3021528
50
267.732405
51
270.0097136
0
ARC
8
DEFAULT_255_1_234
10
14.6056672
20
197.5522105
40
0.3222994
50
269.6924892
51
280.4117579
0
ARC
8
DEFAULT_255_1_234
10
14.6233079
20
197.4603193
40
0.2287344
50
280.2255091
51
298.6338936
0
ARC
8
DEFAULT_255_1_234
10
14.6349871
20
197.4359223
40
0.2017294
50
299.0430333
51
300.4643464
0
ARC
8
DEFAULT_255_1_234
10
14.5669877
20
197.5493038
40
0.3339357
50
300.6577328
51
322.0378878
0
ARC
8
DEFAULT_255_1_234
10
14.5319416
20
197.5797021
40
0.3802736
50
321.6750233
51
322.3046845
0
ARC
8
DEFAULT_255_1_234
10
14.6250377
20
197.463037
40
0.3520454
50
276.9728461
51
328.0035423
0
ARC
8
DEFAULT_255_1_234
10
14.597343
20
197.6110841
40
0.5024498
50
269.8361028
51
278.0581756
0
ARC
8
DEFAULT_255_1_234
10
14.5746167
20
197.6855757
40
0.202159
50
89.2018686
51
117.2851756
0
ARC
8
DEFAULT_255_1_234
10
14.5799336
20
197.6813752
40
0.2083484
50
118.0551165
51
137.4540413
0
ARC
8
DEFAULT_255_1_234
10
14.6174076
20
197.6473304
40
0.2589774
50
137.5109581
51
158.8516286
0
ARC
8
DEFAULT_255_1_234
10
14.7311912
20
197.6014074
40
0.38167
50
158.5845963
51
170.1721436
0
ARC
8
DEFAULT_255_1_234
10
14.8481301
20
197.5781823
40
0.5008657
50
169.8376422
51
173.0566086
0
ARC
8
DEFAULT_255_1_234
10
14.3784375
20
197.6292509
40
0.4083467
50
2.9091802
51
12.8847116
0
ARC
8
DEFAULT_255_1_234
10
14.5155052
20
197.6615101
40
0.2675383
50
12.6957781
51
28.6404489
0
ARC
8
DEFAULT_255_1_234
10
14.5696722
20
197.6895458
40
0.2065654
50
29.0169854
51
41.1487595
0
ARC
8
DEFAULT_255_1_234
10
14.5899508
20
197.7072003
40
0.1796786
50
41.1646065
51
85.0013516
0
ARC
8
DEFAULT_255_1_234
10
14.5778604
20
197.6337431
40
0.2539726
50
83.7280015
51
90.0964893
0
LINE
8
DEFAULT_255_1_234
10
15.5267842
20
197.9985531
11
15.5267842
21
197.8604072
0
LINE
8
DEFAULT_255_1_234
10
15.2553114
20
197.7415375
11
15.2553114
21
197.1247
0
LINE
8
DEFAULT_255_1_234
10
15.2553114
20
197.1247
11
15.1067243
21
197.1247
0
LINE
8
DEFAULT_255_1_234
10
15.1067243
20
197.1247
11
15.1067243
21
197.9937341
0
LINE
8
DEFAULT_255_1_234
10
15.1067243
20
197.9937341
11
15.2512956
21
197.9937341
0
LINE
8
DEFAULT_255_1_234
10
15.2512956
20
197.9937341
11
15.2537051
21
197.8933374
0
ARC
8
DEFAULT_255_1_234
10
15.4601247
20
197.4544342
40
0.4114092
50
80.6754243
51
86.8932892
0
ARC
8
DEFAULT_255_1_234
10
15.4540782
20
197.35767
40
0.5083596
50
86.8038578
51
90.0431435
0
ARC
8
DEFAULT_255_1_234
10
15.4503762
20
197.6033866
40
0.2626638
50
89.2759698
51
106.6213787
0
ARC
8
DEFAULT_255_1_234
10
15.4299326
20
197.677683
40
0.1856317
50
107.1346045
51
157.6458115
0
ARC
8
DEFAULT_255_1_234
10
15.4990928
20
197.6393311
40
0.2643398
50
155.6586782
51
157.2539184
0
ARC
8
DEFAULT_255_1_234
10
15.478613
20
197.7562157
40
0.2634121
50
127.8165941
51
148.6302098
0
ARC
8
DEFAULT_255_1_234
10
15.4532599
20
197.7822218
40
0.2273596
50
91.3329982
51
126.7875809
0
ARC
8
DEFAULT_255_1_234
10
15.4608539
20
197.7107195
40
0.299078
50
89.986594
51
92.4688449
0
ARC
8
DEFAULT_255_1_234
10
15.4616934
20
197.7382078
40
0.2715908
50
85.3589899
51
90.1623399
0
ARC
8
DEFAULT_255_1_234
10
15.470145
20
197.8386164
40
0.1708278
50
78.401942
51
85.4594656
0
ARC
8
DEFAULT_255_1_234
10
15.4846334
20
197.9077236
40
0.1002194
50
67.7858312
51
78.5728455
0
ARC
8
DEFAULT_255_1_234
10
15.4954187
20
197.9356887
40
0.0702548
50
63.4835954
51
67.3062642
0
LINE
8
DEFAULT_255_1_234
10
15.8247617
20
197.9937341
11
15.8247617
21
197.1247
0
LINE
8
DEFAULT_255_1_234
10
15.8247617
20
197.1247
11
15.6761745
21
197.1247
0
LINE
8
DEFAULT_255_1_234
10
15.6761745
20
197.1247
11
15.6761745
21
197.9937341
0
LINE
8
DEFAULT_255_1_234
10
15.6761745
20
197.9937341
11
15.8247617
21
197.9937341
0
ARC
8
DEFAULT_255_1_234
10
15.7619894
20
198.2251889
40
0.097867
50
161.415052
51
180.5526306
0
ARC
8
DEFAULT_255_1_234
10
15.7495672
20
198.2286077
40
0.0850062
50
138.1827368
51
160.9307106
0
ARC
8
DEFAULT_255_1_234
10
15.7385618
20
198.2381588
40
0.0704362
50
104.6368899
51
138.0039868
0
ARC
8
DEFAULT_255_1_234
10
15.7492772
20
198.2014963
40
0.1086221
50
92.0600725
51
105.2189128
0
ARC
8
DEFAULT_255_1_234
10
15.7516121
20
198.1672117
40
0.1429728
50
89.9756393
51
92.5012496
0
ARC
8
DEFAULT_255_1_234
10
15.752614
20
198.1897731
40
0.1204151
50
78.0235316
51
90.4478182
0
ARC
8
DEFAULT_255_1_234
10
15.7618232
20
198.2311295
40
0.0780493
50
55.051506
51
78.3369085
0
ARC
8
DEFAULT_255_1_234
10
15.7668506
20
198.2395711
40
0.0682538
50
42.0501187
51
54.4513741
0
ARC
8
DEFAULT_255_1_234
10
15.7533373
20
198.2271798
40
0.0865878
50
1.7497075
51
42.1496013
0
ARC
8
DEFAULT_255_1_234
10
15.7278706
20
198.2242738
40
0.1121515
50
359.9852656
51
2.8364544
0
ARC
8
DEFAULT_255_1_234
10
15.7444699
20
198.2233229
40
0.0955566
50
342.1070653
51
0.552888
0
ARC
8
DEFAULT_255_1_234
10
15.7587396
20
198.2193904
40
0.0807713
50
316.7107116
51
341.6516965
0
ARC
8
DEFAULT_255_1_234
10
15.7654433
20
198.2133823
40
0.0717724
50
285.4397031
51
316.5324284
0
ARC
8
DEFAULT_255_1_234
10
15.754435
20
198.2499554
40
0.1099597
50
272.3547054
51
285.8953117
0
ARC
8
DEFAULT_255_1_234
10
15.7517508
20
198.2865048
40
0.1465932
50
269.9695369
51
272.8160237
0
ARC
8
DEFAULT_255_1_234
10
15.7507689
20
198.2645863
40
0.1246779
50
258.8431134
51
270.4153935
0
ARC
8
DEFAULT_255_1_234
10
15.7417732
20
198.2210414
40
0.0802162
50
238.5431189
51
259.1288175
0
ARC
8
DEFAULT_255_1_234
10
15.7349617
20
198.2086856
40
0.0661247
50
222.5062634
51
237.9906969
0
ARC
8
DEFAULT_255_1_234
10
15.7477204
20
198.2202889
40
0.0833707
50
184.1069131
51
222.460413
0
ARC
8
DEFAULT_255_1_234
10
15.7746445
20
198.2241349
40
0.1105176
50
179.9429482
51
185.0960898
0
LINE
8
DEFAULT_255_1_234
10
16.024752
20
197.5351218
11
16.024752
21
197.5624297
0
LINE
8
DEFAULT_255_1_234
10
16.7620655
20
197.5784932
11
16.7620655
21
197.5166488
0
LINE
8
DEFAULT_255_1_234
10
16.7620655
20
197.5166488
11
16.1733391
21
197.5166488
0
LINE
8
DEFAULT_255_1_234
10
16.6600625
20
197.3471792
11
16.7508211
21
197.2764999
0
LINE
8
DEFAULT_255_1_234
10
16.1781582
20
197.6387313
11
16.6134784
21
197.6387313
0
LINE
8
DEFAULT_255_1_234
10
16.6134784
20
197.6387313
11
16.6134784
21
197.6499757
0
ARC
8
DEFAULT_255_1_234
10
16.4186885
20
197.5462332
40
0.4376191
50
252.3266134
51
270.5810217
0
ARC
8
DEFAULT_255_1_234
10
16.3981974
20
197.4721644
40
0.3608374
50
223.3000567
51
251.8561855
0
ARC
8
DEFAULT_255_1_234
10
16.4193334
20
197.4926937
40
0.3902993
50
190.9374509
51
223.3654032
0
ARC
8
DEFAULT_255_1_234
10
16.5918307
20
197.5316885
40
0.5670891
50
179.6531105
51
191.4989439
0
ARC
8
DEFAULT_255_1_234
10
16.6040319
20
197.5656417
40
0.5792888
50
167.4007466
51
180.3176909
0
ARC
8
DEFAULT_255_1_234
10
16.498838
20
197.5878885
40
0.471777
50
154.1835823
51
167.250763
0
ARC
8
DEFAULT_255_1_234
10
16.4356848
20
197.6211417
40
0.4004528
50
134.3149965
51
154.5315275
0
ARC
8
DEFAULT_255_1_234
10
16.4139343
20
197.6402228
40
0.371612
50
122.8616532
51
133.9707695
0
ARC
8
DEFAULT_255_1_234
10
16.4035917
20
197.6624703
40
0.3473289
50
89.8249009
51
123.4199222
0
ARC
8
DEFAULT_255_1_234
10
16.4085958
20
197.5977967
40
0.4120197
50
74.7876118
51
90.5482747
0
ARC
8
DEFAULT_255_1_234
10
16.4379701
20
197.706303
40
0.2996077
50
39.8178249
51
74.7633718
0
ARC
8
DEFAULT_255_1_234
10
16.3867022
20
197.6663351
40
0.3645855
50
16.8990863
51
39.4829761
0
ARC
8
DEFAULT_255_1_234
10
16.1972318
20
197.6056526
40
0.5635218
50
4.9636328
51
17.2026414
0
ARC
8
DEFAULT_255_1_234
10
15.9554388
20
197.580134
40
0.8066286
50
359.8834553
51
5.2834307
0
ARC
8
DEFAULT_255_1_234
10
16.5591913
20
197.5232803
40
0.3859091
50
180.9846213
51
194.9401313
0
ARC
8
DEFAULT_255_1_234
10
16.454219
20
197.4945849
40
0.2770883
50
194.80314
51
222.0412631
0
ARC
8
DEFAULT_255_1_234
10
16.4238072
20
197.4644116
40
0.2343055
50
221.5417084
51
268.8614402
0
ARC
8
DEFAULT_255_1_234
10
16.4311067
20
197.5320686
40
0.3021528
50
267.732405
51
270.0097136
0
ARC
8
DEFAULT_255_1_234
10
16.4328877
20
197.5522105
40
0.3222994
50
269.6924892
51
280.4117579
0
ARC
8
DEFAULT_255_1_234
10
16.4505284
20
197.4603193
40
0.2287344
50
280.2255091
51
298.6338936
0
ARC
8
DEFAULT_255_1_234
10
16.4622076
20
197.4359223
40
0.2017294
50
299.0430333
51
300.4643464
0
ARC
8
DEFAULT_255_1_234
10
16.3942081
20
197.5493038
40
0.3339357
50
300.6577328
51
322.0378878
0
ARC
8
DEFAULT_255_1_234
10
16.359162
20
197.5797021
40
0.3802736
50
321.6750233
51
322.3046845
0
ARC
8
DEFAULT_255_1_234
10
16.4522582
20
197.463037
40
0.3520454
50
276.9728461
51
328.0035423
0
ARC
8
DEFAULT_255_1_234
10
16.4245635
20
197.6110841
40
0.5024498
50
269.8361028
51
278.0581756
0
ARC
8
DEFAULT_255_1_234
10
16.4018372
20
197.6855757
40
0.202159
50
89.2018686
51
117.2851756
0
ARC
8
DEFAULT_255_1_234
10
16.4071541
20
197.6813752
40
0.2083484
50
118.0551165
51
137.4540413
0
ARC
8
DEFAULT_255_1_234
10
16.4446281
20
197.6473304
40
0.2589774
50
137.5109581
51
158.8516286
0
ARC
8
DEFAULT_255_1_234
10
16.5584116
20
197.6014074
40
0.38167
50
158.5845963
51
170.1721436
0
ARC
8
DEFAULT_255_1_234
10
16.6753506
20
197.5781823
40
0.5008657
50
169.8376422
51
173.0566086
0
ARC
8
DEFAULT_255_1_234
10
16.205658
20
197.6292509
40
0.4083467
50
2.9091802
51
12.8847116
0
ARC
8
DEFAULT_255_1_234
10
16.3427256
20
197.6615101
40
0.2675383
50
12.6957781
51
28.6404489
0
ARC
8
DEFAULT_255_1_234
10
16.3968927
20
197.6895458
40
0.2065654
50
29.0169854
51
41.1487595
0
ARC
8
DEFAULT_255_1_234
10
16.4171712
20
197.7072003
40
0.1796786
50
41.1646065
51
85.0013516
0
ARC
8
DEFAULT_255_1_234
10
16.4050809
20
197.6337431
40
0.2539726
50
83.7280015
51
90.0964893
0
LINE
8
DEFAULT_255_1_234
10
17.5804997
20
197.7383248
11
17.4311093
21
197.7383248
0
LINE
8
DEFAULT_255_1_234
10
16.8978019
20
197.3921569
11
17.0463891
21
197.3921569
0
ARC
8
DEFAULT_255_1_234
10
17.3122912
20
197.3566959
40
0.1276617
50
359.3334982
51
18.5871358
0
ARC
8
DEFAULT_255_1_234
10
17.3331549
20
197.3622133
40
0.1061371
50
19.3540742
51
54.6485071
0
ARC
8
DEFAULT_255_1_234
10
17.2827451
20
197.2926919
40
0.1920087
50
54.3827097
51
65.0622807
0
ARC
8
DEFAULT_255_1_234
10
17.2058847
20
197.13099
40
0.3710447
50
64.8282493
51
71.4200025
0
ARC
8
DEFAULT_255_1_234
10
17.1156723
20
196.8663107
40
0.6506741
50
71.3164301
51
75.8006402
0
ARC
8
DEFAULT_255_1_234
10
17.0315543
20
196.5422561
40
0.9854641
50
75.6809531
51
78.0061883
0
ARC
8
DEFAULT_255_1_234
10
17.4764076
20
198.640177
40
1.1591028
50
254.6901892
51
258.0466452
0
ARC
8
DEFAULT_255_1_234
10
17.3725984
20
198.2642781
40
0.7691345
50
249.9010773
51
254.755261
0
ARC
8
DEFAULT_255_1_234
10
17.2722326
20
197.9916982
40
0.478665
50
243.3097214
51
249.9709442
0
ARC
8
DEFAULT_255_1_234
10
17.2093348
20
197.8662778
40
0.3383568
50
234.4047477
51
243.2862168
0
ARC
8
DEFAULT_255_1_234
10
17.1470871
20
197.7803232
40
0.2322322
50
220.8667099
51
234.5493881
0
ARC
8
DEFAULT_255_1_234
10
17.1128812
20
197.7491817
40
0.1859923
50
214.3062465
51
220.5065136
0
ARC
8
DEFAULT_255_1_234
10
17.1102891
20
197.746088
40
0.1821108
50
186.912965
51
213.9618616
0
ARC
8
DEFAULT_255_1_234
10
17.1634986
20
197.7547009
40
0.2359799
50
179.8808832
51
187.4339886
0
ARC
8
DEFAULT_255_1_234
10
17.148012
20
197.7567088
40
0.2204978
50
132.005434
51
180.3942919
0
ARC
8
DEFAULT_255_1_234
10
17.2136733
20
197.6961083
40
0.3095791
50
129.2319861
51
133.5302299
0
ARC
8
DEFAULT_255_1_234
10
17.2190241
20
197.6866928
40
0.3202615
50
100.4410011
51
128.9081242
0
ARC
8
DEFAULT_255_1_234
10
17.2464125
20
197.5581455
40
0.4516583
50
89.6985377
51
100.9026564
0
ARC
8
DEFAULT_255_1_234
10
17.2521167
20
197.5421166
40
0.4676928
50
77.6965325
51
90.4076836
0
ARC
8
DEFAULT_255_1_234
10
17.2852151
20
197.6848413
40
0.3211988
50
50.7276602
51
78.0399361
0
ARC
8
DEFAULT_255_1_234
10
17.3296609
20
197.7366296
40
0.2529778
50
25.7545084
51
51.0957453
0
ARC
8
DEFAULT_255_1_234
10
17.3297834
20
197.7416206
40
0.250738
50
359.2468627
51
24.7394243
0
ARC
8
DEFAULT_255_1_234
10
17.3013286
20
197.7387664
40
0.1297815
50
359.8050318
51
45.1544908
0
ARC
8
DEFAULT_255_1_234
10
17.2606428
20
197.7039794
40
0.1831883
50
43.8047702
51
49.6271585
0
ARC
8
DEFAULT_255_1_234
10
17.2614329
20
197.7040678
40
0.18261
50
49.7980766
51
82.1218353
0
ARC
8
DEFAULT_255_1_234
10
17.2495301
20
197.6393998
40
0.2483163
50
81.4465357
51
90.1710293
0
ARC
8
DEFAULT_255_1_234
10
17.2470904
20
197.586788
40
0.300932
50
89.6766211
51
99.1264602
0
ARC
8
DEFAULT_255_1_234
10
17.2299366
20
197.6901537
40
0.1961547
50
98.968313
51
113.4570237
0
ARC
8
DEFAULT_255_1_234
10
17.2103451
20
197.7369965
40
0.1453859
50
113.722589
51
127.4763106
0
ARC
8
DEFAULT_255_1_234
10
17.1935097
20
197.7570124
40
0.1192639
50
126.9083309
51
150.3165862
0
ARC
8
DEFAULT_255_1_234
10
17.188743
20
197.7620981
40
0.112623
50
151.3635175
51
180.0701457
0
ARC
8
DEFAULT_255_1_234
10
17.2196214
20
197.759999
40
0.1435149
50
179.2169974
51
179.9954013
0
ARC
8
DEFAULT_255_1_234
10
17.1835272
20
197.7587056
40
0.1074286
50
179.3040112
51
198.4225446
0
ARC
8
DEFAULT_255_1_234
10
17.1643405
20
197.7537127
40
0.0876573
50
199.2895851
51
238.6034594
0
ARC
8
DEFAULT_255_1_234
10
17.2246252
20
197.848345
40
0.1998512
50
237.9846301
51
246.8744712
0
ARC
8
DEFAULT_255_1_234
10
17.3104197
20
198.0446205
40
0.4140547
50
246.6234531
51
251.8168941
0
ARC
8
DEFAULT_255_1_234
10
17.413474
20
198.3540905
40
0.7402308
50
251.713434
51
255.0778414
0
ARC
8
DEFAULT_255_1_234
10
17.5334003
20
198.8007563
40
1.2027155
50
255.0367487
51
257.4705983
0
ARC
8
DEFAULT_255_1_234
10
17.0226013
20
196.4993863
40
1.1546601
50
73.6837552
51
77.5016755
0
ARC
8
DEFAULT_255_1_234
10
17.1314788
20
196.8693581
40
0.7690009
50
68.7044154
51
73.7249639
0
ARC
8
DEFAULT_255_1_234
10
17.2217809
20
197.1020654
40
0.5193873
50
63.590599
51
68.6626804
0
ARC
8
DEFAULT_255_1_234
10
17.2988827
20
197.2558123
40
0.3473927
50
54.7106439
51
63.7013633
0
ARC
8
DEFAULT_255_1_234
10
17.3613282
20
197.34304
40
0.2401192
50
41.0622434
51
54.8487496
0
ARC
8
DEFAULT_255_1_234
10
17.3954668
20
197.3743592
40
0.1938094
50
34.4950568
51
40.7105546
0
ARC
8
DEFAULT_255_1_234
10
17.4001476
20
197.3792078
40
0.1872106
50
9.3763373
51
34.0833615
0
ARC
8
DEFAULT_255_1_234
10
17.3348346
20
197.3666728
40
0.2536988
50
359.7694872
51
9.7663171
0
ARC
8
DEFAULT_255_1_234
10
17.3545847
20
197.3623764
40
0.2339696
50
335.8654732
51
0.8022045
0
ARC
8
DEFAULT_255_1_234
10
17.3620891
20
197.3637197
40
0.2277108
50
307.7357725
51
334.7849066
0
ARC
8
DEFAULT_255_1_234
10
17.3220067
20
197.4087645
40
0.2878951
50
307.0241536
51
308.5578354
0
ARC
8
DEFAULT_255_1_234
10
17.2962398
20
197.4473801
40
0.3342515
50
282.9362969
51
306.5646424
0
ARC
8
DEFAULT_255_1_234
10
17.2600696
20
197.5941108
40
0.4853615
50
271.1026298
51
283.2200835
0
ARC
8
DEFAULT_255_1_234
10
17.253694
20
197.7182418
40
0.6096052
50
269.9919117
51
271.4772449
0
ARC
8
DEFAULT_255_1_234
10
17.2510695
20
197.6104436
40
0.5018135
50
259.0723564
51
270.289833
0
ARC
8
DEFAULT_255_1_234
10
17.2298427
20
197.4987271
40
0.388099
50
245.4963068
51
259.0227342
0
ARC
8
DEFAULT_255_1_234
10
17.2020383
20
197.4405615
40
0.3236422
50
228.9684658
51
245.7044727
0
ARC
8
DEFAULT_255_1_234
10
17.1754827
20
197.4078575
40
0.2815426
50
214.4011705
51
228.6759915
0
ARC
8
DEFAULT_255_1_234
10
17.1465568
20
197.392029
40
0.2487548
50
179.9705531
51
215.1572795
0
ARC
8
DEFAULT_255_1_234
10
17.2166167
20
197.3993806
40
0.1703809
50
182.4299387
51
203.0329699
0
ARC
8
DEFAULT_255_1_234
10
17.1981825
20
197.3937396
40
0.1512226
50
203.798802
51
232.548466
0
ARC
8
DEFAULT_255_1_234
10
17.2258346
20
197.4288826
40
0.1959374
50
232.3782728
51
256.3934612
0
ARC
8
DEFAULT_255_1_234
10
17.2488708
20
197.5178842
40
0.2878639
50
256.104506
51
268.4626716
0
ARC
8
DEFAULT_255_1_234
10
17.2535192
20
197.5975487
40
0.3676329
50
268.0715632
51
270.0138206
0
ARC
8
DEFAULT_255_1_234
10
17.2553717
20
197.5703083
40
0.3403971
50
269.7031147
51
278.8341955
0
ARC
8
DEFAULT_255_1_234
10
17.273581
20
197.4572876
40
0.2259217
50
278.6728789
51
292.8232582
0
ARC
8
DEFAULT_255_1_234
10
17.2936348
20
197.4071449
40
0.171929
50
293.1452328
51
303.6655899
0
ARC
8
DEFAULT_255_1_234
10
17.3201227
20
197.3695204
40
0.1259367
50
303.1248165
51
321.742847
0
ARC
8
DEFAULT_255_1_234
10
17.3387108
20
197.3532156
40
0.1012531
50
322.4748573
51
1.1291126
0
LINE
8
DEFAULT_255_1_234
10
4.9290119
20
195.2616792
11
4.9290119
21
195.1404
0
LINE
8
DEFAULT_255_1_234
10
4.9290119
20
195.1404
11
4.162784
21
195.1404
0
LINE
8
DEFAULT_255_1_234
10
4.162784
20
195.1404
11
4.162784
21
195.2472221
0
LINE
8
DEFAULT_255_1_234
10
4.162784
20
195.2472221
11
4.5675836
21
195.6969995
0
LINE
8
DEFAULT_255_1_234
10
4.2888823
20
195.9652595
11
4.1402952
21
195.9652595
0
LINE
8
DEFAULT_255_1_234
10
4.6551296
20
195.6014218
11
4.3418918
21
195.2616792
0
LINE
8
DEFAULT_255_1_234
10
4.3418918
20
195.2616792
11
4.9290119
21
195.2616792
0
ARC
8
DEFAULT_255_1_234
10
3.218567
20
196.8899527
40
1.8008286
50
318.5132453
51
320.7828378
0
ARC
8
DEFAULT_255_1_234
10
3.7472644
20
196.4596426
40
1.1191493
50
320.7372736
51
323.9737074
0
ARC
8
DEFAULT_255_1_234
10
4.1392501
20
196.1756361
40
0.6350923
50
323.8961724
51
328.6421089
0
ARC
8
DEFAULT_255_1_234
10
4.3439096
20
196.0494031
40
0.3946393
50
328.8299013
51
331.789948
0
ARC
8
DEFAULT_255_1_234
10
4.4436274
20
195.9979509
40
0.2824501
50
331.4255242
51
352.9364833
0
ARC
8
DEFAULT_255_1_234
10
4.4572775
20
195.9948976
40
0.2685315
50
353.2248685
51
0.0169286
0
ARC
8
DEFAULT_255_1_234
10
4.4782652
20
195.997195
40
0.2475536
50
359.4866256
51
15.9339782
0
ARC
8
DEFAULT_255_1_234
10
4.5289637
20
196.0108286
40
0.1950618
50
16.1714718
51
43.5284424
0
ARC
8
DEFAULT_255_1_234
10
4.5366946
20
196.0185573
40
0.184134
50
43.4415429
51
83.1661404
0
ARC
8
DEFAULT_255_1_234
10
4.5232864
20
195.9448771
40
0.258926
50
82.160215
51
90.1505798
0
ARC
8
DEFAULT_255_1_234
10
4.5201291
20
195.8911865
40
0.3126255
50
89.5460705
51
102.5418777
0
ARC
8
DEFAULT_255_1_234
10
4.4958377
20
195.9942665
40
0.2067346
50
102.1739365
51
129.2061916
0
ARC
8
DEFAULT_255_1_234
10
4.4879449
20
196.0067094
40
0.1921118
50
129.7279328
51
135.7542026
0
ARC
8
DEFAULT_255_1_234
10
4.5000977
20
195.9970045
40
0.2075944
50
136.175737
51
166.3674722
0
ARC
8
DEFAULT_255_1_234
10
4.6007896
20
195.9700182
40
0.3118201
50
165.9092917
51
178.8683903
0
ARC
8
DEFAULT_255_1_234
10
4.6872757
20
195.9653179
40
0.3983935
50
178.438168
51
180.0083905
0
ARC
8
DEFAULT_255_1_234
10
4.5471359
20
195.9692231
40
0.4068601
50
163.2878735
51
180.5581814
0
ARC
8
DEFAULT_255_1_234
10
4.4669621
20
195.991284
40
0.3237344
50
133.454115
51
162.9470031
0
ARC
8
DEFAULT_255_1_234
10
4.4848162
20
195.9723
40
0.349795
50
100.7869394
51
133.4384016
0
ARC
8
DEFAULT_255_1_234
10
4.5195934
20
195.8174319
40
0.5084616
50
89.6605301
51
101.3704185
0
ARC
8
DEFAULT_255_1_234
10
4.5262273
20
195.8235496
40
0.502348
50
78.2171172
51
90.4130393
0
ARC
8
DEFAULT_255_1_234
10
4.5617351
20
195.9859637
40
0.3361092
50
55.9268222
51
78.4888551
0
ARC
8
DEFAULT_255_1_234
10
4.5813791
20
196.0198324
40
0.2970617
50
47.9292255
51
55.4054003
0
ARC
8
DEFAULT_255_1_234
10
4.5915352
20
196.0301502
40
0.2825983
50
4.3347696
51
48.0560701
0
ARC
8
DEFAULT_255_1_234
10
4.4819745
20
196.0131601
40
0.393225
50
359.925209
51
5.5967654
0
ARC
8
DEFAULT_255_1_234
10
4.5248637
20
196.0187816
40
0.3503892
50
337.8914096
51
358.9967724
0
ARC
8
DEFAULT_255_1_234
10
4.2535049
20
196.1234706
40
0.6412172
50
326.9135351
51
338.3505194
0
ARC
8
DEFAULT_255_1_234
10
3.8549353
20
196.3789284
40
1.1146189
50
319.6472867
51
327.095818
0
ARC
8
DEFAULT_255_1_234
10
3.4716356
20
196.6951
40
1.6114559
50
317.2586784
51
319.9046139
0
LINE
8
DEFAULT_255_1_234
10
5.7137127
20
196.3098211
11
5.7137127
21
195.533152
0
LINE
8
DEFAULT_255_1_234
10
5.7137127
20
195.533152
11
5.8759538
21
195.533152
0
LINE
8
DEFAULT_255_1_234
10
5.8759538
20
195.533152
11
5.8759538
21
195.4118728
0
LINE
8
DEFAULT_255_1_234
10
5.8759538
20
195.4118728
11
5.7137127
21
195.4118728
0
LINE
8
DEFAULT_255_1_234
10
5.7137127
20
195.4118728
11
5.7137127
21
195.1404
0
LINE
8
DEFAULT_255_1_234
10
5.7137127
20
195.1404
11
5.5643224
21
195.1404
0
LINE
8
DEFAULT_255_1_234
10
5.5643224
20
195.1404
11
5.5643224
21
195.4118728
0
LINE
8
DEFAULT_255_1_234
10
5.5643224
20
195.4118728
11
5.0318181
21
195.4118728
0
LINE
8
DEFAULT_255_1_234
10
5.0318181
20
195.4118728
11
5.0318181
21
195.4994187
0
LINE
8
DEFAULT_255_1_234
10
5.0318181
20
195.4994187
11
5.5554875
21
196.3098211
0
LINE
8
DEFAULT_255_1_234
10
5.5554875
20
196.3098211
11
5.7137127
21
196.3098211
0
LINE
8
DEFAULT_255_1_234
10
5.5466525
20
196.0744912
11
5.2004846
21
195.533152
0
LINE
8
DEFAULT_255_1_234
10
5.2004846
20
195.533152
11
5.5643224
21
195.533152
0
LINE
8
DEFAULT_255_1_234
10
5.5643224
20
195.533152
11
5.5643224
21
196.1066181
0
LINE
8
DEFAULT_255_1_234
10
5.5643224
20
196.1066181
11
5.5466525
21
196.0744912
0
LINE
8
DEFAULT_255_1_234
10
6.103252
20
196.3098211
11
6.435766
21
195.3452093
0
LINE
8
DEFAULT_255_1_234
10
6.435766
20
195.3452093
11
6.7698863
21
196.3098211
0
LINE
8
DEFAULT_255_1_234
10
6.7698863
20
196.3098211
11
6.9385528
21
196.3098211
0
LINE
8
DEFAULT_255_1_234
10
6.9385528
20
196.3098211
11
6.5048389
21
195.1404
0
LINE
8
DEFAULT_255_1_234
10
6.5048389
20
195.1404
11
6.3682994
21
195.1404
0
LINE
8
DEFAULT_255_1_234
10
6.3682994
20
195.1404
11
5.9353887
21
196.3098211
0
LINE
8
DEFAULT_255_1_234
10
5.9353887
20
196.3098211
11
6.103252
21
196.3098211
0
ARC
8
DEFAULT_255_1_234
10
4.4864624
20
5.5020703
40
0.2822356
50
338.8763615
51
0.5166041
0
ARC
8
DEFAULT_255_1_234
10
4.5033278
20
5.4975208
40
0.2648703
50
325.8412414
51
338.4795939
0
ARC
8
DEFAULT_255_1_234
10
4.4642646
20
5.5246042
40
0.3124019
50
296.7586019
51
325.753654
0
ARC
8
DEFAULT_255_1_234
10
4.4354754
20
5.5730789
40
0.368668
50
296.0902311
51
297.3618122
0
ARC
8
DEFAULT_255_1_234
10
4.4612212
20
4.9176041
40
0.3518806
50
47.9009248
51
67.1946869
0
ARC
8
DEFAULT_255_1_234
10
4.4808454
20
4.9422395
40
0.320451
50
35.236241
51
47.551371
0
ARC
8
DEFAULT_255_1_234
10
4.5070072
20
4.9596993
40
0.2890103
50
359.2759738
51
35.4014081
0
ARC
8
DEFAULT_255_1_234
10
4.4325103
20
4.9523826
40
0.3635026
50
343.1294516
51
0.5776525
0
ARC
8
DEFAULT_255_1_234
10
4.5049648
20
4.932433
40
0.2883832
50
310.8497458
51
342.744803
0
ARC
8
DEFAULT_255_1_234
10
4.4631761
20
4.9801294
40
0.3517954
50
281.5473923
51
310.9169905
0
ARC
8
DEFAULT_255_1_234
10
4.427521
20
5.1354084
40
0.5110832
50
269.6192722
51
281.9789957
0
ARC
8
DEFAULT_255_1_234
10
4.4203
20
5.1354828
40
0.5111606
50
257.4584469
51
270.4287458
0
ARC
8
DEFAULT_255_1_234
10
4.3822143
20
4.9751344
40
0.3463762
50
228.7553743
51
257.8484423
0
ARC
8
DEFAULT_255_1_234
10
4.3512341
20
4.9378442
40
0.297916
50
184.0104442
51
228.5071787
0
ARC
8
DEFAULT_255_1_234
10
4.4675285
20
4.9555512
40
0.4152734
50
179.9315461
51
185.3254504
0
ARC
8
DEFAULT_255_1_234
10
4.3498931
20
4.9592992
40
0.2976554
50
145.6795913
51
180.6259649
0
ARC
8
DEFAULT_255_1_234
10
4.366228
20
4.9478929
40
0.3175776
50
115.5537925
51
145.6416199
0
ARC
8
DEFAULT_255_1_234
10
4.400321
20
4.8868028
40
0.3874232
50
113.2437915
51
116.2054627
0
ARC
8
DEFAULT_255_1_234
10
4.3850423
20
5.526658
40
0.3154751
50
222.9548379
51
244.1372485
0
ARC
8
DEFAULT_255_1_234
10
4.3728498
20
5.5129834
40
0.2972382
50
213.3439227
51
222.6271327
0
ARC
8
DEFAULT_255_1_234
10
4.3536433
20
5.4999308
40
0.274019
50
180.4316517
51
213.2713999
0
ARC
8
DEFAULT_255_1_234
10
4.4111434
20
5.504611
40
0.33158
50
179.9992944
51
181.1655061
0
ARC
8
DEFAULT_255_1_234
10
4.4520851
20
5.5080561
40
0.3725376
50
164.6186108
51
180.5292368
0
ARC
8
DEFAULT_255_1_234
10
4.3622714
20
5.5322101
40
0.2795349
50
132.2454369
51
164.5092287
0
ARC
8
DEFAULT_255_1_234
10
4.3909818
20
5.4997028
40
0.3229019
50
100.7052766
51
132.1387266
0
ARC
8
DEFAULT_255_1_234
10
4.421479
20
5.3619086
40
0.4639835
50
89.6732617
51
101.2449487
0
ARC
8
DEFAULT_255_1_234
10
4.4276988
20
5.379399
40
0.4464999
50
76.2876631
51
90.4586123
0
ARC
8
DEFAULT_255_1_234
10
4.458322
20
5.501622
40
0.3205023
50
47.8240157
51
76.4266918
0
ARC
8
DEFAULT_255_1_234
10
4.480577
20
5.527659
40
0.2862661
50
6.9168658
51
47.6261438
0
ARC
8
DEFAULT_255_1_234
10
4.3619173
20
5.505737
40
0.4067708
50
359.8419705
51
7.9694496
0
ARC
8
DEFAULT_255_1_234
10
4.396107
20
4.9616925
40
0.2513121
50
359.4454068
51
16.9256425
0
ARC
8
DEFAULT_255_1_234
10
4.4429881
20
4.9746033
40
0.2027071
50
17.292259
51
45.462717
0
ARC
8
DEFAULT_255_1_234
10
4.4375817
20
4.9699434
40
0.2098212
50
45.3028762
51
83.1921472
0
ARC
8
DEFAULT_255_1_234
10
4.4232501
20
4.8897895
40
0.2911472
50
82.2614531
51
90.143954
0
ARC
8
DEFAULT_255_1_234
10
4.4201621
20
4.913095
40
0.2678513
50
89.4959189
51
104.8579811
0
ARC
8
DEFAULT_255_1_234
10
4.402488
20
4.980089
40
0.1985654
50
104.8855873
51
135.2448349
0
ARC
8
DEFAULT_255_1_234
10
4.4074653
20
4.9756336
40
0.2052373
50
135.3398955
51
172.104394
0
ARC
8
DEFAULT_255_1_234
10
4.4881711
20
4.9601925
40
0.2873299
50
171.2651929
51
180.1859362
0
ARC
8
DEFAULT_255_1_234
10
4.4712412
20
4.9569733
40
0.2704083
50
179.515471
51
193.6466734
0
ARC
8
DEFAULT_255_1_234
10
4.3896181
20
4.9361777
40
0.1861855
50
193.3540587
51
225.8256931
0
ARC
8
DEFAULT_255_1_234
10
4.3936938
20
4.9432524
40
0.1941102
50
226.418029
51
255.8553723
0
ARC
8
DEFAULT_255_1_234
10
4.4193371
20
5.0368998
40
0.2911917
50
255.4655572
51
268.7985967
0
ARC
8
DEFAULT_255_1_234
10
4.4240563
20
5.1207491
40
0.3751331
50
268.3464808
51
270.0104874
0
ARC
8
DEFAULT_255_1_234
10
4.4263951
20
5.0523138
40
0.3067064
50
269.575914
51
282.0823146
0
ARC
8
DEFAULT_255_1_234
10
4.448886
20
4.9528803
40
0.2047712
50
281.7522535
51
306.6056425
0
ARC
8
DEFAULT_255_1_234
10
4.4587286
20
4.9367487
40
0.1859604
50
307.1350025
51
314.0277951
0
ARC
8
DEFAULT_255_1_234
10
4.455137
20
4.9393766
40
0.1903475
50
314.2553419
51
350.169324
0
ARC
8
DEFAULT_255_1_234
10
4.3699839
20
4.9578409
40
0.2774269
50
349.4145679
51
0.2930737
0
ARC
8
DEFAULT_255_1_234
10
4.4220272
20
5.4737353
40
0.2300764
50
89.477591
51
105.729794
0
ARC
8
DEFAULT_255_1_234
10
4.4084185
20
5.5242637
40
0.1777519
50
105.922966
51
135.1662921
0
ARC
8
DEFAULT_255_1_234
10
4.4104688
20
5.5228419
40
0.1802087
50
135.3053131
51
168.9882338
0
ARC
8
DEFAULT_255_1_234
10
4.493226
20
5.5038721
40
0.2650806
50
168.3802067
51
180.3602358
0
ARC
8
DEFAULT_255_1_234
10
4.470384
20
5.5001041
40
0.2422425
50
179.5029707
51
194.9126783
0
ARC
8
DEFAULT_255_1_234
10
4.4118501
20
5.484711
40
0.1817188
50
194.9722181
51
224.1943972
0
ARC
8
DEFAULT_255_1_234
10
4.4090368
20
5.4824169
40
0.1781027
50
224.2961434
51
262.0157375
0
ARC
8
DEFAULT_255_1_234
10
4.4232611
20
5.5555661
40
0.2525492
50
261.1250369
51
270.1959853
0
ARC
8
DEFAULT_255_1_234
10
4.4262366
20
5.5368339
40
0.233825
50
269.4825617
51
285.0988277
0
ARC
8
DEFAULT_255_1_234
10
4.4416525
20
5.478999
40
0.1739712
50
285.1585659
51
315.9484648
0
ARC
8
DEFAULT_255_1_234
10
4.4327537
20
5.4871886
40
0.1860616
50
316.0412958
51
351.9162715
0
ARC
8
DEFAULT_255_1_234
10
4.3594492
20
5.5013245
40
0.2606517
50
351.1056823
51
0.1936567
0
ARC
8
DEFAULT_255_1_234
10
4.3857321
20
5.5043369
40
0.234377
50
359.4789506
51
16.0679113
0
ARC
8
DEFAULT_255_1_234
10
4.433328
20
5.517181
40
0.1850875
50
16.3251951
51
44.791304
0
ARC
8
DEFAULT_255_1_234
10
4.4315561
20
5.5172339
40
0.186312
50
44.3958661
51
88.2498933
0
ARC
8
DEFAULT_255_1_234
10
4.4242115
20
5.4561154
40
0.2476868
50
86.9833827
51
90.0200148
0
LINE
8
DEFAULT_255_1_234
10
5.7341015
20
5.0781297
11
5.7341015
21
5.065279
0
LINE
8
DEFAULT_255_1_234
10
5.1421624
20
4.7407967
11
5.1349338
21
4.6404
0
LINE
8
DEFAULT_255_1_234
10
5.1349338
20
4.6404
11
4.9983942
21
4.6404
0
LINE
8
DEFAULT_255_1_234
10
4.9983942
20
4.6404
11
4.9983942
21
5.874075
0
LINE
8
DEFAULT_255_1_234
10
4.9983942
20
5.874075
11
5.1469814
21
5.874075
0
LINE
8
DEFAULT_255_1_234
10
5.1469814
20
5.874075
11
5.1469814
21
5.4138564
0
LINE
8
DEFAULT_255_1_234
10
5.1469814
20
5.2628597
11
5.1469814
21
4.8869744
0
ARC
8
DEFAULT_255_1_234
10
5.029429
20
5.0608573
40
0.7046863
50
349.4825105
51
0.3595108
0
ARC
8
DEFAULT_255_1_234
10
5.2571531
20
5.0170022
40
0.4727857
50
331.8602128
51
349.6704139
0
ARC
8
DEFAULT_255_1_234
10
5.3304299
20
4.9813125
40
0.3913503
50
322.8939783
51
331.4081204
0
ARC
8
DEFAULT_255_1_234
10
5.3999697
20
4.9233707
40
0.300965
50
296.7249167
51
323.7044215
0
ARC
8
DEFAULT_255_1_234
10
5.4029594
20
4.9303043
40
0.3058683
50
270.6342811
51
295.6405548
0
ARC
8
DEFAULT_255_1_234
10
5.3967904
20
5.0105995
40
0.3862632
50
269.9967524
51
271.4174733
0
ARC
8
DEFAULT_255_1_234
10
5.3929568
20
4.9970686
40
0.3727515
50
253.657532
51
270.5859025
0
ARC
8
DEFAULT_255_1_234
10
5.3698674
20
4.9127235
40
0.2853216
50
217.0543181
51
253.3409865
0
ARC
8
DEFAULT_255_1_234
10
5.3765342
20
5.2311052
40
0.2934152
50
93.1931545
51
141.4760602
0
ARC
8
DEFAULT_255_1_234
10
5.3947558
20
5.1078453
40
0.4176524
50
89.9442578
51
94.747309
0
ARC
8
DEFAULT_255_1_234
10
5.3991305
20
5.190141
40
0.3353801
50
70.6103515
51
90.6779749
0
ARC
8
DEFAULT_255_1_234
10
5.4105607
20
5.235689
40
0.2886533
50
36.1152635
51
69.7489296
0
ARC
8
DEFAULT_255_1_234
10
5.3119011
20
5.1603708
40
0.4127561
50
15.4648517
51
36.4891396
0
ARC
8
DEFAULT_255_1_234
10
5.1060697
20
5.1004524
40
0.6271187
50
3.9220813
51
15.7265815
0
ARC
8
DEFAULT_255_1_234
10
4.8701541
20
5.0792325
40
0.863948
50
359.9268643
51
4.2559037
0
ARC
8
DEFAULT_255_1_234
10
4.9515922
20
5.0852103
40
0.6339295
50
359.7230081
51
7.7115859
0
ARC
8
DEFAULT_255_1_234
10
5.1777487
20
5.1168172
40
0.4055784
50
7.5740023
51
19.4151451
0
ARC
8
DEFAULT_255_1_234
10
5.3045126
20
5.1614519
40
0.2711858
50
19.4238354
51
34.9161182
0
ARC
8
DEFAULT_255_1_234
10
5.3715864
20
5.2101172
40
0.1883373
50
34.4556322
51
84.4656458
0
ARC
8
DEFAULT_255_1_234
10
5.3587312
20
5.1346057
40
0.2647939
50
83.2727306
51
90.1114621
0
ARC
8
DEFAULT_255_1_234
10
5.3545169
20
5.1544509
40
0.2449763
50
89.1347934
51
111.4089923
0
ARC
8
DEFAULT_255_1_234
10
5.346572
20
5.1872473
40
0.2115923
50
112.6478598
51
148.9260864
0
ARC
8
DEFAULT_255_1_234
10
5.4243518
20
5.1330985
40
0.3062228
50
147.7597608
51
154.928557
0
ARC
8
DEFAULT_255_1_234
10
5.3983579
20
5.0086379
40
0.2792708
50
205.8264786
51
224.5301003
0
ARC
8
DEFAULT_255_1_234
10
5.3505883
20
4.9659914
40
0.2153317
50
225.354483
51
269.2437579
0
ARC
8
DEFAULT_255_1_234
10
5.3597518
20
5.0466292
40
0.2961942
50
267.6770046
51
270.0136612
0
ARC
8
DEFAULT_255_1_234
10
5.3624869
20
4.9707938
40
0.2203751
50
269.3072485
51
289.499141
0
ARC
8
DEFAULT_255_1_234
10
5.3696933
20
4.9411394
40
0.1900415
50
290.4353973
51
325.3766314
0
ARC
8
DEFAULT_255_1_234
10
5.3068156
20
4.9865643
40
0.2675986
50
325.0223901
51
342.692398
0
ARC
8
DEFAULT_255_1_234
10
5.1371044
20
5.0417812
40
0.446058
50
342.4062876
51
352.8669243
0
ARC
8
DEFAULT_255_1_234
10
4.8650519
20
5.0774975
40
0.7204419
50
352.7350668
51
359.8556985
0
ARC
8
DEFAULT_255_1_234
10
4.6740215
20
5.0821018
40
0.9114927
50
359.5965197
51
0.0027543
0
ARC
8
DEFAULT_255_1_234
10
4.5394624
20
13.4395703
40
0.2822356
50
338.8763615
51
0.5166041
0
ARC
8
DEFAULT_255_1_234
10
4.5563278
20
13.4350208
40
0.2648703
50
325.8412414
51
338.4795939
0
ARC
8
DEFAULT_255_1_234
10
4.5172646
20
13.4621042
40
0.3124019
50
296.7586019
51
325.753654
0
ARC
8
DEFAULT_255_1_234
10
4.4884754
20
13.5105789
40
0.368668
50
296.0902311
51
297.3618122
0
ARC
8
DEFAULT_255_1_234
10
4.5142212
20
12.8551041
40
0.3518806
50
47.9009248
51
67.1946869
0
ARC
8
DEFAULT_255_1_234
10
4.5338454
20
12.8797395
40
0.320451
50
35.236241
51
47.551371
0
ARC
8
DEFAULT_255_1_234
10
4.5600072
20
12.8971993
40
0.2890103
50
359.2759738
51
35.4014081
0
ARC
8
DEFAULT_255_1_234
10
4.4855103
20
12.8898826
40
0.3635026
50
343.1294516
51
0.5776525
0
ARC
8
DEFAULT_255_1_234
10
4.5579648
20
12.869933
40
0.2883832
50
310.8497458
51
342.744803
0
ARC
8
DEFAULT_255_1_234
10
4.5161761
20
12.9176294
40
0.3517954
50
281.5473923
51
310.9169905
0
ARC
8
DEFAULT_255_1_234
10
4.480521
20
13.0729084
40
0.5110832
50
269.6192722
51
281.9789957
0
ARC
8
DEFAULT_255_1_234
10
4.4733
20
13.0729828
40
0.5111606
50
257.4584469
51
270.4287458
0
ARC
8
DEFAULT_255_1_234
10
4.4352143
20
12.9126344
40
0.3463762
50
228.7553743
51
257.8484423
0
ARC
8
DEFAULT_255_1_234
10
4.4042341
20
12.8753442
40
0.297916
50
184.0104442
51
228.5071787
0
ARC
8
DEFAULT_255_1_234
10
4.5205285
20
12.8930512
40
0.4152734
50
179.9315461
51
185.3254504
0
ARC
8
DEFAULT_255_1_234
10
4.4028931
20
12.8967992
40
0.2976554
50
145.6795913
51
180.6259649
0
ARC
8
DEFAULT_255_1_234
10
4.419228
20
12.8853929
40
0.3175776
50
115.5537925
51
145.6416199
0
ARC
8
DEFAULT_255_1_234
10
4.453321
20
12.8243028
40
0.3874232
50
113.2437915
51
116.2054627
0
ARC
8
DEFAULT_255_1_234
10
4.4380423
20
13.464158
40
0.3154751
50
222.9548379
51
244.1372485
0
ARC
8
DEFAULT_255_1_234
10
4.4258498
20
13.4504834
40
0.2972382
50
213.3439227
51
222.6271327
0
ARC
8
DEFAULT_255_1_234
10
4.4066433
20
13.4374308
40
0.274019
50
180.4316517
51
213.2713999
0
ARC
8
DEFAULT_255_1_234
10
4.4641434
20
13.442111
40
0.33158
50
179.9992944
51
181.1655061
0
ARC
8
DEFAULT_255_1_234
10
4.5050851
20
13.4455561
40
0.3725376
50
164.6186108
51
180.5292368
0
ARC
8
DEFAULT_255_1_234
10
4.4152714
20
13.4697101
40
0.2795349
50
132.2454369
51
164.5092287
0
ARC
8
DEFAULT_255_1_234
10
4.4439818
20
13.4372028
40
0.3229019
50
100.7052766
51
132.1387266
0
ARC
8
DEFAULT_255_1_234
10
4.474479
20
13.2994086
40
0.4639835
50
89.6732617
51
101.2449487
0
ARC
8
DEFAULT_255_1_234
10
4.4806988
20
13.316899
40
0.4464999
50
76.2876631
51
90.4586123
0
ARC
8
DEFAULT_255_1_234
10
4.511322
20
13.439122
40
0.3205023
50
47.8240157
51
76.4266918
0
ARC
8
DEFAULT_255_1_234
10
4.533577
20
13.465159
40
0.2862661
50
6.9168658
51
47.6261438
0
ARC
8
DEFAULT_255_1_234
10
4.4149173
20
13.443237
40
0.4067708
50
359.8419705
51
7.9694496
0
ARC
8
DEFAULT_255_1_234
10
4.449107
20
12.8991925
40
0.2513121
50
359.4454068
51
16.9256425
0
ARC
8
DEFAULT_255_1_234
10
4.4959881
20
12.9121033
40
0.2027071
50
17.292259
51
45.462717
0
ARC
8
DEFAULT_255_1_234
10
4.4905817
20
12.9074434
40
0.2098212
50
45.3028762
51
83.1921472
0
ARC
8
DEFAULT_255_1_234
10
4.4762501
20
12.8272895
40
0.2911472
50
82.2614531
51
90.143954
0
ARC
8
DEFAULT_255_1_234
10
4.4731621
20
12.850595
40
0.2678513
50
89.4959189
51
104.8579811
0
ARC
8
DEFAULT_255_1_234
10
4.455488
20
12.917589
40
0.1985654
50
104.8855873
51
135.2448349
0
ARC
8
DEFAULT_255_1_234
10
4.4604653
20
12.9131336
40
0.2052373
50
135.3398955
51
172.104394
0
ARC
8
DEFAULT_255_1_234
10
4.5411711
20
12.8976925
40
0.2873299
50
171.2651929
51
180.1859362
0
ARC
8
DEFAULT_255_1_234
10
4.5242412
20
12.8944733
40
0.2704083
50
179.515471
51
193.6466734
0
ARC
8
DEFAULT_255_1_234
10
4.4426181
20
12.8736777
40
0.1861855
50
193.3540587
51
225.8256931
0
ARC
8
DEFAULT_255_1_234
10
4.4466938
20
12.8807524
40
0.1941102
50
226.418029
51
255.8553723
0
ARC
8
DEFAULT_255_1_234
10
4.4723371
20
12.9743998
40
0.2911917
50
255.4655572
51
268.7985967
0
ARC
8
DEFAULT_255_1_234
10
4.4770563
20
13.0582491
40
0.3751331
50
268.3464808
51
270.0104874
0
ARC
8
DEFAULT_255_1_234
10
4.4793951
20
12.9898138
40
0.3067064
50
269.575914
51
282.0823146
0
ARC
8
DEFAULT_255_1_234
10
4.501886
20
12.8903803
40
0.2047712
50
281.7522535
51
306.6056425
0
ARC
8
DEFAULT_255_1_234
10
4.5117286
20
12.8742487
40
0.1859604
50
307.1350025
51
314.0277951
0
ARC
8
DEFAULT_255_1_234
10
4.508137
20
12.8768766
40
0.1903475
50
314.2553419
51
350.169324
0
ARC
8
DEFAULT_255_1_234
10
4.4229839
20
12.8953409
40
0.2774269
50
349.4145679
51
0.2930737
0
ARC
8
DEFAULT_255_1_234
10
4.4750272
20
13.4112353
40
0.2300764
50
89.477591
51
105.729794
0
ARC
8
DEFAULT_255_1_234
10
4.4614185
20
13.4617637
40
0.1777519
50
105.922966
51
135.1662921
0
ARC
8
DEFAULT_255_1_234
10
4.4634688
20
13.4603419
40
0.1802087
50
135.3053131
51
168.9882338
0
ARC
8
DEFAULT_255_1_234
10
4.546226
20
13.4413721
40
0.2650806
50
168.3802067
51
180.3602358
0
ARC
8
DEFAULT_255_1_234
10
4.523384
20
13.4376041
40
0.2422425
50
179.5029707
51
194.9126783
0
ARC
8
DEFAULT_255_1_234
10
4.4648501
20
13.422211
40
0.1817188
50
194.9722181
51
224.1943972
0
ARC
8
DEFAULT_255_1_234
10
4.4620368
20
13.4199169
40
0.1781027
50
224.2961434
51
262.0157375
0
ARC
8
DEFAULT_255_1_234
10
4.4762611
20
13.4930661
40
0.2525492
50
261.1250369
51
270.1959853
0
ARC
8
DEFAULT_255_1_234
10
4.4792366
20
13.4743339
40
0.233825
50
269.4825617
51
285.0988277
0
ARC
8
DEFAULT_255_1_234
10
4.4946525
20
13.416499
40
0.1739712
50
285.1585659
51
315.9484648
0
ARC
8
DEFAULT_255_1_234
10
4.4857537
20
13.4246886
40
0.1860616
50
316.0412958
51
351.9162715
0
ARC
8
DEFAULT_255_1_234
10
4.4124492
20
13.4388245
40
0.2606517
50
351.1056823
51
0.1936567
0
ARC
8
DEFAULT_255_1_234
10
4.4387321
20
13.4418369
40
0.234377
50
359.4789506
51
16.0679113
0
ARC
8
DEFAULT_255_1_234
10
4.486328
20
13.454681
40
0.1850875
50
16.3251951
51
44.791304
0
ARC
8
DEFAULT_255_1_234
10
4.4845561
20
13.4547339
40
0.186312
50
44.3958661
51
88.2498933
0
ARC
8
DEFAULT_255_1_234
10
4.4772115
20
13.3936154
40
0.2476868
50
86.9833827
51
90.0200148
0
LINE
8
DEFAULT_255_1_234
10
5.4802891
20
12.5779
11
5.0746863
21
12.5779
0
LINE
8
DEFAULT_255_1_234
10
5.0746863
20
12.5779
11
5.0746863
21
13.7473211
0
LINE
8
DEFAULT_255_1_234
10
5.0746863
20
13.7473211
11
5.456997
21
13.7473211
0
LINE
8
DEFAULT_255_1_234
10
5.4859113
20
13.1248614
11
5.2288957
21
13.1248614
0
LINE
8
DEFAULT_255_1_234
10
5.2288957
20
13.1248614
11
5.2288957
21
12.7039983
0
LINE
8
DEFAULT_255_1_234
10
5.2288957
20
12.7039983
11
5.4835018
21
12.7039983
0
LINE
8
DEFAULT_255_1_234
10
5.2288957
20
13.6204196
11
5.2288957
21
13.2485501
0
LINE
8
DEFAULT_255_1_234
10
5.2288957
20
13.2485501
11
5.4618161
21
13.2485501
0
LINE
8
DEFAULT_255_1_234
10
5.456997
20
13.6204196
11
5.2288957
21
13.6204196
0
ARC
8
DEFAULT_255_1_234
10
5.4607679
20
13.0105901
40
0.7367406
50
82.1257326
51
90.2932599
0
ARC
8
DEFAULT_255_1_234
10
5.4996634
20
13.2824013
40
0.4621653
50
69.9044149
51
82.2857423
0
ARC
8
DEFAULT_255_1_234
10
5.5567312
20
13.4366637
40
0.2976871
50
51.1838526
51
70.0181538
0
ARC
8
DEFAULT_255_1_234
10
5.5822278
20
13.473724
40
0.2528517
50
12.1017251
51
50.4214761
0
ARC
8
DEFAULT_255_1_234
10
5.4438152
20
13.4389676
40
0.3955061
50
359.5251267
51
12.8211707
0
ARC
8
DEFAULT_255_1_234
10
5.6018078
20
13.4320344
40
0.2375281
50
323.4908128
51
0.8817314
0
ARC
8
DEFAULT_255_1_234
10
5.5599765
20
13.464355
40
0.2903817
50
298.6825083
51
323.2756573
0
ARC
8
DEFAULT_255_1_234
10
5.5238128
20
13.5244649
40
0.3604842
50
293.1999386
51
299.1396394
0
ARC
8
DEFAULT_255_1_234
10
5.5911101
20
12.9159126
40
0.2871098
50
54.0011765
51
74.9167975
0
ARC
8
DEFAULT_255_1_234
10
5.602746
20
12.9356332
40
0.2643248
50
36.3580696
51
53.5291921
0
ARC
8
DEFAULT_255_1_234
10
5.5900702
20
12.9265998
40
0.2798884
50
4.8189881
51
36.3089977
0
ARC
8
DEFAULT_255_1_234
10
5.5121537
20
12.915627
40
0.358478
50
359.9370252
51
5.5204067
0
ARC
8
DEFAULT_255_1_234
10
5.4797059
20
12.9115667
40
0.3909429
50
344.7478609
51
0.5373281
0
ARC
8
DEFAULT_255_1_234
10
5.578803
20
12.8848544
40
0.2883093
50
311.1786488
51
344.6886812
0
ARC
8
DEFAULT_255_1_234
10
5.5496077
20
12.9211987
40
0.3348923
50
286.0418249
51
310.8441291
0
ARC
8
DEFAULT_255_1_234
10
5.4988909
20
13.0858807
40
0.5071869
50
274.1042341
51
286.4071509
0
ARC
8
DEFAULT_255_1_234
10
5.4812165
20
13.2742229
40
0.6963234
50
269.9236873
51
274.445647
0
ARC
8
DEFAULT_255_1_234
10
5.4858166
20
13.0402537
40
0.3362634
50
269.6055768
51
281.3740047
0
ARC
8
DEFAULT_255_1_234
10
5.5088804
20
12.9309353
40
0.224546
50
281.1055983
51
302.5132223
0
ARC
8
DEFAULT_255_1_234
10
5.5235703
20
12.9045823
40
0.1944357
50
303.0368945
51
311.8811219
0
ARC
8
DEFAULT_255_1_234
10
5.530711
20
12.896089
40
0.1833454
50
311.9916004
51
351.7143462
0
ARC
8
DEFAULT_255_1_234
10
5.449034
20
12.912593
40
0.2665871
50
350.7339597
51
0.2221581
0
ARC
8
DEFAULT_255_1_234
10
5.4382786
20
12.9182467
40
0.2773789
50
359.0456241
51
17.2296242
0
ARC
8
DEFAULT_255_1_234
10
5.5421903
20
12.9491163
40
0.1689915
50
17.6685481
51
78.9940892
0
ARC
8
DEFAULT_255_1_234
10
5.4905067
20
12.7636224
40
0.3612658
50
76.5635957
51
90.6980921
0
LINE
8
DEFAULT_255_1_234
10
5.4861051
20
13.1248613
11
5.4859113
21
13.1248614
0
ARC
8
DEFAULT_255_1_234
10
5.4640727
20
13.5771036
40
0.3285612
50
269.6064736
51
281.4533503
0
ARC
8
DEFAULT_255_1_234
10
5.4863547
20
13.4719688
40
0.2210975
50
281.2041486
51
302.5148063
0
ARC
8
DEFAULT_255_1_234
10
5.5000397
20
13.4473241
40
0.1929674
50
303.021671
51
309.8369575
0
ARC
8
DEFAULT_255_1_234
10
5.5183858
20
13.4267488
40
0.1654181
50
309.5228395
51
356.9509836
0
ARC
8
DEFAULT_255_1_234
10
5.4520441
20
13.4362932
40
0.2322512
50
355.4701227
51
0.0492546
0
ARC
8
DEFAULT_255_1_234
10
5.4241532
20
13.4385094
40
0.2601498
50
359.5558597
51
11.2096359
0
ARC
8
DEFAULT_255_1_234
10
5.5198822
20
13.458323
40
0.1623975
50
10.9182341
51
31.3230275
0
ARC
8
DEFAULT_255_1_234
10
5.5484555
20
13.4742214
40
0.1297302
50
31.8852677
51
52.1412565
0
ARC
8
DEFAULT_255_1_234
10
5.5210288
20
13.435475
40
0.1771663
50
52.8285564
51
71.9850297
0
ARC
8
DEFAULT_255_1_234
10
5.4834464
20
13.3248664
40
0.2939794
50
71.6863486
51
82.8455995
0
ARC
8
DEFAULT_255_1_234
10
5.4595
20
13.1439149
40
0.476506
50
82.6984714
51
90.1729175
0
ARC
8
DEFAULT_255_1_234
10
5.4572635
20
13.2662623
40
0.3541573
50
89.8708275
51
90.0431131
0
ARC
8
DEFAULT_255_1_234
10
4.6220624
20
21.3770703
40
0.2822356
50
338.8763615
51
0.5166041
0
ARC
8
DEFAULT_255_1_234
10
4.6389278
20
21.3725208
40
0.2648703
50
325.8412414
51
338.4795939
0
ARC
8
DEFAULT_255_1_234
10
4.5998646
20
21.3996042
40
0.3124019
50
296.7586019
51
325.753654
0
ARC
8
DEFAULT_255_1_234
10
4.5710754
20
21.4480789
40
0.368668
50
296.0902311
51
297.3618122
0
ARC
8
DEFAULT_255_1_234
10
4.5968212
20
20.7926041
40
0.3518806
50
47.9009248
51
67.1946869
0
ARC
8
DEFAULT_255_1_234
10
4.6164454
20
20.8172395
40
0.320451
50
35.236241
51
47.551371
0
ARC
8
DEFAULT_255_1_234
10
4.6426072
20
20.8346993
40
0.2890103
50
359.2759738
51
35.4014081
0
ARC
8
DEFAULT_255_1_234
10
4.5681103
20
20.8273826
40
0.3635026
50
343.1294516
51
0.5776525
0
ARC
8
DEFAULT_255_1_234
10
4.6405648
20
20.807433
40
0.2883832
50
310.8497458
51
342.744803
0
ARC
8
DEFAULT_255_1_234
10
4.5987761
20
20.8551294
40
0.3517954
50
281.5473923
51
310.9169905
0
ARC
8
DEFAULT_255_1_234
10
4.563121
20
21.0104084
40
0.5110832
50
269.6192722
51
281.9789957
0
ARC
8
DEFAULT_255_1_234
10
4.5559
20
21.0104828
40
0.5111606
50
257.4584469
51
270.4287458
0
ARC
8
DEFAULT_255_1_234
10
4.5178143
20
20.8501344
40
0.3463762
50
228.7553743
51
257.8484423
0
ARC
8
DEFAULT_255_1_234
10
4.4868341
20
20.8128442
40
0.297916
50
184.0104442
51
228.5071787
0
ARC
8
DEFAULT_255_1_234
10
4.6031285
20
20.8305512
40
0.4152734
50
179.9315461
51
185.3254504
0
ARC
8
DEFAULT_255_1_234
10
4.4854931
20
20.8342992
40
0.2976554
50
145.6795913
51
180.6259649
0
ARC
8
DEFAULT_255_1_234
10
4.501828
20
20.8228929
40
0.3175776
50
115.5537925
51
145.6416199
0
ARC
8
DEFAULT_255_1_234
10
4.535921
20
20.7618028
40
0.3874232
50
113.2437915
51
116.2054627
0
ARC
8
DEFAULT_255_1_234
10
4.5206423
20
21.401658
40
0.3154751
50
222.9548379
51
244.1372485
0
ARC
8
DEFAULT_255_1_234
10
4.5084498
20
21.3879834
40
0.2972382
50
213.3439227
51
222.6271327
0
ARC
8
DEFAULT_255_1_234
10
4.4892433
20
21.3749308
40
0.274019
50
180.4316517
51
213.2713999
0
ARC
8
DEFAULT_255_1_234
10
4.5467434
20
21.379611
40
0.33158
50
179.9992944
51
181.1655061
0
ARC
8
DEFAULT_255_1_234
10
4.5876851
20
21.3830561
40
0.3725376
50
164.6186108
51
180.5292368
0
ARC
8
DEFAULT_255_1_234
10
4.4978714
20
21.4072101
40
0.2795349
50
132.2454369
51
164.5092287
0
ARC
8
DEFAULT_255_1_234
10
4.5265818
20
21.3747028
40
0.3229019
50
100.7052766
51
132.1387266
0
ARC
8
DEFAULT_255_1_234
10
4.557079
20
21.2369086
40
0.4639835
50
89.6732617
51
101.2449487
0
ARC
8
DEFAULT_255_1_234
10
4.5632988
20
21.254399
40
0.4464999
50
76.2876631
51
90.4586123
0
ARC
8
DEFAULT_255_1_234
10
4.593922
20
21.376622
40
0.3205023
50
47.8240157
51
76.4266918
0
ARC
8
DEFAULT_255_1_234
10
4.616177
20
21.402659
40
0.2862661
50
6.9168658
51
47.6261438
0
ARC
8
DEFAULT_255_1_234
10
4.4975173
20
21.380737
40
0.4067708
50
359.8419705
51
7.9694496
0
ARC
8
DEFAULT_255_1_234
10
4.531707
20
20.8366925
40
0.2513121
50
359.4454068
51
16.9256425
0
ARC
8
DEFAULT_255_1_234
10
4.5785881
20
20.8496033
40
0.2027071
50
17.292259
51
45.462717
0
ARC
8
DEFAULT_255_1_234
10
4.5731817
20
20.8449434
40
0.2098212
50
45.3028762
51
83.1921472
0
ARC
8
DEFAULT_255_1_234
10
4.5588501
20
20.7647895
40
0.2911472
50
82.2614531
51
90.143954
0
ARC
8
DEFAULT_255_1_234
10
4.5557621
20
20.788095
40
0.2678513
50
89.4959189
51
104.8579811
0
ARC
8
DEFAULT_255_1_234
10
4.538088
20
20.855089
40
0.1985654
50
104.8855873
51
135.2448349
0
ARC
8
DEFAULT_255_1_234
10
4.5430653
20
20.8506336
40
0.2052373
50
135.3398955
51
172.104394
0
ARC
8
DEFAULT_255_1_234
10
4.6237711
20
20.8351925
40
0.2873299
50
171.2651929
51
180.1859362
0
ARC
8
DEFAULT_255_1_234
10
4.6068412
20
20.8319733
40
0.2704083
50
179.515471
51
193.6466734
0
ARC
8
DEFAULT_255_1_234
10
4.5252181
20
20.8111777
40
0.1861855
50
193.3540587
51
225.8256931
0
ARC
8
DEFAULT_255_1_234
10
4.5292938
20
20.8182524
40
0.1941102
50
226.418029
51
255.8553723
0
ARC
8
DEFAULT_255_1_234
10
4.5549371
20
20.9118998
40
0.2911917
50
255.4655572
51
268.7985967
0
ARC
8
DEFAULT_255_1_234
10
4.5596563
20
20.9957491
40
0.3751331
50
268.3464808
51
270.0104874
0
ARC
8
DEFAULT_255_1_234
10
4.5619951
20
20.9273138
40
0.3067064
50
269.575914
51
282.0823146
0
ARC
8
DEFAULT_255_1_234
10
4.584486
20
20.8278803
40
0.2047712
50
281.7522535
51
306.6056425
0
ARC
8
DEFAULT_255_1_234
10
4.5943286
20
20.8117487
40
0.1859604
50
307.1350025
51
314.0277951
0
ARC
8
DEFAULT_255_1_234
10
4.590737
20
20.8143766
40
0.1903475
50
314.2553419
51
350.169324
0
ARC
8
DEFAULT_255_1_234
10
4.5055839
20
20.8328409
40
0.2774269
50
349.4145679
51
0.2930737
0
ARC
8
DEFAULT_255_1_234
10
4.5576272
20
21.3487353
40
0.2300764
50
89.477591
51
105.729794
0
ARC
8
DEFAULT_255_1_234
10
4.5440185
20
21.3992637
40
0.1777519
50
105.922966
51
135.1662921
0
ARC
8
DEFAULT_255_1_234
10
4.5460688
20
21.3978419
40
0.1802087
50
135.3053131
51
168.9882338
0
ARC
8
DEFAULT_255_1_234
10
4.628826
20
21.3788721
40
0.2650806
50
168.3802067
51
180.3602358
0
ARC
8
DEFAULT_255_1_234
10
4.605984
20
21.3751041
40
0.2422425
50
179.5029707
51
194.9126783
0
ARC
8
DEFAULT_255_1_234
10
4.5474501
20
21.359711
40
0.1817188
50
194.9722181
51
224.1943972
0
ARC
8
DEFAULT_255_1_234
10
4.5446368
20
21.3574169
40
0.1781027
50
224.2961434
51
262.0157375
0
ARC
8
DEFAULT_255_1_234
10
4.5588611
20
21.4305661
40
0.2525492
50
261.1250369
51
270.1959853
0
ARC
8
DEFAULT_255_1_234
10
4.5618366
20
21.4118339
40
0.233825
50
269.4825617
51
285.0988277
0
ARC
8
DEFAULT_255_1_234
10
4.5772525
20
21.353999
40
0.1739712
50
285.1585659
51
315.9484648
0
ARC
8
DEFAULT_255_1_234
10
4.5683537
20
21.3621886
40
0.1860616
50
316.0412958
51
351.9162715
0
ARC
8
DEFAULT_255_1_234
10
4.4950492
20
21.3763245
40
0.2606517
50
351.1056823
51
0.1936567
0
ARC
8
DEFAULT_255_1_234
10
4.5213321
20
21.3793369
40
0.234377
50
359.4789506
51
16.0679113
0
ARC
8
DEFAULT_255_1_234
10
4.568928
20
21.392181
40
0.1850875
50
16.3251951
51
44.791304
0
ARC
8
DEFAULT_255_1_234
10
4.5671561
20
21.3922339
40
0.186312
50
44.3958661
51
88.2498933
0
ARC
8
DEFAULT_255_1_234
10
4.5598115
20
21.3311154
40
0.2476868
50
86.9833827
51
90.0200148
0
LINE
8
DEFAULT_255_1_234
10
5.9146792
20
20.5154
11
5.803038
21
20.8206061
0
LINE
8
DEFAULT_255_1_234
10
5.803038
20
20.8206061
11
5.313102
21
20.8206061
0
LINE
8
DEFAULT_255_1_234
10
5.313102
20
20.8206061
11
5.2030672
21
20.5154
0
LINE
8
DEFAULT_255_1_234
10
5.2030672
20
20.5154
11
5.0440388
21
20.5154
0
LINE
8
DEFAULT_255_1_234
10
5.0440388
20
20.5154
11
5.4906034
21
21.6848211
0
LINE
8
DEFAULT_255_1_234
10
5.4906034
20
21.6848211
11
5.6255366
21
21.6848211
0
LINE
8
DEFAULT_255_1_234
10
5.6255366
20
21.6848211
11
6.0729044
21
20.5154
0
LINE
8
DEFAULT_255_1_234
10
6.0729044
20
20.5154
11
5.9146792
21
20.5154
0
LINE
8
DEFAULT_255_1_234
10
5.55807
20
21.4944689
11
5.3596861
21
20.9475075
0
LINE
8
DEFAULT_255_1_234
10
5.3596861
20
20.9475075
11
5.7572571
21
20.9475075
0
LINE
8
DEFAULT_255_1_234
10
5.7572571
20
20.9475075
11
5.55807
21
21.4944689
0
LINE
8
DEFAULT_255_1_234
10
4.8144674
20
29.6223211
11
4.8144674
21
29.538791
0
LINE
8
DEFAULT_255_1_234
10
4.8144674
20
29.538791
11
4.3301536
21
28.4529
0
LINE
8
DEFAULT_255_1_234
10
4.3301536
20
28.4529
11
4.1743379
21
28.4529
0
LINE
8
DEFAULT_255_1_234
10
4.1743379
20
28.4529
11
4.6570454
21
29.5002387
0
LINE
8
DEFAULT_255_1_234
10
4.6570454
20
29.5002387
11
4.0241444
21
29.5002387
0
LINE
8
DEFAULT_255_1_234
10
4.0241444
20
29.5002387
11
4.0241444
21
29.6223211
0
LINE
8
DEFAULT_255_1_234
10
4.0241444
20
29.6223211
11
4.8144674
21
29.6223211
0
LINE
8
DEFAULT_255_1_234
10
5.7341015
20
28.8906297
11
5.7341015
21
28.877779
0
LINE
8
DEFAULT_255_1_234
10
5.1421624
20
28.5532967
11
5.1349338
21
28.4529
0
LINE
8
DEFAULT_255_1_234
10
5.1349338
20
28.4529
11
4.9983942
21
28.4529
0
LINE
8
DEFAULT_255_1_234
10
4.9983942
20
28.4529
11
4.9983942
21
29.686575
0
LINE
8
DEFAULT_255_1_234
10
4.9983942
20
29.686575
11
5.1469814
21
29.686575
0
LINE
8
DEFAULT_255_1_234
10
5.1469814
20
29.686575
11
5.1469814
21
29.2263564
0
LINE
8
DEFAULT_255_1_234
10
5.1469814
20
29.0753597
11
5.1469814
21
28.6994744
0
ARC
8
DEFAULT_255_1_234
10
5.029429
20
28.8733573
40
0.7046863
50
349.4825105
51
0.3595108
0
ARC
8
DEFAULT_255_1_234
10
5.2571531
20
28.8295022
40
0.4727857
50
331.8602128
51
349.6704139
0
ARC
8
DEFAULT_255_1_234
10
5.3304299
20
28.7938125
40
0.3913503
50
322.8939783
51
331.4081204
0
ARC
8
DEFAULT_255_1_234
10
5.3999697
20
28.7358707
40
0.300965
50
296.7249167
51
323.7044215
0
ARC
8
DEFAULT_255_1_234
10
5.4029594
20
28.7428043
40
0.3058683
50
270.6342811
51
295.6405548
0
ARC
8
DEFAULT_255_1_234
10
5.3967904
20
28.8230995
40
0.3862632
50
269.9967524
51
271.4174733
0
ARC
8
DEFAULT_255_1_234
10
5.3929568
20
28.8095686
40
0.3727515
50
253.657532
51
270.5859025
0
ARC
8
DEFAULT_255_1_234
10
5.3698674
20
28.7252235
40
0.2853216
50
217.0543181
51
253.3409865
0
ARC
8
DEFAULT_255_1_234
10
5.3765342
20
29.0436052
40
0.2934152
50
93.1931545
51
141.4760602
0
ARC
8
DEFAULT_255_1_234
10
5.3947558
20
28.9203453
40
0.4176524
50
89.9442578
51
94.747309
0
ARC
8
DEFAULT_255_1_234
10
5.3991305
20
29.002641
40
0.3353801
50
70.6103515
51
90.6779749
0
ARC
8
DEFAULT_255_1_234
10
5.4105607
20
29.048189
40
0.2886533
50
36.1152635
51
69.7489296
0
ARC
8
DEFAULT_255_1_234
10
5.3119011
20
28.9728708
40
0.4127561
50
15.4648517
51
36.4891396
0
ARC
8
DEFAULT_255_1_234
10
5.1060697
20
28.9129524
40
0.6271187
50
3.9220813
51
15.7265815
0
ARC
8
DEFAULT_255_1_234
10
4.8701541
20
28.8917325
40
0.863948
50
359.9268643
51
4.2559037
0
ARC
8
DEFAULT_255_1_234
10
4.9515922
20
28.8977103
40
0.6339295
50
359.7230081
51
7.7115859
0
ARC
8
DEFAULT_255_1_234
10
5.1777487
20
28.9293172
40
0.4055784
50
7.5740023
51
19.4151451
0
ARC
8
DEFAULT_255_1_234
10
5.3045126
20
28.9739519
40
0.2711858
50
19.4238354
51
34.9161182
0
ARC
8
DEFAULT_255_1_234
10
5.3715864
20
29.0226172
40
0.1883373
50
34.4556322
51
84.4656458
0
ARC
8
DEFAULT_255_1_234
10
5.3587312
20
28.9471057
40
0.2647939
50
83.2727306
51
90.1114621
0
ARC
8
DEFAULT_255_1_234
10
5.3545169
20
28.9669509
40
0.2449763
50
89.1347934
51
111.4089923
0
ARC
8
DEFAULT_255_1_234
10
5.346572
20
28.9997473
40
0.2115923
50
112.6478598
51
148.9260864
0
ARC
8
DEFAULT_255_1_234
10
5.4243518
20
28.9455985
40
0.3062228
50
147.7597608
51
154.928557
0
ARC
8
DEFAULT_255_1_234
10
5.3983579
20
28.8211379
40
0.2792708
50
205.8264786
51
224.5301003
0
ARC
8
DEFAULT_255_1_234
10
5.3505883
20
28.7784914
40
0.2153317
50
225.354483
51
269.2437579
0
ARC
8
DEFAULT_255_1_234
10
5.3597518
20
28.8591292
40
0.2961942
50
267.6770046
51
270.0136612
0
ARC
8
DEFAULT_255_1_234
10
5.3624869
20
28.7832938
40
0.2203751
50
269.3072485
51
289.499141
0
ARC
8
DEFAULT_255_1_234
10
5.3696933
20
28.7536394
40
0.1900415
50
290.4353973
51
325.3766314
0
ARC
8
DEFAULT_255_1_234
10
5.3068156
20
28.7990643
40
0.2675986
50
325.0223901
51
342.692398
0
ARC
8
DEFAULT_255_1_234
10
5.1371044
20
28.8542812
40
0.446058
50
342.4062876
51
352.8669243
0
ARC
8
DEFAULT_255_1_234
10
4.8650519
20
28.8899975
40
0.7204419
50
352.7350668
51
359.8556985
0
ARC
8
DEFAULT_255_1_234
10
4.6740215
20
28.8946018
40
0.9114927
50
359.5965197
51
0.0027543
0
LINE
8
DEFAULT_255_1_234
10
4.8674674
20
37.5598211
11
4.8674674
21
37.476291
0
LINE
8
DEFAULT_255_1_234
10
4.8674674
20
37.476291
11
4.3831536
21
36.3904
0
LINE
8
DEFAULT_255_1_234
10
4.3831536
20
36.3904
11
4.2273379
21
36.3904
0
LINE
8
DEFAULT_255_1_234
10
4.2273379
20
36.3904
11
4.7100454
21
37.4377387
0
LINE
8
DEFAULT_255_1_234
10
4.7100454
20
37.4377387
11
4.0771444
21
37.4377387
0
LINE
8
DEFAULT_255_1_234
10
4.0771444
20
37.4377387
11
4.0771444
21
37.5598211
0
LINE
8
DEFAULT_255_1_234
10
4.0771444
20
37.5598211
11
4.8674674
21
37.5598211
0
LINE
8
DEFAULT_255_1_234
10
5.4802891
20
36.3904
11
5.0746863
21
36.3904
0
LINE
8
DEFAULT_255_1_234
10
5.0746863
20
36.3904
11
5.0746863
21
37.5598211
0
LINE
8
DEFAULT_255_1_234
10
5.0746863
20
37.5598211
11
5.456997
21
37.5598211
0
LINE
8
DEFAULT_255_1_234
10
5.4859113
20
36.9373614
11
5.2288957
21
36.9373614
0
LINE
8
DEFAULT_255_1_234
10
5.2288957
20
36.9373614
11
5.2288957
21
36.5164983
0
LINE
8
DEFAULT_255_1_234
10
5.2288957
20
36.5164983
11
5.4835018
21
36.5164983
0
LINE
8
DEFAULT_255_1_234
10
5.2288957
20
37.4329196
11
5.2288957
21
37.0610501
0
LINE
8
DEFAULT_255_1_234
10
5.2288957
20
37.0610501
11
5.4618161
21
37.0610501
0
LINE
8
DEFAULT_255_1_234
10
5.456997
20
37.4329196
11
5.2288957
21
37.4329196
0
ARC
8
DEFAULT_255_1_234
10
5.4607679
20
36.8230901
40
0.7367406
50
82.1257326
51
90.2932599
0
ARC
8
DEFAULT_255_1_234
10
5.4996634
20
37.0949013
40
0.4621653
50
69.9044149
51
82.2857423
0
ARC
8
DEFAULT_255_1_234
10
5.5567312
20
37.2491637
40
0.2976871
50
51.1838526
51
70.0181538
0
ARC
8
DEFAULT_255_1_234
10
5.5822278
20
37.286224
40
0.2528517
50
12.1017251
51
50.4214761
0
ARC
8
DEFAULT_255_1_234
10
5.4438152
20
37.2514676
40
0.3955061
50
359.5251267
51
12.8211707
0
ARC
8
DEFAULT_255_1_234
10
5.6018078
20
37.2445344
40
0.2375281
50
323.4908128
51
0.8817314
0
ARC
8
DEFAULT_255_1_234
10
5.5599765
20
37.276855
40
0.2903817
50
298.6825083
51
323.2756573
0
ARC
8
DEFAULT_255_1_234
10
5.5238128
20
37.3369649
40
0.3604842
50
293.1999386
51
299.1396394
0
ARC
8
DEFAULT_255_1_234
10
5.5911101
20
36.7284126
40
0.2871098
50
54.0011765
51
74.9167975
0
ARC
8
DEFAULT_255_1_234
10
5.602746
20
36.7481332
40
0.2643248
50
36.3580696
51
53.5291921
0
ARC
8
DEFAULT_255_1_234
10
5.5900702
20
36.7390998
40
0.2798884
50
4.8189881
51
36.3089977
0
ARC
8
DEFAULT_255_1_234
10
5.5121537
20
36.728127
40
0.358478
50
359.9370252
51
5.5204067
0
ARC
8
DEFAULT_255_1_234
10
5.4797059
20
36.7240667
40
0.3909429
50
344.7478609
51
0.5373281
0
ARC
8
DEFAULT_255_1_234
10
5.578803
20
36.6973544
40
0.2883093
50
311.1786488
51
344.6886812
0
ARC
8
DEFAULT_255_1_234
10
5.5496077
20
36.7336987
40
0.3348923
50
286.0418249
51
310.8441291
0
ARC
8
DEFAULT_255_1_234
10
5.4988909
20
36.8983807
40
0.5071869
50
274.1042341
51
286.4071509
0
ARC
8
DEFAULT_255_1_234
10
5.4812165
20
37.0867229
40
0.6963234
50
269.9236873
51
274.445647
0
ARC
8
DEFAULT_255_1_234
10
5.4858166
20
36.8527537
40
0.3362634
50
269.6055768
51
281.3740047
0
ARC
8
DEFAULT_255_1_234
10
5.5088804
20
36.7434353
40
0.224546
50
281.1055983
51
302.5132223
0
ARC
8
DEFAULT_255_1_234
10
5.5235703
20
36.7170823
40
0.1944357
50
303.0368945
51
311.8811219
0
ARC
8
DEFAULT_255_1_234
10
5.530711
20
36.708589
40
0.1833454
50
311.9916004
51
351.7143462
0
ARC
8
DEFAULT_255_1_234
10
5.449034
20
36.725093
40
0.2665871
50
350.7339597
51
0.2221581
0
ARC
8
DEFAULT_255_1_234
10
5.4382786
20
36.7307467
40
0.2773789
50
359.0456241
51
17.2296242
0
ARC
8
DEFAULT_255_1_234
10
5.5421903
20
36.7616163
40
0.1689915
50
17.6685481
51
78.9940892
0
ARC
8
DEFAULT_255_1_234
10
5.4905067
20
36.5761224
40
0.3612658
50
76.5635957
51
90.6980921
0
LINE
8
DEFAULT_255_1_234
10
5.4861051
20
36.9373613
11
5.4859113
21
36.9373614
0
ARC
8
DEFAULT_255_1_234
10
5.4640727
20
37.3896036
40
0.3285612
50
269.6064736
51
281.4533503
0
ARC
8
DEFAULT_255_1_234
10
5.4863547
20
37.2844688
40
0.2210975
50
281.2041486
51
302.5148063
0
ARC
8
DEFAULT_255_1_234
10
5.5000397
20
37.2598241
40
0.1929674
50
303.021671
51
309.8369575
0
ARC
8
DEFAULT_255_1_234
10
5.5183858
20
37.2392488
40
0.1654181
50
309.5228395
51
356.9509836
0
ARC
8
DEFAULT_255_1_234
10
5.4520441
20
37.2487932
40
0.2322512
50
355.4701227
51
0.0492546
0
ARC
8
DEFAULT_255_1_234
10
5.4241532
20
37.2510094
40
0.2601498
50
359.5558597
51
11.2096359
0
ARC
8
DEFAULT_255_1_234
10
5.5198822
20
37.270823
40
0.1623975
50
10.9182341
51
31.3230275
0
ARC
8
DEFAULT_255_1_234
10
5.5484555
20
37.2867214
40
0.1297302
50
31.8852677
51
52.1412565
0
ARC
8
DEFAULT_255_1_234
10
5.5210288
20
37.247975
40
0.1771663
50
52.8285564
51
71.9850297
0
ARC
8
DEFAULT_255_1_234
10
5.4834464
20
37.1373664
40
0.2939794
50
71.6863486
51
82.8455995
0
ARC
8
DEFAULT_255_1_234
10
5.4595
20
36.9564149
40
0.476506
50
82.6984714
51
90.1729175
0
ARC
8
DEFAULT_255_1_234
10
5.4572635
20
37.0787623
40
0.3541573
50
89.8708275
51
90.0431131
0
LINE
8
DEFAULT_255_1_234
10
4.9500674
20
45.4973211
11
4.9500674
21
45.413791
0
LINE
8
DEFAULT_255_1_234
10
4.9500674
20
45.413791
11
4.4657536
21
44.3279
0
LINE
8
DEFAULT_255_1_234
10
4.4657536
20
44.3279
11
4.3099379
21
44.3279
0
LINE
8
DEFAULT_255_1_234
10
4.3099379
20
44.3279
11
4.7926454
21
45.3752387
0
LINE
8
DEFAULT_255_1_234
10
4.7926454
20
45.3752387
11
4.1597444
21
45.3752387
0
LINE
8
DEFAULT_255_1_234
10
4.1597444
20
45.3752387
11
4.1597444
21
45.4973211
0
LINE
8
DEFAULT_255_1_234
10
4.1597444
20
45.4973211
11
4.9500674
21
45.4973211
0
LINE
8
DEFAULT_255_1_234
10
5.9146792
20
44.3279
11
5.803038
21
44.6331061
0
LINE
8
DEFAULT_255_1_234
10
5.803038
20
44.6331061
11
5.313102
21
44.6331061
0
LINE
8
DEFAULT_255_1_234
10
5.313102
20
44.6331061
11
5.2030672
21
44.3279
0
LINE
8
DEFAULT_255_1_234
10
5.2030672
20
44.3279
11
5.0440388
21
44.3279
0
LINE
8
DEFAULT_255_1_234
10
5.0440388
20
44.3279
11
5.4906034
21
45.4973211
0
LINE
8
DEFAULT_255_1_234
10
5.4906034
20
45.4973211
11
5.6255366
21
45.4973211
0
LINE
8
DEFAULT_255_1_234
10
5.6255366
20
45.4973211
11
6.0729044
21
44.3279
0
LINE
8
DEFAULT_255_1_234
10
6.0729044
20
44.3279
11
5.9146792
21
44.3279
0
LINE
8
DEFAULT_255_1_234
10
5.55807
20
45.3069689
11
5.3596861
21
44.7600075
0
LINE
8
DEFAULT_255_1_234
10
5.3596861
20
44.7600075
11
5.7572571
21
44.7600075
0
LINE
8
DEFAULT_255_1_234
10
5.7572571
20
44.7600075
11
5.55807
21
45.3069689
0
LINE
8
DEFAULT_255_1_234
10
4.6160835
20
53.4356243
11
4.6425882
21
53.4356243
0
LINE
8
DEFAULT_255_1_234
10
4.6425882
20
53.4356243
11
4.6425882
21
53.309526
0
LINE
8
DEFAULT_255_1_234
10
4.6425882
20
53.309526
11
4.6152803
21
53.309526
0
LINE
8
DEFAULT_255_1_234
10
4.0683189
20
52.7103583
11
4.0683189
21
52.7673836
0
LINE
8
DEFAULT_255_1_234
10
4.2177093
20
52.7481075
11
4.2177093
21
52.6934917
0
ARC
8
DEFAULT_255_1_234
10
4.6205151
20
52.8097455
40
0.4998079
50
90.6001036
51
104.514704
0
ARC
8
DEFAULT_255_1_234
10
4.5816667
20
52.9542131
40
0.3502176
50
104.2855254
51
133.862935
0
ARC
8
DEFAULT_255_1_234
10
4.5980424
20
52.943383
40
0.3693984
50
134.5302688
51
161.6210873
0
ARC
8
DEFAULT_255_1_234
10
4.7633613
20
52.8850895
40
0.5446739
50
161.2849839
51
174.2076652
0
ARC
8
DEFAULT_255_1_234
10
4.904055
20
52.8656787
40
0.6866274
50
173.7810589
51
174.9254635
0
ARC
8
DEFAULT_255_1_234
10
4.4490382
20
52.7273839
40
0.3033419
50
95.8330959
51
138.9954921
0
ARC
8
DEFAULT_255_1_234
10
4.4713738
20
52.5995375
40
0.4328947
50
89.8753725
51
97.0544009
0
ARC
8
DEFAULT_255_1_234
10
4.4761204
20
52.6830748
40
0.3493769
50
71.6407809
51
90.6240094
0
ARC
8
DEFAULT_255_1_234
10
4.4911777
20
52.7385082
40
0.2920396
50
39.6367836
51
71.019018
0
ARC
8
DEFAULT_255_1_234
10
4.427525
20
52.6834998
40
0.3761538
50
10.658731
51
39.9043955
0
ARC
8
DEFAULT_255_1_234
10
4.2727333
20
52.6498686
40
0.5345136
50
359.682601
51
11.132623
0
ARC
8
DEFAULT_255_1_234
10
4.2687464
20
52.642801
40
0.5385081
50
347.2486944
51
0.4369317
0
ARC
8
DEFAULT_255_1_234
10
4.4354941
20
52.6026807
40
0.3670249
50
318.1409698
51
347.6118597
0
ARC
8
DEFAULT_255_1_234
10
4.4679934
20
52.5759702
40
0.3250007
50
275.6342139
51
317.8248465
0
ARC
8
DEFAULT_255_1_234
10
4.4459045
20
52.7059219
40
0.4565864
50
269.8874292
51
276.7917694
0
ARC
8
DEFAULT_255_1_234
10
4.4404116
20
52.6033743
40
0.3540676
50
246.9140195
51
270.7437342
0
ARC
8
DEFAULT_255_1_234
10
4.4410506
20
52.5891384
40
0.3412781
50
218.1665114
51
245.878116
0
ARC
8
DEFAULT_255_1_234
10
4.5289967
20
52.6627279
40
0.455911
50
191.4115814
51
218.6077802
0
ARC
8
DEFAULT_255_1_234
10
4.7228056
20
52.7061833
40
0.6545001
50
179.6345085
51
191.7836486
0
ARC
8
DEFAULT_255_1_234
10
5.2810393
20
52.7740697
40
1.2127388
50
171.4525249
51
180.3158839
0
ARC
8
DEFAULT_255_1_234
10
4.8415269
20
52.8424608
40
0.7679464
50
157.9802646
51
171.6246686
0
ARC
8
DEFAULT_255_1_234
10
4.620129
20
52.9307421
40
0.5296008
50
141.4298019
51
157.854097
0
ARC
8
DEFAULT_255_1_234
10
4.555961
20
52.9761381
40
0.4511509
50
102.8715806
51
140.8564722
0
ARC
8
DEFAULT_255_1_234
10
4.6207226
20
52.7321552
40
0.7034845
50
90.3778349
51
103.5869322
0
ARC
8
DEFAULT_255_1_234
10
4.4469002
20
52.671673
40
0.2370698
50
89.8751008
51
126.2071704
0
ARC
8
DEFAULT_255_1_234
10
4.4514792
20
52.6562303
40
0.2522934
50
124.9745049
51
144.895901
0
ARC
8
DEFAULT_255_1_234
10
4.4338982
20
52.670556
40
0.2296779
50
145.2974905
51
160.2660252
0
ARC
8
DEFAULT_255_1_234
10
4.7411521
20
52.6903071
40
0.5234525
50
179.6514266
51
190.2855912
0
ARC
8
DEFAULT_255_1_234
10
4.5717658
20
52.6583786
40
0.3510893
50
190.0945431
51
207.5098196
0
ARC
8
DEFAULT_255_1_234
10
4.5151928
20
52.6314623
40
0.288489
50
207.9583163
51
216.3251085
0
ARC
8
DEFAULT_255_1_234
10
4.4812036
20
52.6035105
40
0.2445587
50
215.7661442
51
232.5456785
0
ARC
8
DEFAULT_255_1_234
10
4.4429019
20
52.5548482
40
0.1826382
50
232.8005391
51
270.6605633
0
ARC
8
DEFAULT_255_1_234
10
4.447472
20
52.5912612
40
0.2190529
50
269.35537
51
288.4744281
0
ARC
8
DEFAULT_255_1_234
10
4.4567617
20
52.5563118
40
0.1829749
50
289.1833337
51
322.9683818
0
ARC
8
DEFAULT_255_1_234
10
4.3956139
20
52.6045391
40
0.2608399
50
322.6007884
51
346.5182367
0
ARC
8
DEFAULT_255_1_234
10
4.2798735
20
52.6340616
40
0.3802777
50
346.2582162
51
358.7741648
0
ARC
8
DEFAULT_255_1_234
10
4.1780404
20
52.6395965
40
0.4822176
50
358.3755224
51
0.0098023
0
ARC
8
DEFAULT_255_1_234
10
4.2536591
20
52.6423657
40
0.4066078
50
359.6214041
51
11.2839074
0
ARC
8
DEFAULT_255_1_234
10
4.3813738
20
52.6690066
40
0.2761514
50
11.0482309
51
31.8146458
0
ARC
8
DEFAULT_255_1_234
10
4.4122781
20
52.6857584
40
0.2410679
50
32.3035391
51
38.082671
0
ARC
8
DEFAULT_255_1_234
10
4.4543441
20
52.7238662
40
0.1844966
50
36.825067
51
85.7415724
0
ARC
8
DEFAULT_255_1_234
10
4.4476274
20
52.6738301
40
0.2349122
50
85.0140713
51
90.0513278
0
LINE
8
DEFAULT_255_1_234
10
5.7341015
20
52.7031297
11
5.7341015
21
52.690279
0
LINE
8
DEFAULT_255_1_234
10
5.1421624
20
52.3657967
11
5.1349338
21
52.2654
0
LINE
8
DEFAULT_255_1_234
10
5.1349338
20
52.2654
11
4.9983942
21
52.2654
0
LINE
8
DEFAULT_255_1_234
10
4.9983942
20
52.2654
11
4.9983942
21
53.499075
0
LINE
8
DEFAULT_255_1_234
10
4.9983942
20
53.499075
11
5.1469814
21
53.499075
0
LINE
8
DEFAULT_255_1_234
10
5.1469814
20
53.499075
11
5.1469814
21
53.0388564
0
LINE
8
DEFAULT_255_1_234
10
5.1469814
20
52.8878597
11
5.1469814
21
52.5119744
0
ARC
8
DEFAULT_255_1_234
10
5.029429
20
52.6858573
40
0.7046863
50
349.4825105
51
0.3595108
0
ARC
8
DEFAULT_255_1_234
10
5.2571531
20
52.6420022
40
0.4727857
50
331.8602128
51
349.6704139
0
ARC
8
DEFAULT_255_1_234
10
5.3304299
20
52.6063125
40
0.3913503
50
322.8939783
51
331.4081204
0
ARC
8
DEFAULT_255_1_234
10
5.3999697
20
52.5483707
40
0.300965
50
296.7249167
51
323.7044215
0
ARC
8
DEFAULT_255_1_234
10
5.4029594
20
52.5553043
40
0.3058683
50
270.6342811
51
295.6405548
0
ARC
8
DEFAULT_255_1_234
10
5.3967904
20
52.6355995
40
0.3862632
50
269.9967524
51
271.4174733
0
ARC
8
DEFAULT_255_1_234
10
5.3929568
20
52.6220686
40
0.3727515
50
253.657532
51
270.5859025
0
ARC
8
DEFAULT_255_1_234
10
5.3698674
20
52.5377235
40
0.2853216
50
217.0543181
51
253.3409865
0
ARC
8
DEFAULT_255_1_234
10
5.3765342
20
52.8561052
40
0.2934152
50
93.1931545
51
141.4760602
0
ARC
8
DEFAULT_255_1_234
10
5.3947558
20
52.7328453
40
0.4176524
50
89.9442578
51
94.747309
0
ARC
8
DEFAULT_255_1_234
10
5.3991305
20
52.815141
40
0.3353801
50
70.6103515
51
90.6779749
0
ARC
8
DEFAULT_255_1_234
10
5.4105607
20
52.860689
40
0.2886533
50
36.1152635
51
69.7489296
0
ARC
8
DEFAULT_255_1_234
10
5.3119011
20
52.7853708
40
0.4127561
50
15.4648517
51
36.4891396
0
ARC
8
DEFAULT_255_1_234
10
5.1060697
20
52.7254524
40
0.6271187
50
3.9220813
51
15.7265815
0
ARC
8
DEFAULT_255_1_234
10
4.8701541
20
52.7042325
40
0.863948
50
359.9268643
51
4.2559037
0
ARC
8
DEFAULT_255_1_234
10
4.9515922
20
52.7102103
40
0.6339295
50
359.7230081
51
7.7115859
0
ARC
8
DEFAULT_255_1_234
10
5.1777487
20
52.7418172
40
0.4055784
50
7.5740023
51
19.4151451
0
ARC
8
DEFAULT_255_1_234
10
5.3045126
20
52.7864519
40
0.2711858
50
19.4238354
51
34.9161182
0
ARC
8
DEFAULT_255_1_234
10
5.3715864
20
52.8351172
40
0.1883373
50
34.4556322
51
84.4656458
0
ARC
8
DEFAULT_255_1_234
10
5.3587312
20
52.7596057
40
0.2647939
50
83.2727306
51
90.1114621
0
ARC
8
DEFAULT_255_1_234
10
5.3545169
20
52.7794509
40
0.2449763
50
89.1347934
51
111.4089923
0
ARC
8
DEFAULT_255_1_234
10
5.346572
20
52.8122473
40
0.2115923
50
112.6478598
51
148.9260864
0
ARC
8
DEFAULT_255_1_234
10
5.4243518
20
52.7580985
40
0.3062228
50
147.7597608
51
154.928557
0
ARC
8
DEFAULT_255_1_234
10
5.3983579
20
52.6336379
40
0.2792708
50
205.8264786
51
224.5301003
0
ARC
8
DEFAULT_255_1_234
10
5.3505883
20
52.5909914
40
0.2153317
50
225.354483
51
269.2437579
0
ARC
8
DEFAULT_255_1_234
10
5.3597518
20
52.6716292
40
0.2961942
50
267.6770046
51
270.0136612
0
ARC
8
DEFAULT_255_1_234
10
5.3624869
20
52.5957938
40
0.2203751
50
269.3072485
51
289.499141
0
ARC
8
DEFAULT_255_1_234
10
5.3696933
20
52.5661394
40
0.1900415
50
290.4353973
51
325.3766314
0
ARC
8
DEFAULT_255_1_234
10
5.3068156
20
52.6115643
40
0.2675986
50
325.0223901
51
342.692398
0
ARC
8
DEFAULT_255_1_234
10
5.1371044
20
52.6667812
40
0.446058
50
342.4062876
51
352.8669243
0
ARC
8
DEFAULT_255_1_234
10
4.8650519
20
52.7024975
40
0.7204419
50
352.7350668
51
359.8556985
0
ARC
8
DEFAULT_255_1_234
10
4.6740215
20
52.7071018
40
0.9114927
50
359.5965197
51
0.0027543
0
LINE
8
DEFAULT_255_1_234
10
4.6690835
20
61.3731243
11
4.6955882
21
61.3731243
0
LINE
8
DEFAULT_255_1_234
10
4.6955882
20
61.3731243
11
4.6955882
21
61.247026
0
LINE
8
DEFAULT_255_1_234
10
4.6955882
20
61.247026
11
4.6682803
21
61.247026
0
LINE
8
DEFAULT_255_1_234
10
4.1213189
20
60.6478583
11
4.1213189
21
60.7048836
0
LINE
8
DEFAULT_255_1_234
10
4.2707093
20
60.6856075
11
4.2707093
21
60.6309917
0
ARC
8
DEFAULT_255_1_234
10
4.6735151
20
60.7472455
40
0.4998079
50
90.6001036
51
104.514704
0
ARC
8
DEFAULT_255_1_234
10
4.6346667
20
60.8917131
40
0.3502176
50
104.2855254
51
133.862935
0
ARC
8
DEFAULT_255_1_234
10
4.6510424
20
60.880883
40
0.3693984
50
134.5302688
51
161.6210873
0
ARC
8
DEFAULT_255_1_234
10
4.8163613
20
60.8225895
40
0.5446739
50
161.2849839
51
174.2076652
0
ARC
8
DEFAULT_255_1_234
10
4.957055
20
60.8031787
40
0.6866274
50
173.7810589
51
174.9254635
0
ARC
8
DEFAULT_255_1_234
10
4.5020382
20
60.6648839
40
0.3033419
50
95.8330959
51
138.9954921
0
ARC
8
DEFAULT_255_1_234
10
4.5243738
20
60.5370375
40
0.4328947
50
89.8753725
51
97.0544009
0
ARC
8
DEFAULT_255_1_234
10
4.5291204
20
60.6205748
40
0.3493769
50
71.6407809
51
90.6240094
0
ARC
8
DEFAULT_255_1_234
10
4.5441777
20
60.6760082
40
0.2920396
50
39.6367836
51
71.019018
0
ARC
8
DEFAULT_255_1_234
10
4.480525
20
60.6209998
40
0.3761538
50
10.658731
51
39.9043955
0
ARC
8
DEFAULT_255_1_234
10
4.3257333
20
60.5873686
40
0.5345136
50
359.682601
51
11.132623
0
ARC
8
DEFAULT_255_1_234
10
4.3217464
20
60.580301
40
0.5385081
50
347.2486944
51
0.4369317
0
ARC
8
DEFAULT_255_1_234
10
4.4884941
20
60.5401807
40
0.3670249
50
318.1409698
51
347.6118597
0
ARC
8
DEFAULT_255_1_234
10
4.5209934
20
60.5134702
40
0.3250007
50
275.6342139
51
317.8248465
0
ARC
8
DEFAULT_255_1_234
10
4.4989045
20
60.6434219
40
0.4565864
50
269.8874292
51
276.7917694
0
ARC
8
DEFAULT_255_1_234
10
4.4934116
20
60.5408743
40
0.3540676
50
246.9140195
51
270.7437342
0
ARC
8
DEFAULT_255_1_234
10
4.4940506
20
60.5266384
40
0.3412781
50
218.1665114
51
245.878116
0
ARC
8
DEFAULT_255_1_234
10
4.5819967
20
60.6002279
40
0.455911
50
191.4115814
51
218.6077802
0
ARC
8
DEFAULT_255_1_234
10
4.7758056
20
60.6436833
40
0.6545001
50
179.6345085
51
191.7836486
0
ARC
8
DEFAULT_255_1_234
10
5.3340393
20
60.7115697
40
1.2127388
50
171.4525249
51
180.3158839
0
ARC
8
DEFAULT_255_1_234
10
4.8945269
20
60.7799608
40
0.7679464
50
157.9802646
51
171.6246686
0
ARC
8
DEFAULT_255_1_234
10
4.673129
20
60.8682421
40
0.5296008
50
141.4298019
51
157.854097
0
ARC
8
DEFAULT_255_1_234
10
4.608961
20
60.9136381
40
0.4511509
50
102.8715806
51
140.8564722
0
ARC
8
DEFAULT_255_1_234
10
4.6737226
20
60.6696552
40
0.7034845
50
90.3778349
51
103.5869322
0
ARC
8
DEFAULT_255_1_234
10
4.4999002
20
60.609173
40
0.2370698
50
89.8751008
51
126.2071704
0
ARC
8
DEFAULT_255_1_234
10
4.5044792
20
60.5937303
40
0.2522934
50
124.9745049
51
144.895901
0
ARC
8
DEFAULT_255_1_234
10
4.4868982
20
60.608056
40
0.2296779
50
145.2974905
51
160.2660252
0
ARC
8
DEFAULT_255_1_234
10
4.7941521
20
60.6278071
40
0.5234525
50
179.6514266
51
190.2855912
0
ARC
8
DEFAULT_255_1_234
10
4.6247658
20
60.5958786
40
0.3510893
50
190.0945431
51
207.5098196
0
ARC
8
DEFAULT_255_1_234
10
4.5681928
20
60.5689623
40
0.288489
50
207.9583163
51
216.3251085
0
ARC
8
DEFAULT_255_1_234
10
4.5342036
20
60.5410105
40
0.2445587
50
215.7661442
51
232.5456785
0
ARC
8
DEFAULT_255_1_234
10
4.4959019
20
60.4923482
40
0.1826382
50
232.8005391
51
270.6605633
0
ARC
8
DEFAULT_255_1_234
10
4.500472
20
60.5287612
40
0.2190529
50
269.35537
51
288.4744281
0
ARC
8
DEFAULT_255_1_234
10
4.5097617
20
60.4938118
40
0.1829749
50
289.1833337
51
322.9683818
0
ARC
8
DEFAULT_255_1_234
10
4.4486139
20
60.5420391
40
0.2608399
50
322.6007884
51
346.5182367
0
ARC
8
DEFAULT_255_1_234
10
4.3328735
20
60.5715616
40
0.3802777
50
346.2582162
51
358.7741648
0
ARC
8
DEFAULT_255_1_234
10
4.2310404
20
60.5770965
40
0.4822176
50
358.3755224
51
0.0098023
0
ARC
8
DEFAULT_255_1_234
10
4.3066591
20
60.5798657
40
0.4066078
50
359.6214041
51
11.2839074
0
ARC
8
DEFAULT_255_1_234
10
4.4343738
20
60.6065066
40
0.2761514
50
11.0482309
51
31.8146458
0
ARC
8
DEFAULT_255_1_234
10
4.4652781
20
60.6232584
40
0.2410679
50
32.3035391
51
38.082671
0
ARC
8
DEFAULT_255_1_234
10
4.5073441
20
60.6613662
40
0.1844966
50
36.825067
51
85.7415724
0
ARC
8
DEFAULT_255_1_234
10
4.5006274
20
60.6113301
40
0.2349122
50
85.0140713
51
90.0513278
0
LINE
8
DEFAULT_255_1_234
10
5.4802891
20
60.2029
11
5.0746863
21
60.2029
0
LINE
8
DEFAULT_255_1_234
10
5.0746863
20
60.2029
11
5.0746863
21
61.3723211
0
LINE
8
DEFAULT_255_1_234
10
5.0746863
20
61.3723211
11
5.456997
21
61.3723211
0
LINE
8
DEFAULT_255_1_234
10
5.4859113
20
60.7498614
11
5.2288957
21
60.7498614
0
LINE
8
DEFAULT_255_1_234
10
5.2288957
20
60.7498614
11
5.2288957
21
60.3289983
0
LINE
8
DEFAULT_255_1_234
10
5.2288957
20
60.3289983
11
5.4835018
21
60.3289983
0
LINE
8
DEFAULT_255_1_234
10
5.2288957
20
61.2454196
11
5.2288957
21
60.8735501
0
LINE
8
DEFAULT_255_1_234
10
5.2288957
20
60.8735501
11
5.4618161
21
60.8735501
0
LINE
8
DEFAULT_255_1_234
10
5.456997
20
61.2454196
11
5.2288957
21
61.2454196
0
ARC
8
DEFAULT_255_1_234
10
5.4607679
20
60.6355901
40
0.7367406
50
82.1257326
51
90.2932599
0
ARC
8
DEFAULT_255_1_234
10
5.4996634
20
60.9074013
40
0.4621653
50
69.9044149
51
82.2857423
0
ARC
8
DEFAULT_255_1_234
10
5.5567312
20
61.0616637
40
0.2976871
50
51.1838526
51
70.0181538
0
ARC
8
DEFAULT_255_1_234
10
5.5822278
20
61.098724
40
0.2528517
50
12.1017251
51
50.4214761
0
ARC
8
DEFAULT_255_1_234
10
5.4438152
20
61.0639676
40
0.3955061
50
359.5251267
51
12.8211707
0
ARC
8
DEFAULT_255_1_234
10
5.6018078
20
61.0570344
40
0.2375281
50
323.4908128
51
0.8817314
0
ARC
8
DEFAULT_255_1_234
10
5.5599765
20
61.089355
40
0.2903817
50
298.6825083
51
323.2756573
0
ARC
8
DEFAULT_255_1_234
10
5.5238128
20
61.1494649
40
0.3604842
50
293.1999386
51
299.1396394
0
ARC
8
DEFAULT_255_1_234
10
5.5911101
20
60.5409126
40
0.2871098
50
54.0011765
51
74.9167975
0
ARC
8
DEFAULT_255_1_234
10
5.602746
20
60.5606332
40
0.2643248
50
36.3580696
51
53.5291921
0
ARC
8
DEFAULT_255_1_234
10
5.5900702
20
60.5515998
40
0.2798884
50
4.8189881
51
36.3089977
0
ARC
8
DEFAULT_255_1_234
10
5.5121537
20
60.540627
40
0.358478
50
359.9370252
51
5.5204067
0
ARC
8
DEFAULT_255_1_234
10
5.4797059
20
60.5365667
40
0.3909429
50
344.7478609
51
0.5373281
0
ARC
8
DEFAULT_255_1_234
10
5.578803
20
60.5098544
40
0.2883093
50
311.1786488
51
344.6886812
0
ARC
8
DEFAULT_255_1_234
10
5.5496077
20
60.5461987
40
0.3348923
50
286.0418249
51
310.8441291
0
ARC
8
DEFAULT_255_1_234
10
5.4988909
20
60.7108807
40
0.5071869
50
274.1042341
51
286.4071509
0
ARC
8
DEFAULT_255_1_234
10
5.4812165
20
60.8992229
40
0.6963234
50
269.9236873
51
274.445647
0
ARC
8
DEFAULT_255_1_234
10
5.4858166
20
60.6652537
40
0.3362634
50
269.6055768
51
281.3740047
0
ARC
8
DEFAULT_255_1_234
10
5.5088804
20
60.5559353
40
0.224546
50
281.1055983
51
302.5132223
0
ARC
8
DEFAULT_255_1_234
10
5.5235703
20
60.5295823
40
0.1944357
50
303.0368945
51
311.8811219
0
ARC
8
DEFAULT_255_1_234
10
5.530711
20
60.521089
40
0.1833454
50
311.9916004
51
351.7143462
0
ARC
8
DEFAULT_255_1_234
10
5.449034
20
60.537593
40
0.2665871
50
350.7339597
51
0.2221581
0
ARC
8
DEFAULT_255_1_234
10
5.4382786
20
60.5432467
40
0.2773789
50
359.0456241
51
17.2296242
0
ARC
8
DEFAULT_255_1_234
10
5.5421903
20
60.5741163
40
0.1689915
50
17.6685481
51
78.9940892
0
ARC
8
DEFAULT_255_1_234
10
5.4905067
20
60.3886224
40
0.3612658
50
76.5635957
51
90.6980921
0
LINE
8
DEFAULT_255_1_234
10
5.4861051
20
60.7498613
11
5.4859113
21
60.7498614
0
ARC
8
DEFAULT_255_1_234
10
5.4640727
20
61.2021036
40
0.3285612
50
269.6064736
51
281.4533503
0
ARC
8
DEFAULT_255_1_234
10
5.4863547
20
61.0969688
40
0.2210975
50
281.2041486
51
302.5148063
0
ARC
8
DEFAULT_255_1_234
10
5.5000397
20
61.0723241
40
0.1929674
50
303.021671
51
309.8369575
0
ARC
8
DEFAULT_255_1_234
10
5.5183858
20
61.0517488
40
0.1654181
50
309.5228395
51
356.9509836
0
ARC
8
DEFAULT_255_1_234
10
5.4520441
20
61.0612932
40
0.2322512
50
355.4701227
51
0.0492546
0
ARC
8
DEFAULT_255_1_234
10
5.4241532
20
61.0635094
40
0.2601498
50
359.5558597
51
11.2096359
0
ARC
8
DEFAULT_255_1_234
10
5.5198822
20
61.083323
40
0.1623975
50
10.9182341
51
31.3230275
0
ARC
8
DEFAULT_255_1_234
10
5.5484555
20
61.0992214
40
0.1297302
50
31.8852677
51
52.1412565
0
ARC
8
DEFAULT_255_1_234
10
5.5210288
20
61.060475
40
0.1771663
50
52.8285564
51
71.9850297
0
ARC
8
DEFAULT_255_1_234
10
5.4834464
20
60.9498664
40
0.2939794
50
71.6863486
51
82.8455995
0
ARC
8
DEFAULT_255_1_234
10
5.4595
20
60.7689149
40
0.476506
50
82.6984714
51
90.1729175
0
ARC
8
DEFAULT_255_1_234
10
5.4572635
20
60.8912623
40
0.3541573
50
89.8708275
51
90.0431131
0
LINE
8
DEFAULT_255_1_234
10
4.7516835
20
69.3106243
11
4.7781882
21
69.3106243
0
LINE
8
DEFAULT_255_1_234
10
4.7781882
20
69.3106243
11
4.7781882
21
69.184526
0
LINE
8
DEFAULT_255_1_234
10
4.7781882
20
69.184526
11
4.7508803
21
69.184526
0
LINE
8
DEFAULT_255_1_234
10
4.2039189
20
68.5853583
11
4.2039189
21
68.6423836
0
LINE
8
DEFAULT_255_1_234
10
4.3533093
20
68.6231075
11
4.3533093
21
68.5684917
0
ARC
8
DEFAULT_255_1_234
10
4.7561151
20
68.6847455
40
0.4998079
50
90.6001036
51
104.514704
0
ARC
8
DEFAULT_255_1_234
10
4.7172667
20
68.8292131
40
0.3502176
50
104.2855254
51
133.862935
0
ARC
8
DEFAULT_255_1_234
10
4.7336424
20
68.818383
40
0.3693984
50
134.5302688
51
161.6210873
0
ARC
8
DEFAULT_255_1_234
10
4.8989613
20
68.7600895
40
0.5446739
50
161.2849839
51
174.2076652
0
ARC
8
DEFAULT_255_1_234
10
5.039655
20
68.7406787
40
0.6866274
50
173.7810589
51
174.9254635
0
ARC
8
DEFAULT_255_1_234
10
4.5846382
20
68.6023839
40
0.3033419
50
95.8330959
51
138.9954921
0
ARC
8
DEFAULT_255_1_234
10
4.6069738
20
68.4745375
40
0.4328947
50
89.8753725
51
97.0544009
0
ARC
8
DEFAULT_255_1_234
10
4.6117204
20
68.5580748
40
0.3493769
50
71.6407809
51
90.6240094
0
ARC
8
DEFAULT_255_1_234
10
4.6267777
20
68.6135082
40
0.2920396
50
39.6367836
51
71.019018
0
ARC
8
DEFAULT_255_1_234
10
4.563125
20
68.5584998
40
0.3761538
50
10.658731
51
39.9043955
0
ARC
8
DEFAULT_255_1_234
10
4.4083333
20
68.5248686
40
0.5345136
50
359.682601
51
11.132623
0
ARC
8
DEFAULT_255_1_234
10
4.4043464
20
68.517801
40
0.5385081
50
347.2486944
51
0.4369317
0
ARC
8
DEFAULT_255_1_234
10
4.5710941
20
68.4776807
40
0.3670249
50
318.1409698
51
347.6118597
0
ARC
8
DEFAULT_255_1_234
10
4.6035934
20
68.4509702
40
0.3250007
50
275.6342139
51
317.8248465
0
ARC
8
DEFAULT_255_1_234
10
4.5815045
20
68.5809219
40
0.4565864
50
269.8874292
51
276.7917694
0
ARC
8
DEFAULT_255_1_234
10
4.5760116
20
68.4783743
40
0.3540676
50
246.9140195
51
270.7437342
0
ARC
8
DEFAULT_255_1_234
10
4.5766506
20
68.4641384
40
0.3412781
50
218.1665114
51
245.878116
0
ARC
8
DEFAULT_255_1_234
10
4.6645967
20
68.5377279
40
0.455911
50
191.4115814
51
218.6077802
0
ARC
8
DEFAULT_255_1_234
10
4.8584056
20
68.5811833
40
0.6545001
50
179.6345085
51
191.7836486
0
ARC
8
DEFAULT_255_1_234
10
5.4166393
20
68.6490697
40
1.2127388
50
171.4525249
51
180.3158839
0
ARC
8
DEFAULT_255_1_234
10
4.9771269
20
68.7174608
40
0.7679464
50
157.9802646
51
171.6246686
0
ARC
8
DEFAULT_255_1_234
10
4.755729
20
68.8057421
40
0.5296008
50
141.4298019
51
157.854097
0
ARC
8
DEFAULT_255_1_234
10
4.691561
20
68.8511381
40
0.4511509
50
102.8715806
51
140.8564722
0
ARC
8
DEFAULT_255_1_234
10
4.7563226
20
68.6071552
40
0.7034845
50
90.3778349
51
103.5869322
0
ARC
8
DEFAULT_255_1_234
10
4.5825002
20
68.546673
40
0.2370698
50
89.8751008
51
126.2071704
0
ARC
8
DEFAULT_255_1_234
10
4.5870792
20
68.5312303
40
0.2522934
50
124.9745049
51
144.895901
0
ARC
8
DEFAULT_255_1_234
10
4.5694982
20
68.545556
40
0.2296779
50
145.2974905
51
160.2660252
0
ARC
8
DEFAULT_255_1_234
10
4.8767521
20
68.5653071
40
0.5234525
50
179.6514266
51
190.2855912
0
ARC
8
DEFAULT_255_1_234
10
4.7073658
20
68.5333786
40
0.3510893
50
190.0945431
51
207.5098196
0
ARC
8
DEFAULT_255_1_234
10
4.6507928
20
68.5064623
40
0.288489
50
207.9583163
51
216.3251085
0
ARC
8
DEFAULT_255_1_234
10
4.6168036
20
68.4785105
40
0.2445587
50
215.7661442
51
232.5456785
0
ARC
8
DEFAULT_255_1_234
10
4.5785019
20
68.4298482
40
0.1826382
50
232.8005391
51
270.6605633
0
ARC
8
DEFAULT_255_1_234
10
4.583072
20
68.4662612
40
0.2190529
50
269.35537
51
288.4744281
0
ARC
8
DEFAULT_255_1_234
10
4.5923617
20
68.4313118
40
0.1829749
50
289.1833337
51
322.9683818
0
ARC
8
DEFAULT_255_1_234
10
4.5312139
20
68.4795391
40
0.2608399
50
322.6007884
51
346.5182367
0
ARC
8
DEFAULT_255_1_234
10
4.4154735
20
68.5090616
40
0.3802777
50
346.2582162
51
358.7741648
0
ARC
8
DEFAULT_255_1_234
10
4.3136404
20
68.5145965
40
0.4822176
50
358.3755224
51
0.0098023
0
ARC
8
DEFAULT_255_1_234
10
4.3892591
20
68.5173657
40
0.4066078
50
359.6214041
51
11.2839074
0
ARC
8
DEFAULT_255_1_234
10
4.5169738
20
68.5440066
40
0.2761514
50
11.0482309
51
31.8146458
0
ARC
8
DEFAULT_255_1_234
10
4.5478781
20
68.5607584
40
0.2410679
50
32.3035391
51
38.082671
0
ARC
8
DEFAULT_255_1_234
10
4.5899441
20
68.5988662
40
0.1844966
50
36.825067
51
85.7415724
0
ARC
8
DEFAULT_255_1_234
10
4.5832274
20
68.5488301
40
0.2349122
50
85.0140713
51
90.0513278
0
LINE
8
DEFAULT_255_1_234
10
5.9146792
20
68.1404
11
5.803038
21
68.4456061
0
LINE
8
DEFAULT_255_1_234
10
5.803038
20
68.4456061
11
5.313102
21
68.4456061
0
LINE
8
DEFAULT_255_1_234
10
5.313102
20
68.4456061
11
5.2030672
21
68.1404
0
LINE
8
DEFAULT_255_1_234
10
5.2030672
20
68.1404
11
5.0440388
21
68.1404
0
LINE
8
DEFAULT_255_1_234
10
5.0440388
20
68.1404
11
5.4906034
21
69.3098211
0
LINE
8
DEFAULT_255_1_234
10
5.4906034
20
69.3098211
11
5.6255366
21
69.3098211
0
LINE
8
DEFAULT_255_1_234
10
5.6255366
20
69.3098211
11
6.0729044
21
68.1404
0
LINE
8
DEFAULT_255_1_234
10
6.0729044
20
68.1404
11
5.9146792
21
68.1404
0
LINE
8
DEFAULT_255_1_234
10
5.55807
20
69.1194689
11
5.3596861
21
68.5725075
0
LINE
8
DEFAULT_255_1_234
10
5.3596861
20
68.5725075
11
5.7572571
21
68.5725075
0
LINE
8
DEFAULT_255_1_234
10
5.7572571
20
68.5725075
11
5.55807
21
69.1194689
0
LINE
8
DEFAULT_255_1_234
10
4.2466235
20
76.6336963
11
4.1277538
21
76.6642169
0
LINE
8
DEFAULT_255_1_234
10
4.1277538
20
76.6642169
11
4.1871887
21
77.2473211
0
LINE
8
DEFAULT_255_1_234
10
4.1871887
20
77.2473211
11
4.7863563
21
77.2473211
0
LINE
8
DEFAULT_255_1_234
10
4.7863563
20
77.2473211
11
4.7863563
21
77.1099784
0
LINE
8
DEFAULT_255_1_234
10
4.7863563
20
77.1099784
11
4.313287
21
77.1099784
0
LINE
8
DEFAULT_255_1_234
10
4.313287
20
77.1099784
11
4.2779473
21
76.7911184
0
LINE
8
DEFAULT_255_1_234
10
4.0859888
20
76.3855156
11
4.2265442
21
76.3855156
0
LINE
8
DEFAULT_255_1_234
10
4.2859791
20
76.6658232
11
4.2466235
21
76.6336963
0
ARC
8
DEFAULT_255_1_234
10
4.4634257
20
76.473123
40
0.3681349
50
93.7182161
51
120.2538958
0
ARC
8
DEFAULT_255_1_234
10
4.472852
20
76.3923394
40
0.449379
50
89.9660152
51
94.2496022
0
ARC
8
DEFAULT_255_1_234
10
4.4769254
20
76.4512549
40
0.390482
50
73.8043271
51
90.5585896
0
ARC
8
DEFAULT_255_1_234
10
4.5004151
20
76.5370602
40
0.3015334
50
41.3071453
51
73.5430202
0
ARC
8
DEFAULT_255_1_234
10
4.4587978
20
76.5012324
40
0.3564457
50
13.5075983
51
41.2174222
0
ARC
8
DEFAULT_255_1_234
10
4.2946182
20
76.4582486
40
0.5261351
50
1.1331335
51
13.8829381
0
ARC
8
DEFAULT_255_1_234
10
4.1534551
20
76.4506665
40
0.6674378
50
359.9919444
51
1.544251
0
ARC
8
DEFAULT_255_1_234
10
4.2811377
20
76.446528
40
0.5397702
50
347.8572367
51
0.4293338
0
ARC
8
DEFAULT_255_1_234
10
4.4561695
20
76.4068736
40
0.3603188
50
323.673004
51
348.1672506
0
ARC
8
DEFAULT_255_1_234
10
4.4856203
20
76.3889168
40
0.3259678
50
316.8171152
51
323.1492751
0
ARC
8
DEFAULT_255_1_234
10
4.4917392
20
76.385246
40
0.3189975
50
281.8396411
51
316.5457803
0
ARC
8
DEFAULT_255_1_234
10
4.4541656
20
76.5407762
40
0.4789527
50
269.5770101
51
282.4214771
0
ARC
8
DEFAULT_255_1_234
10
4.4470467
20
76.5194125
40
0.45759
50
256.2427136
51
270.4486331
0
ARC
8
DEFAULT_255_1_234
10
4.417137
20
76.3994229
40
0.3339303
50
228.9023911
51
256.3314342
0
ARC
8
DEFAULT_255_1_234
10
4.4097602
20
76.3877746
40
0.32031
50
193.753695
51
228.5271154
0
ARC
8
DEFAULT_255_1_234
10
4.5335556
20
76.42408
40
0.4492253
50
184.924711
51
194.497588
0
ARC
8
DEFAULT_255_1_234
10
4.5528123
20
76.4276591
40
0.3289787
50
187.3600538
51
198.6732863
0
ARC
8
DEFAULT_255_1_234
10
4.4478417
20
76.3912674
40
0.217884
50
198.4451669
51
217.794479
0
ARC
8
DEFAULT_255_1_234
10
4.4182592
20
76.3703085
40
0.1816698
50
218.2887171
51
228.5612368
0
ARC
8
DEFAULT_255_1_234
10
4.4280379
20
76.3834963
40
0.1980329
50
228.9654866
51
258.1234728
0
ARC
8
DEFAULT_255_1_234
10
4.4486089
20
76.4715833
40
0.2884748
50
257.7258293
51
270.401361
0
ARC
8
DEFAULT_255_1_234
10
4.4530975
20
76.4270821
40
0.2439788
50
269.4204404
51
286.4209037
0
ARC
8
DEFAULT_255_1_234
10
4.4679463
20
76.3731657
40
0.1880666
50
286.7251356
51
320.600362
0
ARC
8
DEFAULT_255_1_234
10
4.4296288
20
76.4042595
40
0.2374121
50
320.6712579
51
344.5441685
0
ARC
8
DEFAULT_255_1_234
10
4.3139614
20
76.4382045
40
0.3579479
50
344.2412205
51
356.7357071
0
ARC
8
DEFAULT_255_1_234
10
4.1890763
20
76.4485444
40
0.4832297
50
356.3548756
51
0.0500261
0
ARC
8
DEFAULT_255_1_234
10
4.3227272
20
76.451665
40
0.3495889
50
359.5576869
51
12.953486
0
ARC
8
DEFAULT_255_1_234
10
4.4282169
20
76.4772434
40
0.2410532
50
12.6490276
51
41.6081334
0
ARC
8
DEFAULT_255_1_234
10
4.451254
20
76.4968321
40
0.2108218
50
41.7850273
51
85.9892764
0
ARC
8
DEFAULT_255_1_234
10
4.4389277
20
76.4155462
40
0.2928454
50
84.6957577
51
90.0676183
0
ARC
8
DEFAULT_255_1_234
10
4.4365761
20
76.3486716
40
0.3597255
50
89.6804936
51
99.1614436
0
ARC
8
DEFAULT_255_1_234
10
4.4160392
20
76.4714131
40
0.235281
50
98.9830931
51
113.8908934
0
ARC
8
DEFAULT_255_1_234
10
4.3930802
20
76.5255587
40
0.176479
50
114.1950727
51
127.3641004
0
LINE
8
DEFAULT_255_1_234
10
5.7341015
20
76.5156297
11
5.7341015
21
76.502779
0
LINE
8
DEFAULT_255_1_234
10
5.1421624
20
76.1782967
11
5.1349338
21
76.0779
0
LINE
8
DEFAULT_255_1_234
10
5.1349338
20
76.0779
11
4.9983942
21
76.0779
0
LINE
8
DEFAULT_255_1_234
10
4.9983942
20
76.0779
11
4.9983942
21
77.311575
0
LINE
8
DEFAULT_255_1_234
10
4.9983942
20
77.311575
11
5.1469814
21
77.311575
0
LINE
8
DEFAULT_255_1_234
10
5.1469814
20
77.311575
11
5.1469814
21
76.8513564
0
LINE
8
DEFAULT_255_1_234
10
5.1469814
20
76.7003597
11
5.1469814
21
76.3244744
0
ARC
8
DEFAULT_255_1_234
10
5.029429
20
76.4983573
40
0.7046863
50
349.4825105
51
0.3595108
0
ARC
8
DEFAULT_255_1_234
10
5.2571531
20
76.4545022
40
0.4727857
50
331.8602128
51
349.6704139
0
ARC
8
DEFAULT_255_1_234
10
5.3304299
20
76.4188125
40
0.3913503
50
322.8939783
51
331.4081204
0
ARC
8
DEFAULT_255_1_234
10
5.3999697
20
76.3608707
40
0.300965
50
296.7249167
51
323.7044215
0
ARC
8
DEFAULT_255_1_234
10
5.4029594
20
76.3678043
40
0.3058683
50
270.6342811
51
295.6405548
0
ARC
8
DEFAULT_255_1_234
10
5.3967904
20
76.4480995
40
0.3862632
50
269.9967524
51
271.4174733
0
ARC
8
DEFAULT_255_1_234
10
5.3929568
20
76.4345686
40
0.3727515
50
253.657532
51
270.5859025
0
ARC
8
DEFAULT_255_1_234
10
5.3698674
20
76.3502235
40
0.2853216
50
217.0543181
51
253.3409865
0
ARC
8
DEFAULT_255_1_234
10
5.3765342
20
76.6686052
40
0.2934152
50
93.1931545
51
141.4760602
0
ARC
8
DEFAULT_255_1_234
10
5.3947558
20
76.5453453
40
0.4176524
50
89.9442578
51
94.747309
0
ARC
8
DEFAULT_255_1_234
10
5.3991305
20
76.627641
40
0.3353801
50
70.6103515
51
90.6779749
0
ARC
8
DEFAULT_255_1_234
10
5.4105607
20
76.673189
40
0.2886533
50
36.1152635
51
69.7489296
0
ARC
8
DEFAULT_255_1_234
10
5.3119011
20
76.5978708
40
0.4127561
50
15.4648517
51
36.4891396
0
ARC
8
DEFAULT_255_1_234
10
5.1060697
20
76.5379524
40
0.6271187
50
3.9220813
51
15.7265815
0
ARC
8
DEFAULT_255_1_234
10
4.8701541
20
76.5167325
40
0.863948
50
359.9268643
51
4.2559037
0
ARC
8
DEFAULT_255_1_234
10
4.9515922
20
76.5227103
40
0.6339295
50
359.7230081
51
7.7115859
0
ARC
8
DEFAULT_255_1_234
10
5.1777487
20
76.5543172
40
0.4055784
50
7.5740023
51
19.4151451
0
ARC
8
DEFAULT_255_1_234
10
5.3045126
20
76.5989519
40
0.2711858
50
19.4238354
51
34.9161182
0
ARC
8
DEFAULT_255_1_234
10
5.3715864
20
76.6476172
40
0.1883373
50
34.4556322
51
84.4656458
0
ARC
8
DEFAULT_255_1_234
10
5.3587312
20
76.5721057
40
0.2647939
50
83.2727306
51
90.1114621
0
ARC
8
DEFAULT_255_1_234
10
5.3545169
20
76.5919509
40
0.2449763
50
89.1347934
51
111.4089923
0
ARC
8
DEFAULT_255_1_234
10
5.346572
20
76.6247473
40
0.2115923
50
112.6478598
51
148.9260864
0
ARC
8
DEFAULT_255_1_234
10
5.4243518
20
76.5705985
40
0.3062228
50
147.7597608
51
154.928557
0
ARC
8
DEFAULT_255_1_234
10
5.3983579
20
76.4461379
40
0.2792708
50
205.8264786
51
224.5301003
0
ARC
8
DEFAULT_255_1_234
10
5.3505883
20
76.4034914
40
0.2153317
50
225.354483
51
269.2437579
0
ARC
8
DEFAULT_255_1_234
10
5.3597518
20
76.4841292
40
0.2961942
50
267.6770046
51
270.0136612
0
ARC
8
DEFAULT_255_1_234
10
5.3624869
20
76.4082938
40
0.2203751
50
269.3072485
51
289.499141
0
ARC
8
DEFAULT_255_1_234
10
5.3696933
20
76.3786394
40
0.1900415
50
290.4353973
51
325.3766314
0
ARC
8
DEFAULT_255_1_234
10
5.3068156
20
76.4240643
40
0.2675986
50
325.0223901
51
342.692398
0
ARC
8
DEFAULT_255_1_234
10
5.1371044
20
76.4792812
40
0.446058
50
342.4062876
51
352.8669243
0
ARC
8
DEFAULT_255_1_234
10
4.8650519
20
76.5149975
40
0.7204419
50
352.7350668
51
359.8556985
0
ARC
8
DEFAULT_255_1_234
10
4.6740215
20
76.5196018
40
0.9114927
50
359.5965197
51
0.0027543
0
LINE
8
DEFAULT_255_1_234
10
4.2996235
20
84.5711963
11
4.1807538
21
84.6017169
0
LINE
8
DEFAULT_255_1_234
10
4.1807538
20
84.6017169
11
4.2401887
21
85.1848211
0
LINE
8
DEFAULT_255_1_234
10
4.2401887
20
85.1848211
11
4.8393563
21
85.1848211
0
LINE
8
DEFAULT_255_1_234
10
4.8393563
20
85.1848211
11
4.8393563
21
85.0474784
0
LINE
8
DEFAULT_255_1_234
10
4.8393563
20
85.0474784
11
4.366287
21
85.0474784
0
LINE
8
DEFAULT_255_1_234
10
4.366287
20
85.0474784
11
4.3309473
21
84.7286184
0
LINE
8
DEFAULT_255_1_234
10
4.1389888
20
84.3230156
11
4.2795442
21
84.3230156
0
LINE
8
DEFAULT_255_1_234
10
4.3389791
20
84.6033232
11
4.2996235
21
84.5711963
0
ARC
8
DEFAULT_255_1_234
10
4.5164257
20
84.410623
40
0.3681349
50
93.7182161
51
120.2538958
0
ARC
8
DEFAULT_255_1_234
10
4.525852
20
84.3298394
40
0.449379
50
89.9660152
51
94.2496022
0
ARC
8
DEFAULT_255_1_234
10
4.5299254
20
84.3887549
40
0.390482
50
73.8043271
51
90.5585896
0
ARC
8
DEFAULT_255_1_234
10
4.5534151
20
84.4745602
40
0.3015334
50
41.3071453
51
73.5430202
0
ARC
8
DEFAULT_255_1_234
10
4.5117978
20
84.4387324
40
0.3564457
50
13.5075983
51
41.2174222
0
ARC
8
DEFAULT_255_1_234
10
4.3476182
20
84.3957486
40
0.5261351
50
1.1331335
51
13.8829381
0
ARC
8
DEFAULT_255_1_234
10
4.2064551
20
84.3881665
40
0.6674378
50
359.9919444
51
1.544251
0
ARC
8
DEFAULT_255_1_234
10
4.3341377
20
84.384028
40
0.5397702
50
347.8572367
51
0.4293338
0
ARC
8
DEFAULT_255_1_234
10
4.5091695
20
84.3443736
40
0.3603188
50
323.673004
51
348.1672506
0
ARC
8
DEFAULT_255_1_234
10
4.5386203
20
84.3264168
40
0.3259678
50
316.8171152
51
323.1492751
0
ARC
8
DEFAULT_255_1_234
10
4.5447392
20
84.322746
40
0.3189975
50
281.8396411
51
316.5457803
0
ARC
8
DEFAULT_255_1_234
10
4.5071656
20
84.4782762
40
0.4789527
50
269.5770101
51
282.4214771
0
ARC
8
DEFAULT_255_1_234
10
4.5000467
20
84.4569125
40
0.45759
50
256.2427136
51
270.4486331
0
ARC
8
DEFAULT_255_1_234
10
4.470137
20
84.3369229
40
0.3339303
50
228.9023911
51
256.3314342
0
ARC
8
DEFAULT_255_1_234
10
4.4627602
20
84.3252746
40
0.32031
50
193.753695
51
228.5271154
0
ARC
8
DEFAULT_255_1_234
10
4.5865556
20
84.36158
40
0.4492253
50
184.924711
51
194.497588
0
ARC
8
DEFAULT_255_1_234
10
4.6058123
20
84.3651591
40
0.3289787
50
187.3600538
51
198.6732863
0
ARC
8
DEFAULT_255_1_234
10
4.5008417
20
84.3287674
40
0.217884
50
198.4451669
51
217.794479
0
ARC
8
DEFAULT_255_1_234
10
4.4712592
20
84.3078085
40
0.1816698
50
218.2887171
51
228.5612368
0
ARC
8
DEFAULT_255_1_234
10
4.4810379
20
84.3209963
40
0.1980329
50
228.9654866
51
258.1234728
0
ARC
8
DEFAULT_255_1_234
10
4.5016089
20
84.4090833
40
0.2884748
50
257.7258293
51
270.401361
0
ARC
8
DEFAULT_255_1_234
10
4.5060975
20
84.3645821
40
0.2439788
50
269.4204404
51
286.4209037
0
ARC
8
DEFAULT_255_1_234
10
4.5209463
20
84.3106657
40
0.1880666
50
286.7251356
51
320.600362
0
ARC
8
DEFAULT_255_1_234
10
4.4826288
20
84.3417595
40
0.2374121
50
320.6712579
51
344.5441685
0
ARC
8
DEFAULT_255_1_234
10
4.3669614
20
84.3757045
40
0.3579479
50
344.2412205
51
356.7357071
0
ARC
8
DEFAULT_255_1_234
10
4.2420763
20
84.3860444
40
0.4832297
50
356.3548756
51
0.0500261
0
ARC
8
DEFAULT_255_1_234
10
4.3757272
20
84.389165
40
0.3495889
50
359.5576869
51
12.953486
0
ARC
8
DEFAULT_255_1_234
10
4.4812169
20
84.4147434
40
0.2410532
50
12.6490276
51
41.6081334
0
ARC
8
DEFAULT_255_1_234
10
4.504254
20
84.4343321
40
0.2108218
50
41.7850273
51
85.9892764
0
ARC
8
DEFAULT_255_1_234
10
4.4919277
20
84.3530462
40
0.2928454
50
84.6957577
51
90.0676183
0
ARC
8
DEFAULT_255_1_234
10
4.4895761
20
84.2861716
40
0.3597255
50
89.6804936
51
99.1614436
0
ARC
8
DEFAULT_255_1_234
10
4.4690392
20
84.4089131
40
0.235281
50
98.9830931
51
113.8908934
0
ARC
8
DEFAULT_255_1_234
10
4.4460802
20
84.4630587
40
0.176479
50
114.1950727
51
127.3641004
0
LINE
8
DEFAULT_255_1_234
10
5.4802891
20
84.0154
11
5.0746863
21
84.0154
0
LINE
8
DEFAULT_255_1_234
10
5.0746863
20
84.0154
11
5.0746863
21
85.1848211
0
LINE
8
DEFAULT_255_1_234
10
5.0746863
20
85.1848211
11
5.456997
21
85.1848211
0
LINE
8
DEFAULT_255_1_234
10
5.4859113
20
84.5623614
11
5.2288957
21
84.5623614
0
LINE
8
DEFAULT_255_1_234
10
5.2288957
20
84.5623614
11
5.2288957
21
84.1414983
0
LINE
8
DEFAULT_255_1_234
10
5.2288957
20
84.1414983
11
5.4835018
21
84.1414983
0
LINE
8
DEFAULT_255_1_234
10
5.2288957
20
85.0579196
11
5.2288957
21
84.6860501
0
LINE
8
DEFAULT_255_1_234
10
5.2288957
20
84.6860501
11
5.4618161
21
84.6860501
0
LINE
8
DEFAULT_255_1_234
10
5.456997
20
85.0579196
11
5.2288957
21
85.0579196
0
ARC
8
DEFAULT_255_1_234
10
5.4607679
20
84.4480901
40
0.7367406
50
82.1257326
51
90.2932599
0
ARC
8
DEFAULT_255_1_234
10
5.4996634
20
84.7199013
40
0.4621653
50
69.9044149
51
82.2857423
0
ARC
8
DEFAULT_255_1_234
10
5.5567312
20
84.8741637
40
0.2976871
50
51.1838526
51
70.0181538
0
ARC
8
DEFAULT_255_1_234
10
5.5822278
20
84.911224
40
0.2528517
50
12.1017251
51
50.4214761
0
ARC
8
DEFAULT_255_1_234
10
5.4438152
20
84.8764676
40
0.3955061
50
359.5251267
51
12.8211707
0
ARC
8
DEFAULT_255_1_234
10
5.6018078
20
84.8695344
40
0.2375281
50
323.4908128
51
0.8817314
0
ARC
8
DEFAULT_255_1_234
10
5.5599765
20
84.901855
40
0.2903817
50
298.6825083
51
323.2756573
0
ARC
8
DEFAULT_255_1_234
10
5.5238128
20
84.9619649
40
0.3604842
50
293.1999386
51
299.1396394
0
ARC
8
DEFAULT_255_1_234
10
5.5911101
20
84.3534126
40
0.2871098
50
54.0011765
51
74.9167975
0
ARC
8
DEFAULT_255_1_234
10
5.602746
20
84.3731332
40
0.2643248
50
36.3580696
51
53.5291921
0
ARC
8
DEFAULT_255_1_234
10
5.5900702
20
84.3640998
40
0.2798884
50
4.8189881
51
36.3089977
0
ARC
8
DEFAULT_255_1_234
10
5.5121537
20
84.353127
40
0.358478
50
359.9370252
51
5.5204067
0
ARC
8
DEFAULT_255_1_234
10
5.4797059
20
84.3490667
40
0.3909429
50
344.7478609
51
0.5373281
0
ARC
8
DEFAULT_255_1_234
10
5.578803
20
84.3223544
40
0.2883093
50
311.1786488
51
344.6886812
0
ARC
8
DEFAULT_255_1_234
10
5.5496077
20
84.3586987
40
0.3348923
50
286.0418249
51
310.8441291
0
ARC
8
DEFAULT_255_1_234
10
5.4988909
20
84.5233807
40
0.5071869
50
274.1042341
51
286.4071509
0
ARC
8
DEFAULT_255_1_234
10
5.4812165
20
84.7117229
40
0.6963234
50
269.9236873
51
274.445647
0
ARC
8
DEFAULT_255_1_234
10
5.4858166
20
84.4777537
40
0.3362634
50
269.6055768
51
281.3740047
0
ARC
8
DEFAULT_255_1_234
10
5.5088804
20
84.3684353
40
0.224546
50
281.1055983
51
302.5132223
0
ARC
8
DEFAULT_255_1_234
10
5.5235703
20
84.3420823
40
0.1944357
50
303.0368945
51
311.8811219
0
ARC
8
DEFAULT_255_1_234
10
5.530711
20
84.333589
40
0.1833454
50
311.9916004
51
351.7143462
0
ARC
8
DEFAULT_255_1_234
10
5.449034
20
84.350093
40
0.2665871
50
350.7339597
51
0.2221581
0
ARC
8
DEFAULT_255_1_234
10
5.4382786
20
84.3557467
40
0.2773789
50
359.0456241
51
17.2296242
0
ARC
8
DEFAULT_255_1_234
10
5.5421903
20
84.3866163
40
0.1689915
50
17.6685481
51
78.9940892
0
ARC
8
DEFAULT_255_1_234
10
5.4905067
20
84.2011224
40
0.3612658
50
76.5635957
51
90.6980921
0
LINE
8
DEFAULT_255_1_234
10
5.4861051
20
84.5623613
11
5.4859113
21
84.5623614
0
ARC
8
DEFAULT_255_1_234
10
5.4640727
20
85.0146036
40
0.3285612
50
269.6064736
51
281.4533503
0
ARC
8
DEFAULT_255_1_234
10
5.4863547
20
84.9094688
40
0.2210975
50
281.2041486
51
302.5148063
0
ARC
8
DEFAULT_255_1_234
10
5.5000397
20
84.8848241
40
0.1929674
50
303.021671
51
309.8369575
0
ARC
8
DEFAULT_255_1_234
10
5.5183858
20
84.8642488
40
0.1654181
50
309.5228395
51
356.9509836
0
ARC
8
DEFAULT_255_1_234
10
5.4520441
20
84.8737932
40
0.2322512
50
355.4701227
51
0.0492546
0
ARC
8
DEFAULT_255_1_234
10
5.4241532
20
84.8760094
40
0.2601498
50
359.5558597
51
11.2096359
0
ARC
8
DEFAULT_255_1_234
10
5.5198822
20
84.895823
40
0.1623975
50
10.9182341
51
31.3230275
0
ARC
8
DEFAULT_255_1_234
10
5.5484555
20
84.9117214
40
0.1297302
50
31.8852677
51
52.1412565
0
ARC
8
DEFAULT_255_1_234
10
5.5210288
20
84.872975
40
0.1771663
50
52.8285564
51
71.9850297
0
ARC
8
DEFAULT_255_1_234
10
5.4834464
20
84.7623664
40
0.2939794
50
71.6863486
51
82.8455995
0
ARC
8
DEFAULT_255_1_234
10
5.4595
20
84.5814149
40
0.476506
50
82.6984714
51
90.1729175
0
ARC
8
DEFAULT_255_1_234
10
5.4572635
20
84.7037623
40
0.3541573
50
89.8708275
51
90.0431131
0
LINE
8
DEFAULT_255_1_234
10
4.3822235
20
92.5086963
11
4.2633538
21
92.5392169
0
LINE
8
DEFAULT_255_1_234
10
4.2633538
20
92.5392169
11
4.3227887
21
93.1223211
0
LINE
8
DEFAULT_255_1_234
10
4.3227887
20
93.1223211
11
4.9219563
21
93.1223211
0
LINE
8
DEFAULT_255_1_234
10
4.9219563
20
93.1223211
11
4.9219563
21
92.9849784
0
LINE
8
DEFAULT_255_1_234
10
4.9219563
20
92.9849784
11
4.448887
21
92.9849784
0
LINE
8
DEFAULT_255_1_234
10
4.448887
20
92.9849784
11
4.4135473
21
92.6661184
0
LINE
8
DEFAULT_255_1_234
10
4.2215888
20
92.2605156
11
4.3621442
21
92.2605156
0
LINE
8
DEFAULT_255_1_234
10
4.4215791
20
92.5408232
11
4.3822235
21
92.5086963
0
ARC
8
DEFAULT_255_1_234
10
4.5990257
20
92.348123
40
0.3681349
50
93.7182161
51
120.2538958
0
ARC
8
DEFAULT_255_1_234
10
4.608452
20
92.2673394
40
0.449379
50
89.9660152
51
94.2496022
0
ARC
8
DEFAULT_255_1_234
10
4.6125254
20
92.3262549
40
0.390482
50
73.8043271
51
90.5585896
0
ARC
8
DEFAULT_255_1_234
10
4.6360151
20
92.4120602
40
0.3015334
50
41.3071453
51
73.5430202
0
ARC
8
DEFAULT_255_1_234
10
4.5943978
20
92.3762324
40
0.3564457
50
13.5075983
51
41.2174222
0
ARC
8
DEFAULT_255_1_234
10
4.4302182
20
92.3332486
40
0.5261351
50
1.1331335
51
13.8829381
0
ARC
8
DEFAULT_255_1_234
10
4.2890551
20
92.3256665
40
0.6674378
50
359.9919444
51
1.544251
0
ARC
8
DEFAULT_255_1_234
10
4.4167377
20
92.321528
40
0.5397702
50
347.8572367
51
0.4293338
0
ARC
8
DEFAULT_255_1_234
10
4.5917695
20
92.2818736
40
0.3603188
50
323.673004
51
348.1672506
0
ARC
8
DEFAULT_255_1_234
10
4.6212203
20
92.2639168
40
0.3259678
50
316.8171152
51
323.1492751
0
ARC
8
DEFAULT_255_1_234
10
4.6273392
20
92.260246
40
0.3189975
50
281.8396411
51
316.5457803
0
ARC
8
DEFAULT_255_1_234
10
4.5897656
20
92.4157762
40
0.4789527
50
269.5770101
51
282.4214771
0
ARC
8
DEFAULT_255_1_234
10
4.5826467
20
92.3944125
40
0.45759
50
256.2427136
51
270.4486331
0
ARC
8
DEFAULT_255_1_234
10
4.552737
20
92.2744229
40
0.3339303
50
228.9023911
51
256.3314342
0
ARC
8
DEFAULT_255_1_234
10
4.5453602
20
92.2627746
40
0.32031
50
193.753695
51
228.5271154
0
ARC
8
DEFAULT_255_1_234
10
4.6691556
20
92.29908
40
0.4492253
50
184.924711
51
194.497588
0
ARC
8
DEFAULT_255_1_234
10
4.6884123
20
92.3026591
40
0.3289787
50
187.3600538
51
198.6732863
0
ARC
8
DEFAULT_255_1_234
10
4.5834417
20
92.2662674
40
0.217884
50
198.4451669
51
217.794479
0
ARC
8
DEFAULT_255_1_234
10
4.5538592
20
92.2453085
40
0.1816698
50
218.2887171
51
228.5612368
0
ARC
8
DEFAULT_255_1_234
10
4.5636379
20
92.2584963
40
0.1980329
50
228.9654866
51
258.1234728
0
ARC
8
DEFAULT_255_1_234
10
4.5842089
20
92.3465833
40
0.2884748
50
257.7258293
51
270.401361
0
ARC
8
DEFAULT_255_1_234
10
4.5886975
20
92.3020821
40
0.2439788
50
269.4204404
51
286.4209037
0
ARC
8
DEFAULT_255_1_234
10
4.6035463
20
92.2481657
40
0.1880666
50
286.7251356
51
320.600362
0
ARC
8
DEFAULT_255_1_234
10
4.5652288
20
92.2792595
40
0.2374121
50
320.6712579
51
344.5441685
0
ARC
8
DEFAULT_255_1_234
10
4.4495614
20
92.3132045
40
0.3579479
50
344.2412205
51
356.7357071
0
ARC
8
DEFAULT_255_1_234
10
4.3246763
20
92.3235444
40
0.4832297
50
356.3548756
51
0.0500261
0
ARC
8
DEFAULT_255_1_234
10
4.4583272
20
92.326665
40
0.3495889
50
359.5576869
51
12.953486
0
ARC
8
DEFAULT_255_1_234
10
4.5638169
20
92.3522434
40
0.2410532
50
12.6490276
51
41.6081334
0
ARC
8
DEFAULT_255_1_234
10
4.586854
20
92.3718321
40
0.2108218
50
41.7850273
51
85.9892764
0
ARC
8
DEFAULT_255_1_234
10
4.5745277
20
92.2905462
40
0.2928454
50
84.6957577
51
90.0676183
0
ARC
8
DEFAULT_255_1_234
10
4.5721761
20
92.2236716
40
0.3597255
50
89.6804936
51
99.1614436
0
ARC
8
DEFAULT_255_1_234
10
4.5516392
20
92.3464131
40
0.235281
50
98.9830931
51
113.8908934
0
ARC
8
DEFAULT_255_1_234
10
4.5286802
20
92.4005587
40
0.176479
50
114.1950727
51
127.3641004
0
LINE
8
DEFAULT_255_1_234
10
5.9146792
20
91.9529
11
5.803038
21
92.2581061
0
LINE
8
DEFAULT_255_1_234
10
5.803038
20
92.2581061
11
5.313102
21
92.2581061
0
LINE
8
DEFAULT_255_1_234
10
5.313102
20
92.2581061
11
5.2030672
21
91.9529
0
LINE
8
DEFAULT_255_1_234
10
5.2030672
20
91.9529
11
5.0440388
21
91.9529
0
LINE
8
DEFAULT_255_1_234
10
5.0440388
20
91.9529
11
5.4906034
21
93.1223211
0
LINE
8
DEFAULT_255_1_234
10
5.4906034
20
93.1223211
11
5.6255366
21
93.1223211
0
LINE
8
DEFAULT_255_1_234
10
5.6255366
20
93.1223211
11
6.0729044
21
91.9529
0
LINE
8
DEFAULT_255_1_234
10
6.0729044
20
91.9529
11
5.9146792
21
91.9529
0
LINE
8
DEFAULT_255_1_234
10
5.55807
20
92.9319689
11
5.3596861
21
92.3850075
0
LINE
8
DEFAULT_255_1_234
10
5.3596861
20
92.3850075
11
5.7572571
21
92.3850075
0
LINE
8
DEFAULT_255_1_234
10
5.7572571
20
92.3850075
11
5.55807
21
92.9319689
0
LINE
8
DEFAULT_255_1_234
10
4.7926628
20
101.0598211
11
4.7926628
21
100.283152
0
LINE
8
DEFAULT_255_1_234
10
4.7926628
20
100.283152
11
4.9549039
21
100.283152
0
LINE
8
DEFAULT_255_1_234
10
4.9549039
20
100.283152
11
4.9549039
21
100.1618728
0
LINE
8
DEFAULT_255_1_234
10
4.9549039
20
100.1618728
11
4.7926628
21
100.1618728
0
LINE
8
DEFAULT_255_1_234
10
4.7926628
20
100.1618728
11
4.7926628
21
99.8904
0
LINE
8
DEFAULT_255_1_234
10
4.7926628
20
99.8904
11
4.6432725
21
99.8904
0
LINE
8
DEFAULT_255_1_234
10
4.6432725
20
99.8904
11
4.6432725
21
100.1618728
0
LINE
8
DEFAULT_255_1_234
10
4.6432725
20
100.1618728
11
4.1107682
21
100.1618728
0
LINE
8
DEFAULT_255_1_234
10
4.1107682
20
100.1618728
11
4.1107682
21
100.2494187
0
LINE
8
DEFAULT_255_1_234
10
4.1107682
20
100.2494187
11
4.6344375
21
101.0598211
0
LINE
8
DEFAULT_255_1_234
10
4.6344375
20
101.0598211
11
4.7926628
21
101.0598211
0
LINE
8
DEFAULT_255_1_234
10
4.6256026
20
100.8244912
11
4.2794347
21
100.283152
0
LINE
8
DEFAULT_255_1_234
10
4.2794347
20
100.283152
11
4.6432725
21
100.283152
0
LINE
8
DEFAULT_255_1_234
10
4.6432725
20
100.283152
11
4.6432725
21
100.8566181
0
LINE
8
DEFAULT_255_1_234
10
4.6432725
20
100.8566181
11
4.6256026
21
100.8244912
0
LINE
8
DEFAULT_255_1_234
10
5.8400015
20
100.3281297
11
5.8400015
21
100.315279
0
LINE
8
DEFAULT_255_1_234
10
5.2480624
20
99.9907967
11
5.2408338
21
99.8904
0
LINE
8
DEFAULT_255_1_234
10
5.2408338
20
99.8904
11
5.1042942
21
99.8904
0
LINE
8
DEFAULT_255_1_234
10
5.1042942
20
99.8904
11
5.1042942
21
101.124075
0
LINE
8
DEFAULT_255_1_234
10
5.1042942
20
101.124075
11
5.2528814
21
101.124075
0
LINE
8
DEFAULT_255_1_234
10
5.2528814
20
101.124075
11
5.2528814
21
100.6638564
0
LINE
8
DEFAULT_255_1_234
10
5.2528814
20
100.5128597
11
5.2528814
21
100.1369744
0
ARC
8
DEFAULT_255_1_234
10
5.135329
20
100.3108573
40
0.7046863
50
349.4825105
51
0.3595108
0
ARC
8
DEFAULT_255_1_234
10
5.3630531
20
100.2670022
40
0.4727857
50
331.8602128
51
349.6704139
0
ARC
8
DEFAULT_255_1_234
10
5.4363299
20
100.2313125
40
0.3913503
50
322.8939783
51
331.4081204
0
ARC
8
DEFAULT_255_1_234
10
5.5058697
20
100.1733707
40
0.300965
50
296.7249167
51
323.7044215
0
ARC
8
DEFAULT_255_1_234
10
5.5088594
20
100.1803043
40
0.3058683
50
270.6342811
51
295.6405548
0
ARC
8
DEFAULT_255_1_234
10
5.5026904
20
100.2605995
40
0.3862632
50
269.9967524
51
271.4174733
0
ARC
8
DEFAULT_255_1_234
10
5.4988568
20
100.2470686
40
0.3727515
50
253.657532
51
270.5859025
0
ARC
8
DEFAULT_255_1_234
10
5.4757674
20
100.1627235
40
0.2853216
50
217.0543181
51
253.3409865
0
ARC
8
DEFAULT_255_1_234
10
5.4824342
20
100.4811052
40
0.2934152
50
93.1931545
51
141.4760602
0
ARC
8
DEFAULT_255_1_234
10
5.5006558
20
100.3578453
40
0.4176524
50
89.9442578
51
94.747309
0
ARC
8
DEFAULT_255_1_234
10
5.5050305
20
100.440141
40
0.3353801
50
70.6103515
51
90.6779749
0
ARC
8
DEFAULT_255_1_234
10
5.5164607
20
100.485689
40
0.2886533
50
36.1152635
51
69.7489296
0
ARC
8
DEFAULT_255_1_234
10
5.4178011
20
100.4103708
40
0.4127561
50
15.4648517
51
36.4891396
0
ARC
8
DEFAULT_255_1_234
10
5.2119697
20
100.3504524
40
0.6271187
50
3.9220813
51
15.7265815
0
ARC
8
DEFAULT_255_1_234
10
4.9760541
20
100.3292325
40
0.863948
50
359.9268643
51
4.2559037
0
ARC
8
DEFAULT_255_1_234
10
5.0574922
20
100.3352103
40
0.6339295
50
359.7230081
51
7.7115859
0
ARC
8
DEFAULT_255_1_234
10
5.2836487
20
100.3668172
40
0.4055784
50
7.5740023
51
19.4151451
0
ARC
8
DEFAULT_255_1_234
10
5.4104126
20
100.4114519
40
0.2711858
50
19.4238354
51
34.9161182
0
ARC
8
DEFAULT_255_1_234
10
5.4774864
20
100.4601172
40
0.1883373
50
34.4556322
51
84.4656458
0
ARC
8
DEFAULT_255_1_234
10
5.4646312
20
100.3846057
40
0.2647939
50
83.2727306
51
90.1114621
0
ARC
8
DEFAULT_255_1_234
10
5.4604169
20
100.4044509
40
0.2449763
50
89.1347934
51
111.4089923
0
ARC
8
DEFAULT_255_1_234
10
5.452472
20
100.4372473
40
0.2115923
50
112.6478598
51
148.9260864
0
ARC
8
DEFAULT_255_1_234
10
5.5302518
20
100.3830985
40
0.3062228
50
147.7597608
51
154.928557
0
ARC
8
DEFAULT_255_1_234
10
5.5042579
20
100.2586379
40
0.2792708
50
205.8264786
51
224.5301003
0
ARC
8
DEFAULT_255_1_234
10
5.4564883
20
100.2159914
40
0.2153317
50
225.354483
51
269.2437579
0
ARC
8
DEFAULT_255_1_234
10
5.4656518
20
100.2966292
40
0.2961942
50
267.6770046
51
270.0136612
0
ARC
8
DEFAULT_255_1_234
10
5.4683869
20
100.2207938
40
0.2203751
50
269.3072485
51
289.499141
0
ARC
8
DEFAULT_255_1_234
10
5.4755933
20
100.1911394
40
0.1900415
50
290.4353973
51
325.3766314
0
ARC
8
DEFAULT_255_1_234
10
5.4127156
20
100.2365643
40
0.2675986
50
325.0223901
51
342.692398
0
ARC
8
DEFAULT_255_1_234
10
5.2430044
20
100.2917812
40
0.446058
50
342.4062876
51
352.8669243
0
ARC
8
DEFAULT_255_1_234
10
4.9709519
20
100.3274975
40
0.7204419
50
352.7350668
51
359.8556985
0
ARC
8
DEFAULT_255_1_234
10
4.7799215
20
100.3321018
40
0.9114927
50
359.5965197
51
0.0027543
0
LINE
8
DEFAULT_255_1_234
10
4.8455628
20
108.9973211
11
4.8455628
21
108.220652
0
LINE
8
DEFAULT_255_1_234
10
4.8455628
20
108.220652
11
5.0078039
21
108.220652
0
LINE
8
DEFAULT_255_1_234
10
5.0078039
20
108.220652
11
5.0078039
21
108.0993728
0
LINE
8
DEFAULT_255_1_234
10
5.0078039
20
108.0993728
11
4.8455628
21
108.0993728
0
LINE
8
DEFAULT_255_1_234
10
4.8455628
20
108.0993728
11
4.8455628
21
107.8279
0
LINE
8
DEFAULT_255_1_234
10
4.8455628
20
107.8279
11
4.6961725
21
107.8279
0
LINE
8
DEFAULT_255_1_234
10
4.6961725
20
107.8279
11
4.6961725
21
108.0993728
0
LINE
8
DEFAULT_255_1_234
10
4.6961725
20
108.0993728
11
4.1636682
21
108.0993728
0
LINE
8
DEFAULT_255_1_234
10
4.1636682
20
108.0993728
11
4.1636682
21
108.1869187
0
LINE
8
DEFAULT_255_1_234
10
4.1636682
20
108.1869187
11
4.6873375
21
108.9973211
0
LINE
8
DEFAULT_255_1_234
10
4.6873375
20
108.9973211
11
4.8455628
21
108.9973211
0
LINE
8
DEFAULT_255_1_234
10
4.6785026
20
108.7619912
11
4.3323347
21
108.220652
0
LINE
8
DEFAULT_255_1_234
10
4.3323347
20
108.220652
11
4.6961725
21
108.220652
0
LINE
8
DEFAULT_255_1_234
10
4.6961725
20
108.220652
11
4.6961725
21
108.7941181
0
LINE
8
DEFAULT_255_1_234
10
4.6961725
20
108.7941181
11
4.6785026
21
108.7619912
0
LINE
8
DEFAULT_255_1_234
10
5.5860891
20
107.8279
11
5.1804863
21
107.8279
0
LINE
8
DEFAULT_255_1_234
10
5.1804863
20
107.8279
11
5.1804863
21
108.9973211
0
LINE
8
DEFAULT_255_1_234
10
5.1804863
20
108.9973211
11
5.562797
21
108.9973211
0
LINE
8
DEFAULT_255_1_234
10
5.5917113
20
108.3748614
11
5.3346957
21
108.3748614
0
LINE
8
DEFAULT_255_1_234
10
5.3346957
20
108.3748614
11
5.3346957
21
107.9539983
0
LINE
8
DEFAULT_255_1_234
10
5.3346957
20
107.9539983
11
5.5893018
21
107.9539983
0
LINE
8
DEFAULT_255_1_234
10
5.3346957
20
108.8704196
11
5.3346957
21
108.4985501
0
LINE
8
DEFAULT_255_1_234
10
5.3346957
20
108.4985501
11
5.5676161
21
108.4985501
0
LINE
8
DEFAULT_255_1_234
10
5.562797
20
108.8704196
11
5.3346957
21
108.8704196
0
ARC
8
DEFAULT_255_1_234
10
5.5665679
20
108.2605901
40
0.7367406
50
82.1257326
51
90.2932599
0
ARC
8
DEFAULT_255_1_234
10
5.6054634
20
108.5324013
40
0.4621653
50
69.9044149
51
82.2857423
0
ARC
8
DEFAULT_255_1_234
10
5.6625312
20
108.6866637
40
0.2976871
50
51.1838526
51
70.0181538
0
ARC
8
DEFAULT_255_1_234
10
5.6880278
20
108.723724
40
0.2528517
50
12.1017251
51
50.4214761
0
ARC
8
DEFAULT_255_1_234
10
5.5496152
20
108.6889676
40
0.3955061
50
359.5251267
51
12.8211707
0
ARC
8
DEFAULT_255_1_234
10
5.7076078
20
108.6820344
40
0.2375281
50
323.4908128
51
0.8817314
0
ARC
8
DEFAULT_255_1_234
10
5.6657765
20
108.714355
40
0.2903817
50
298.6825083
51
323.2756573
0
ARC
8
DEFAULT_255_1_234
10
5.6296128
20
108.7744649
40
0.3604842
50
293.1999386
51
299.1396394
0
ARC
8
DEFAULT_255_1_234
10
5.6969101
20
108.1659126
40
0.2871098
50
54.0011765
51
74.9167975
0
ARC
8
DEFAULT_255_1_234
10
5.708546
20
108.1856332
40
0.2643248
50
36.3580696
51
53.5291921
0
ARC
8
DEFAULT_255_1_234
10
5.6958702
20
108.1765998
40
0.2798884
50
4.8189881
51
36.3089977
0
ARC
8
DEFAULT_255_1_234
10
5.6179537
20
108.165627
40
0.358478
50
359.9370252
51
5.5204067
0
ARC
8
DEFAULT_255_1_234
10
5.5855059
20
108.1615667
40
0.3909429
50
344.7478609
51
0.5373281
0
ARC
8
DEFAULT_255_1_234
10
5.684603
20
108.1348544
40
0.2883093
50
311.1786488
51
344.6886812
0
ARC
8
DEFAULT_255_1_234
10
5.6554077
20
108.1711987
40
0.3348923
50
286.0418249
51
310.8441291
0
ARC
8
DEFAULT_255_1_234
10
5.6046909
20
108.3358807
40
0.5071869
50
274.1042341
51
286.4071509
0
ARC
8
DEFAULT_255_1_234
10
5.5870165
20
108.5242229
40
0.6963234
50
269.9236873
51
274.445647
0
ARC
8
DEFAULT_255_1_234
10
5.5916166
20
108.2902537
40
0.3362634
50
269.6055768
51
281.3740047
0
ARC
8
DEFAULT_255_1_234
10
5.6146804
20
108.1809353
40
0.224546
50
281.1055983
51
302.5132223
0
ARC
8
DEFAULT_255_1_234
10
5.6293703
20
108.1545823
40
0.1944357
50
303.0368945
51
311.8811219
0
ARC
8
DEFAULT_255_1_234
10
5.636511
20
108.146089
40
0.1833454
50
311.9916004
51
351.7143462
0
ARC
8
DEFAULT_255_1_234
10
5.554834
20
108.162593
40
0.2665871
50
350.7339597
51
0.2221581
0
ARC
8
DEFAULT_255_1_234
10
5.5440786
20
108.1682467
40
0.2773789
50
359.0456241
51
17.2296242
0
ARC
8
DEFAULT_255_1_234
10
5.6479903
20
108.1991163
40
0.1689915
50
17.6685481
51
78.9940892
0
ARC
8
DEFAULT_255_1_234
10
5.5963067
20
108.0136224
40
0.3612658
50
76.5635957
51
90.6980921
0
LINE
8
DEFAULT_255_1_234
10
5.5919051
20
108.3748613
11
5.5917113
21
108.3748614
0
ARC
8
DEFAULT_255_1_234
10
5.5698727
20
108.8271036
40
0.3285612
50
269.6064736
51
281.4533503
0
ARC
8
DEFAULT_255_1_234
10
5.5921547
20
108.7219688
40
0.2210975
50
281.2041486
51
302.5148063
0
ARC
8
DEFAULT_255_1_234
10
5.6058397
20
108.6973241
40
0.1929674
50
303.021671
51
309.8369575
0
ARC
8
DEFAULT_255_1_234
10
5.6241858
20
108.6767488
40
0.1654181
50
309.5228395
51
356.9509836
0
ARC
8
DEFAULT_255_1_234
10
5.5578441
20
108.6862932
40
0.2322512
50
355.4701227
51
0.0492546
0
ARC
8
DEFAULT_255_1_234
10
5.5299532
20
108.6885094
40
0.2601498
50
359.5558597
51
11.2096359
0
ARC
8
DEFAULT_255_1_234
10
5.6256822
20
108.708323
40
0.1623975
50
10.9182341
51
31.3230275
0
ARC
8
DEFAULT_255_1_234
10
5.6542555
20
108.7242214
40
0.1297302
50
31.8852677
51
52.1412565
0
ARC
8
DEFAULT_255_1_234
10
5.6268288
20
108.685475
40
0.1771663
50
52.8285564
51
71.9850297
0
ARC
8
DEFAULT_255_1_234
10
5.5892464
20
108.5748664
40
0.2939794
50
71.6863486
51
82.8455995
0
ARC
8
DEFAULT_255_1_234
10
5.5653
20
108.3939149
40
0.476506
50
82.6984714
51
90.1729175
0
ARC
8
DEFAULT_255_1_234
10
5.5630635
20
108.5162623
40
0.3541573
50
89.8708275
51
90.0431131
0
LINE
8
DEFAULT_255_1_234
10
4.9282628
20
116.9348211
11
4.9282628
21
116.158152
0
LINE
8
DEFAULT_255_1_234
10
4.9282628
20
116.158152
11
5.0905039
21
116.158152
0
LINE
8
DEFAULT_255_1_234
10
5.0905039
20
116.158152
11
5.0905039
21
116.0368728
0
LINE
8
DEFAULT_255_1_234
10
5.0905039
20
116.0368728
11
4.9282628
21
116.0368728
0
LINE
8
DEFAULT_255_1_234
10
4.9282628
20
116.0368728
11
4.9282628
21
115.7654
0
LINE
8
DEFAULT_255_1_234
10
4.9282628
20
115.7654
11
4.7788725
21
115.7654
0
LINE
8
DEFAULT_255_1_234
10
4.7788725
20
115.7654
11
4.7788725
21
116.0368728
0
LINE
8
DEFAULT_255_1_234
10
4.7788725
20
116.0368728
11
4.2463682
21
116.0368728
0
LINE
8
DEFAULT_255_1_234
10
4.2463682
20
116.0368728
11
4.2463682
21
116.1244187
0
LINE
8
DEFAULT_255_1_234
10
4.2463682
20
116.1244187
11
4.7700375
21
116.9348211
0
LINE
8
DEFAULT_255_1_234
10
4.7700375
20
116.9348211
11
4.9282628
21
116.9348211
0
LINE
8
DEFAULT_255_1_234
10
4.7612026
20
116.6994912
11
4.4150347
21
116.158152
0
LINE
8
DEFAULT_255_1_234
10
4.4150347
20
116.158152
11
4.7788725
21
116.158152
0
LINE
8
DEFAULT_255_1_234
10
4.7788725
20
116.158152
11
4.7788725
21
116.7316181
0
LINE
8
DEFAULT_255_1_234
10
4.7788725
20
116.7316181
11
4.7612026
21
116.6994912
0
LINE
8
DEFAULT_255_1_234
10
6.0205792
20
115.7654
11
5.908938
21
116.0706061
0
LINE
8
DEFAULT_255_1_234
10
5.908938
20
116.0706061
11
5.419002
21
116.0706061
0
LINE
8
DEFAULT_255_1_234
10
5.419002
20
116.0706061
11
5.3089672
21
115.7654
0
LINE
8
DEFAULT_255_1_234
10
5.3089672
20
115.7654
11
5.1499388
21
115.7654
0
LINE
8
DEFAULT_255_1_234
10
5.1499388
20
115.7654
11
5.5965034
21
116.9348211
0
LINE
8
DEFAULT_255_1_234
10
5.5965034
20
116.9348211
11
5.7314366
21
116.9348211
0
LINE
8
DEFAULT_255_1_234
10
5.7314366
20
116.9348211
11
6.1788044
21
115.7654
0
LINE
8
DEFAULT_255_1_234
10
6.1788044
20
115.7654
11
6.0205792
21
115.7654
0
LINE
8
DEFAULT_255_1_234
10
5.66397
20
116.7444689
11
5.4655861
21
116.1975075
0
LINE
8
DEFAULT_255_1_234
10
5.4655861
20
116.1975075
11
5.8631571
21
116.1975075
0
LINE
8
DEFAULT_255_1_234
10
5.8631571
20
116.1975075
11
5.66397
21
116.7444689
0
LINE
8
DEFAULT_255_1_234
10
4.2755378
20
124.2386169
11
4.2755378
21
124.3598962
0
LINE
8
DEFAULT_255_1_234
10
4.2755378
20
124.3598962
11
4.387179
21
124.3598962
0
LINE
8
DEFAULT_255_1_234
10
4.1968268
20
124.5655087
11
4.0482396
21
124.5655087
0
LINE
8
DEFAULT_255_1_234
10
4.0377983
20
124.0113188
11
4.1871887
21
124.0113188
0
LINE
8
DEFAULT_255_1_234
10
4.387179
20
124.2386169
11
4.2755378
21
124.2386169
0
ARC
8
DEFAULT_255_1_234
10
4.3842656
20
124.6991713
40
0.3392876
50
270.4919872
51
281.8951556
0
ARC
8
DEFAULT_255_1_234
10
4.4083918
20
124.5889702
40
0.2264817
50
281.6691735
51
301.2943132
0
ARC
8
DEFAULT_255_1_234
10
4.4254128
20
124.5578304
40
0.1910381
50
301.7833094
51
311.7545298
0
ARC
8
DEFAULT_255_1_234
10
4.4345704
20
124.5476748
40
0.1773635
50
311.7323931
51
354.2802411
0
ARC
8
DEFAULT_255_1_234
10
4.3619329
20
124.5601722
40
0.2509385
50
353.0937916
51
0.1181479
0
ARC
8
DEFAULT_255_1_234
10
4.3158114
20
124.5649386
40
0.2970898
50
359.1805295
51
15.0453146
0
ARC
8
DEFAULT_255_1_234
10
4.4503951
20
124.6041992
40
0.1569564
50
13.9577229
51
77.6713066
0
ARC
8
DEFAULT_255_1_234
10
4.411748
20
124.4656949
40
0.3006298
50
76.1116566
51
90.7026153
0
ARC
8
DEFAULT_255_1_234
10
4.4058318
20
124.4930545
40
0.2732568
50
89.5324876
51
103.531937
0
ARC
8
DEFAULT_255_1_234
10
4.3857762
20
124.5729884
40
0.1908508
50
103.2931773
51
133.5619022
0
ARC
8
DEFAULT_255_1_234
10
4.3813251
20
124.5789375
40
0.1834746
50
133.8349307
51
173.5344437
0
ARC
8
DEFAULT_255_1_234
10
4.4536294
20
124.5661213
40
0.2568033
50
172.5096846
51
180.1366907
0
ARC
8
DEFAULT_255_1_234
10
4.3585188
20
124.5695622
40
0.3103056
50
155.3484492
51
180.7484736
0
ARC
8
DEFAULT_255_1_234
10
4.3536277
20
124.5666846
40
0.3070957
50
131.5744599
51
154.4798489
0
ARC
8
DEFAULT_255_1_234
10
4.3849424
20
124.535031
40
0.3515643
50
96.9875458
51
131.9690667
0
ARC
8
DEFAULT_255_1_234
10
4.4068904
20
124.4104636
40
0.4779224
50
89.8596053
51
97.7825159
0
ARC
8
DEFAULT_255_1_234
10
4.4116967
20
124.3842616
40
0.5041361
50
78.3655447
51
90.4131539
0
ARC
8
DEFAULT_255_1_234
10
4.4474885
20
124.5501887
40
0.3344039
50
56.6229102
51
78.638727
0
ARC
8
DEFAULT_255_1_234
10
4.4689829
20
124.5877805
40
0.2912001
50
47.0253525
51
56.0854072
0
ARC
8
DEFAULT_255_1_234
10
4.4709609
20
124.5917223
40
0.2869704
50
10.9208013
51
46.7778124
0
ARC
8
DEFAULT_255_1_234
10
4.3345675
20
124.5601857
40
0.426899
50
359.6364486
51
11.6087304
0
ARC
8
DEFAULT_255_1_234
10
4.5180519
20
124.5586752
40
0.243409
50
332.3549906
51
359.7179418
0
ARC
8
DEFAULT_255_1_234
10
4.4530121
20
124.5895142
40
0.3153459
50
325.2333722
51
332.8745602
0
ARC
8
DEFAULT_255_1_234
10
4.4682744
20
124.5788828
40
0.2967456
50
292.9802137
51
325.2392345
0
ARC
8
DEFAULT_255_1_234
10
4.4408118
20
124.6322863
40
0.3566604
50
292.5402179
51
293.6924929
0
ARC
8
DEFAULT_255_1_234
10
4.4800714
20
123.9868091
40
0.3307468
50
57.6435486
51
72.8625112
0
ARC
8
DEFAULT_255_1_234
10
4.5155214
20
124.0442549
40
0.2632492
50
36.7248896
51
57.4697979
0
ARC
8
DEFAULT_255_1_234
10
4.5143847
20
124.045522
40
0.2634081
50
8.0545065
51
36.356114
0
ARC
8
DEFAULT_255_1_234
10
4.4281032
20
124.0300174
40
0.3510261
50
359.8320645
51
8.5869982
0
ARC
8
DEFAULT_255_1_234
10
4.3905808
20
124.0252101
40
0.3885653
50
343.9829931
51
0.5571613
0
ARC
8
DEFAULT_255_1_234
10
4.4792005
20
124.0009438
40
0.2966924
50
311.6359546
51
343.7651759
0
ARC
8
DEFAULT_255_1_234
10
4.4413574
20
124.0436102
40
0.3537231
50
279.7829875
51
311.6255694
0
ARC
8
DEFAULT_255_1_234
10
4.4112351
20
124.187328
40
0.5004971
50
269.7286406
51
280.3856417
0
ARC
8
DEFAULT_255_1_234
10
4.4050423
20
124.1831996
40
0.4963778
50
256.6828919
51
270.4412052
0
ARC
8
DEFAULT_255_1_234
10
4.3711719
20
124.0447394
40
0.3538406
50
229.4223008
51
256.8556159
0
ARC
8
DEFAULT_255_1_234
10
4.3297112
20
123.9980736
40
0.2914296
50
181.818294
51
229.6455059
0
ARC
8
DEFAULT_255_1_234
10
4.4337068
20
124.0111496
40
0.3959084
50
179.9755256
51
183.2323064
0
ARC
8
DEFAULT_255_1_234
10
4.4164814
20
124.0091037
40
0.2293034
50
179.4465117
51
196.2869258
0
ARC
8
DEFAULT_255_1_234
10
4.3677222
20
123.9957651
40
0.1787621
50
196.5661473
51
227.705904
0
ARC
8
DEFAULT_255_1_234
10
4.3841317
20
124.0141155
40
0.2033784
50
227.7652068
51
257.8762805
0
ARC
8
DEFAULT_255_1_234
10
4.4066287
20
124.1084156
40
0.3003081
50
257.4584385
51
270.426602
0
ARC
8
DEFAULT_255_1_234
10
4.4111853
20
124.1373996
40
0.329292
50
269.5962073
51
280.8789248
0
ARC
8
DEFAULT_255_1_234
10
4.4341382
20
124.0227685
40
0.2123908
50
280.6346389
51
299.8595945
0
ARC
8
DEFAULT_255_1_234
10
4.4532289
20
123.9865212
40
0.171457
50
300.3576302
51
314.5517981
0
ARC
8
DEFAULT_255_1_234
10
4.4449349
20
123.9925919
40
0.1816095
50
315.0728369
51
345.0431014
0
ARC
8
DEFAULT_255_1_234
10
4.3526163
20
124.0194841
40
0.2777492
50
344.5986631
51
357.9269593
0
ARC
8
DEFAULT_255_1_234
10
4.2630489
20
124.0256276
40
0.3674917
50
357.4748886
51
0.0231117
0
ARC
8
DEFAULT_255_1_234
10
4.3653599
20
124.0280679
40
0.2651907
50
359.5047933
51
13.4239635
0
ARC
8
DEFAULT_255_1_234
10
4.4520242
20
124.0502478
40
0.1757509
50
12.9498199
51
48.7551375
0
ARC
8
DEFAULT_255_1_234
10
4.4337976
20
124.02534
40
0.2065134
50
49.5088623
51
72.1836453
0
ARC
8
DEFAULT_255_1_234
10
4.3980129
20
123.9191291
40
0.3185836
50
71.9010081
51
84.3554254
0
ARC
8
DEFAULT_255_1_234
10
4.3818761
20
123.7830326
40
0.4556151
50
84.0193428
51
89.333121
0
LINE
8
DEFAULT_255_1_234
10
5.7341015
20
124.1406297
11
5.7341015
21
124.127779
0
LINE
8
DEFAULT_255_1_234
10
5.1421624
20
123.8032967
11
5.1349338
21
123.7029
0
LINE
8
DEFAULT_255_1_234
10
5.1349338
20
123.7029
11
4.9983942
21
123.7029
0
LINE
8
DEFAULT_255_1_234
10
4.9983942
20
123.7029
11
4.9983942
21
124.936575
0
LINE
8
DEFAULT_255_1_234
10
4.9983942
20
124.936575
11
5.1469814
21
124.936575
0
LINE
8
DEFAULT_255_1_234
10
5.1469814
20
124.936575
11
5.1469814
21
124.4763564
0
LINE
8
DEFAULT_255_1_234
10
5.1469814
20
124.3253597
11
5.1469814
21
123.9494744
0
ARC
8
DEFAULT_255_1_234
10
5.029429
20
124.1233573
40
0.7046863
50
349.4825105
51
0.3595108
0
ARC
8
DEFAULT_255_1_234
10
5.2571531
20
124.0795022
40
0.4727857
50
331.8602128
51
349.6704139
0
ARC
8
DEFAULT_255_1_234
10
5.3304299
20
124.0438125
40
0.3913503
50
322.8939783
51
331.4081204
0
ARC
8
DEFAULT_255_1_234
10
5.3999697
20
123.9858707
40
0.300965
50
296.7249167
51
323.7044215
0
ARC
8
DEFAULT_255_1_234
10
5.4029594
20
123.9928043
40
0.3058683
50
270.6342811
51
295.6405548
0
ARC
8
DEFAULT_255_1_234
10
5.3967904
20
124.0730995
40
0.3862632
50
269.9967524
51
271.4174733
0
ARC
8
DEFAULT_255_1_234
10
5.3929568
20
124.0595686
40
0.3727515
50
253.657532
51
270.5859025
0
ARC
8
DEFAULT_255_1_234
10
5.3698674
20
123.9752235
40
0.2853216
50
217.0543181
51
253.3409865
0
ARC
8
DEFAULT_255_1_234
10
5.3765342
20
124.2936052
40
0.2934152
50
93.1931545
51
141.4760602
0
ARC
8
DEFAULT_255_1_234
10
5.3947558
20
124.1703453
40
0.4176524
50
89.9442578
51
94.747309
0
ARC
8
DEFAULT_255_1_234
10
5.3991305
20
124.252641
40
0.3353801
50
70.6103515
51
90.6779749
0
ARC
8
DEFAULT_255_1_234
10
5.4105607
20
124.298189
40
0.2886533
50
36.1152635
51
69.7489296
0
ARC
8
DEFAULT_255_1_234
10
5.3119011
20
124.2228708
40
0.4127561
50
15.4648517
51
36.4891396
0
ARC
8
DEFAULT_255_1_234
10
5.1060697
20
124.1629524
40
0.6271187
50
3.9220813
51
15.7265815
0
ARC
8
DEFAULT_255_1_234
10
4.8701541
20
124.1417325
40
0.863948
50
359.9268643
51
4.2559037
0
ARC
8
DEFAULT_255_1_234
10
4.9515922
20
124.1477103
40
0.6339295
50
359.7230081
51
7.7115859
0
ARC
8
DEFAULT_255_1_234
10
5.1777487
20
124.1793172
40
0.4055784
50
7.5740023
51
19.4151451
0
ARC
8
DEFAULT_255_1_234
10
5.3045126
20
124.2239519
40
0.2711858
50
19.4238354
51
34.9161182
0
ARC
8
DEFAULT_255_1_234
10
5.3715864
20
124.2726172
40
0.1883373
50
34.4556322
51
84.4656458
0
ARC
8
DEFAULT_255_1_234
10
5.3587312
20
124.1971057
40
0.2647939
50
83.2727306
51
90.1114621
0
ARC
8
DEFAULT_255_1_234
10
5.3545169
20
124.2169509
40
0.2449763
50
89.1347934
51
111.4089923
0
ARC
8
DEFAULT_255_1_234
10
5.346572
20
124.2497473
40
0.2115923
50
112.6478598
51
148.9260864
0
ARC
8
DEFAULT_255_1_234
10
5.4243518
20
124.1955985
40
0.3062228
50
147.7597608
51
154.928557
0
ARC
8
DEFAULT_255_1_234
10
5.3983579
20
124.0711379
40
0.2792708
50
205.8264786
51
224.5301003
0
ARC
8
DEFAULT_255_1_234
10
5.3505883
20
124.0284914
40
0.2153317
50
225.354483
51
269.2437579
0
ARC
8
DEFAULT_255_1_234
10
5.3597518
20
124.1091292
40
0.2961942
50
267.6770046
51
270.0136612
0
ARC
8
DEFAULT_255_1_234
10
5.3624869
20
124.0332938
40
0.2203751
50
269.3072485
51
289.499141
0
ARC
8
DEFAULT_255_1_234
10
5.3696933
20
124.0036394
40
0.1900415
50
290.4353973
51
325.3766314
0
ARC
8
DEFAULT_255_1_234
10
5.3068156
20
124.0490643
40
0.2675986
50
325.0223901
51
342.692398
0
ARC
8
DEFAULT_255_1_234
10
5.1371044
20
124.1042812
40
0.446058
50
342.4062876
51
352.8669243
0
ARC
8
DEFAULT_255_1_234
10
4.8650519
20
124.1399975
40
0.7204419
50
352.7350668
51
359.8556985
0
ARC
8
DEFAULT_255_1_234
10
4.6740215
20
124.1446018
40
0.9114927
50
359.5965197
51
0.0027543
0
LINE
8
DEFAULT_255_1_234
10
4.3285378
20
132.1761169
11
4.3285378
21
132.2973962
0
LINE
8
DEFAULT_255_1_234
10
4.3285378
20
132.2973962
11
4.440179
21
132.2973962
0
LINE
8
DEFAULT_255_1_234
10
4.2498268
20
132.5030087
11
4.1012396
21
132.5030087
0
LINE
8
DEFAULT_255_1_234
10
4.0907983
20
131.9488188
11
4.2401887
21
131.9488188
0
LINE
8
DEFAULT_255_1_234
10
4.440179
20
132.1761169
11
4.3285378
21
132.1761169
0
ARC
8
DEFAULT_255_1_234
10
4.4372656
20
132.6366713
40
0.3392876
50
270.4919872
51
281.8951556
0
ARC
8
DEFAULT_255_1_234
10
4.4613918
20
132.5264702
40
0.2264817
50
281.6691735
51
301.2943132
0
ARC
8
DEFAULT_255_1_234
10
4.4784128
20
132.4953304
40
0.1910381
50
301.7833094
51
311.7545298
0
ARC
8
DEFAULT_255_1_234
10
4.4875704
20
132.4851748
40
0.1773635
50
311.7323931
51
354.2802411
0
ARC
8
DEFAULT_255_1_234
10
4.4149329
20
132.4976722
40
0.2509385
50
353.0937916
51
0.1181479
0
ARC
8
DEFAULT_255_1_234
10
4.3688114
20
132.5024386
40
0.2970898
50
359.1805295
51
15.0453146
0
ARC
8
DEFAULT_255_1_234
10
4.5033951
20
132.5416992
40
0.1569564
50
13.9577229
51
77.6713066
0
ARC
8
DEFAULT_255_1_234
10
4.464748
20
132.4031949
40
0.3006298
50
76.1116566
51
90.7026153
0
ARC
8
DEFAULT_255_1_234
10
4.4588318
20
132.4305545
40
0.2732568
50
89.5324876
51
103.531937
0
ARC
8
DEFAULT_255_1_234
10
4.4387762
20
132.5104884
40
0.1908508
50
103.2931773
51
133.5619022
0
ARC
8
DEFAULT_255_1_234
10
4.4343251
20
132.5164375
40
0.1834746
50
133.8349307
51
173.5344437
0
ARC
8
DEFAULT_255_1_234
10
4.5066294
20
132.5036213
40
0.2568033
50
172.5096846
51
180.1366907
0
ARC
8
DEFAULT_255_1_234
10
4.4115188
20
132.5070622
40
0.3103056
50
155.3484492
51
180.7484736
0
ARC
8
DEFAULT_255_1_234
10
4.4066277
20
132.5041846
40
0.3070957
50
131.5744599
51
154.4798489
0
ARC
8
DEFAULT_255_1_234
10
4.4379424
20
132.472531
40
0.3515643
50
96.9875458
51
131.9690667
0
ARC
8
DEFAULT_255_1_234
10
4.4598904
20
132.3479636
40
0.4779224
50
89.8596053
51
97.7825159
0
ARC
8
DEFAULT_255_1_234
10
4.4646967
20
132.3217616
40
0.5041361
50
78.3655447
51
90.4131539
0
ARC
8
DEFAULT_255_1_234
10
4.5004885
20
132.4876887
40
0.3344039
50
56.6229102
51
78.638727
0
ARC
8
DEFAULT_255_1_234
10
4.5219829
20
132.5252805
40
0.2912001
50
47.0253525
51
56.0854072
0
ARC
8
DEFAULT_255_1_234
10
4.5239609
20
132.5292223
40
0.2869704
50
10.9208013
51
46.7778124
0
ARC
8
DEFAULT_255_1_234
10
4.3875675
20
132.4976857
40
0.426899
50
359.6364486
51
11.6087304
0
ARC
8
DEFAULT_255_1_234
10
4.5710519
20
132.4961752
40
0.243409
50
332.3549906
51
359.7179418
0
ARC
8
DEFAULT_255_1_234
10
4.5060121
20
132.5270142
40
0.3153459
50
325.2333722
51
332.8745602
0
ARC
8
DEFAULT_255_1_234
10
4.5212744
20
132.5163828
40
0.2967456
50
292.9802137
51
325.2392345
0
ARC
8
DEFAULT_255_1_234
10
4.4938118
20
132.5697863
40
0.3566604
50
292.5402179
51
293.6924929
0
ARC
8
DEFAULT_255_1_234
10
4.5330714
20
131.9243091
40
0.3307468
50
57.6435486
51
72.8625112
0
ARC
8
DEFAULT_255_1_234
10
4.5685214
20
131.9817549
40
0.2632492
50
36.7248896
51
57.4697979
0
ARC
8
DEFAULT_255_1_234
10
4.5673847
20
131.983022
40
0.2634081
50
8.0545065
51
36.356114
0
ARC
8
DEFAULT_255_1_234
10
4.4811032
20
131.9675174
40
0.3510261
50
359.8320645
51
8.5869982
0
ARC
8
DEFAULT_255_1_234
10
4.4435808
20
131.9627101
40
0.3885653
50
343.9829931
51
0.5571613
0
ARC
8
DEFAULT_255_1_234
10
4.5322005
20
131.9384438
40
0.2966924
50
311.6359546
51
343.7651759
0
ARC
8
DEFAULT_255_1_234
10
4.4943574
20
131.9811102
40
0.3537231
50
279.7829875
51
311.6255694
0
ARC
8
DEFAULT_255_1_234
10
4.4642351
20
132.124828
40
0.5004971
50
269.7286406
51
280.3856417
0
ARC
8
DEFAULT_255_1_234
10
4.4580423
20
132.1206996
40
0.4963778
50
256.6828919
51
270.4412052
0
ARC
8
DEFAULT_255_1_234
10
4.4241719
20
131.9822394
40
0.3538406
50
229.4223008
51
256.8556159
0
ARC
8
DEFAULT_255_1_234
10
4.3827112
20
131.9355736
40
0.2914296
50
181.818294
51
229.6455059
0
ARC
8
DEFAULT_255_1_234
10
4.4867068
20
131.9486496
40
0.3959084
50
179.9755256
51
183.2323064
0
ARC
8
DEFAULT_255_1_234
10
4.4694814
20
131.9466037
40
0.2293034
50
179.4465117
51
196.2869258
0
ARC
8
DEFAULT_255_1_234
10
4.4207222
20
131.9332651
40
0.1787621
50
196.5661473
51
227.705904
0
ARC
8
DEFAULT_255_1_234
10
4.4371317
20
131.9516155
40
0.2033784
50
227.7652068
51
257.8762805
0
ARC
8
DEFAULT_255_1_234
10
4.4596287
20
132.0459156
40
0.3003081
50
257.4584385
51
270.426602
0
ARC
8
DEFAULT_255_1_234
10
4.4641853
20
132.0748996
40
0.329292
50
269.5962073
51
280.8789248
0
ARC
8
DEFAULT_255_1_234
10
4.4871382
20
131.9602685
40
0.2123908
50
280.6346389
51
299.8595945
0
ARC
8
DEFAULT_255_1_234
10
4.5062289
20
131.9240212
40
0.171457
50
300.3576302
51
314.5517981
0
ARC
8
DEFAULT_255_1_234
10
4.4979349
20
131.9300919
40
0.1816095
50
315.0728369
51
345.0431014
0
ARC
8
DEFAULT_255_1_234
10
4.4056163
20
131.9569841
40
0.2777492
50
344.5986631
51
357.9269593
0
ARC
8
DEFAULT_255_1_234
10
4.3160489
20
131.9631276
40
0.3674917
50
357.4748886
51
0.0231117
0
ARC
8
DEFAULT_255_1_234
10
4.4183599
20
131.9655679
40
0.2651907
50
359.5047933
51
13.4239635
0
ARC
8
DEFAULT_255_1_234
10
4.5050242
20
131.9877478
40
0.1757509
50
12.9498199
51
48.7551375
0
ARC
8
DEFAULT_255_1_234
10
4.4867976
20
131.96284
40
0.2065134
50
49.5088623
51
72.1836453
0
ARC
8
DEFAULT_255_1_234
10
4.4510129
20
131.8566291
40
0.3185836
50
71.9010081
51
84.3554254
0
ARC
8
DEFAULT_255_1_234
10
4.4348761
20
131.7205326
40
0.4556151
50
84.0193428
51
89.333121
0
LINE
8
DEFAULT_255_1_234
10
5.4802891
20
131.6404
11
5.0746863
21
131.6404
0
LINE
8
DEFAULT_255_1_234
10
5.0746863
20
131.6404
11
5.0746863
21
132.8098211
0
LINE
8
DEFAULT_255_1_234
10
5.0746863
20
132.8098211
11
5.456997
21
132.8098211
0
LINE
8
DEFAULT_255_1_234
10
5.4859113
20
132.1873614
11
5.2288957
21
132.1873614
0
LINE
8
DEFAULT_255_1_234
10
5.2288957
20
132.1873614
11
5.2288957
21
131.7664983
0
LINE
8
DEFAULT_255_1_234
10
5.2288957
20
131.7664983
11
5.4835018
21
131.7664983
0
LINE
8
DEFAULT_255_1_234
10
5.2288957
20
132.6829196
11
5.2288957
21
132.3110501
0
LINE
8
DEFAULT_255_1_234
10
5.2288957
20
132.3110501
11
5.4618161
21
132.3110501
0
LINE
8
DEFAULT_255_1_234
10
5.456997
20
132.6829196
11
5.2288957
21
132.6829196
0
ARC
8
DEFAULT_255_1_234
10
5.4607679
20
132.0730901
40
0.7367406
50
82.1257326
51
90.2932599
0
ARC
8
DEFAULT_255_1_234
10
5.4996634
20
132.3449013
40
0.4621653
50
69.9044149
51
82.2857423
0
ARC
8
DEFAULT_255_1_234
10
5.5567312
20
132.4991637
40
0.2976871
50
51.1838526
51
70.0181538
0
ARC
8
DEFAULT_255_1_234
10
5.5822278
20
132.536224
40
0.2528517
50
12.1017251
51
50.4214761
0
ARC
8
DEFAULT_255_1_234
10
5.4438152
20
132.5014676
40
0.3955061
50
359.5251267
51
12.8211707
0
ARC
8
DEFAULT_255_1_234
10
5.6018078
20
132.4945344
40
0.2375281
50
323.4908128
51
0.8817314
0
ARC
8
DEFAULT_255_1_234
10
5.5599765
20
132.526855
40
0.2903817
50
298.6825083
51
323.2756573
0
ARC
8
DEFAULT_255_1_234
10
5.5238128
20
132.5869649
40
0.3604842
50
293.1999386
51
299.1396394
0
ARC
8
DEFAULT_255_1_234
10
5.5911101
20
131.9784126
40
0.2871098
50
54.0011765
51
74.9167975
0
ARC
8
DEFAULT_255_1_234
10
5.602746
20
131.9981332
40
0.2643248
50
36.3580696
51
53.5291921
0
ARC
8
DEFAULT_255_1_234
10
5.5900702
20
131.9890998
40
0.2798884
50
4.8189881
51
36.3089977
0
ARC
8
DEFAULT_255_1_234
10
5.5121537
20
131.978127
40
0.358478
50
359.9370252
51
5.5204067
0
ARC
8
DEFAULT_255_1_234
10
5.4797059
20
131.9740667
40
0.3909429
50
344.7478609
51
0.5373281
0
ARC
8
DEFAULT_255_1_234
10
5.578803
20
131.9473544
40
0.2883093
50
311.1786488
51
344.6886812
0
ARC
8
DEFAULT_255_1_234
10
5.5496077
20
131.9836987
40
0.3348923
50
286.0418249
51
310.8441291
0
ARC
8
DEFAULT_255_1_234
10
5.4988909
20
132.1483807
40
0.5071869
50
274.1042341
51
286.4071509
0
ARC
8
DEFAULT_255_1_234
10
5.4812165
20
132.3367229
40
0.6963234
50
269.9236873
51
274.445647
0
ARC
8
DEFAULT_255_1_234
10
5.4858166
20
132.1027537
40
0.3362634
50
269.6055768
51
281.3740047
0
ARC
8
DEFAULT_255_1_234
10
5.5088804
20
131.9934353
40
0.224546
50
281.1055983
51
302.5132223
0
ARC
8
DEFAULT_255_1_234
10
5.5235703
20
131.9670823
40
0.1944357
50
303.0368945
51
311.8811219
0
ARC
8
DEFAULT_255_1_234
10
5.530711
20
131.958589
40
0.1833454
50
311.9916004
51
351.7143462
0
ARC
8
DEFAULT_255_1_234
10
5.449034
20
131.975093
40
0.2665871
50
350.7339597
51
0.2221581
0
ARC
8
DEFAULT_255_1_234
10
5.4382786
20
131.9807467
40
0.2773789
50
359.0456241
51
17.2296242
0
ARC
8
DEFAULT_255_1_234
10
5.5421903
20
132.0116163
40
0.1689915
50
17.6685481
51
78.9940892
0
ARC
8
DEFAULT_255_1_234
10
5.4905067
20
131.8261224
40
0.3612658
50
76.5635957
51
90.6980921
0
LINE
8
DEFAULT_255_1_234
10
5.4861051
20
132.1873613
11
5.4859113
21
132.1873614
0
ARC
8
DEFAULT_255_1_234
10
5.4640727
20
132.6396036
40
0.3285612
50
269.6064736
51
281.4533503
0
ARC
8
DEFAULT_255_1_234
10
5.4863547
20
132.5344688
40
0.2210975
50
281.2041486
51
302.5148063
0
ARC
8
DEFAULT_255_1_234
10
5.5000397
20
132.5098241
40
0.1929674
50
303.021671
51
309.8369575
0
ARC
8
DEFAULT_255_1_234
10
5.5183858
20
132.4892488
40
0.1654181
50
309.5228395
51
356.9509836
0
ARC
8
DEFAULT_255_1_234
10
5.4520441
20
132.4987932
40
0.2322512
50
355.4701227
51
0.0492546
0
ARC
8
DEFAULT_255_1_234
10
5.4241532
20
132.5010094
40
0.2601498
50
359.5558597
51
11.2096359
0
ARC
8
DEFAULT_255_1_234
10
5.5198822
20
132.520823
40
0.1623975
50
10.9182341
51
31.3230275
0
ARC
8
DEFAULT_255_1_234
10
5.5484555
20
132.5367214
40
0.1297302
50
31.8852677
51
52.1412565
0
ARC
8
DEFAULT_255_1_234
10
5.5210288
20
132.497975
40
0.1771663
50
52.8285564
51
71.9850297
0
ARC
8
DEFAULT_255_1_234
10
5.4834464
20
132.3873664
40
0.2939794
50
71.6863486
51
82.8455995
0
ARC
8
DEFAULT_255_1_234
10
5.4595
20
132.2064149
40
0.476506
50
82.6984714
51
90.1729175
0
ARC
8
DEFAULT_255_1_234
10
5.4572635
20
132.3287623
40
0.3541573
50
89.8708275
51
90.0431131
0
LINE
8
DEFAULT_255_1_234
10
4.4111378
20
140.1136169
11
4.4111378
21
140.2348962
0
LINE
8
DEFAULT_255_1_234
10
4.4111378
20
140.2348962
11
4.522779
21
140.2348962
0
LINE
8
DEFAULT_255_1_234
10
4.3324268
20
140.4405087
11
4.1838396
21
140.4405087
0
LINE
8
DEFAULT_255_1_234
10
4.1733983
20
139.8863188
11
4.3227887
21
139.8863188
0
LINE
8
DEFAULT_255_1_234
10
4.522779
20
140.1136169
11
4.4111378
21
140.1136169
0
ARC
8
DEFAULT_255_1_234
10
4.5198656
20
140.5741713
40
0.3392876
50
270.4919872
51
281.8951556
0
ARC
8
DEFAULT_255_1_234
10
4.5439918
20
140.4639702
40
0.2264817
50
281.6691735
51
301.2943132
0
ARC
8
DEFAULT_255_1_234
10
4.5610128
20
140.4328304
40
0.1910381
50
301.7833094
51
311.7545298
0
ARC
8
DEFAULT_255_1_234
10
4.5701704
20
140.4226748
40
0.1773635
50
311.7323931
51
354.2802411
0
ARC
8
DEFAULT_255_1_234
10
4.4975329
20
140.4351722
40
0.2509385
50
353.0937916
51
0.1181479
0
ARC
8
DEFAULT_255_1_234
10
4.4514114
20
140.4399386
40
0.2970898
50
359.1805295
51
15.0453146
0
ARC
8
DEFAULT_255_1_234
10
4.5859951
20
140.4791992
40
0.1569564
50
13.9577229
51
77.6713066
0
ARC
8
DEFAULT_255_1_234
10
4.547348
20
140.3406949
40
0.3006298
50
76.1116566
51
90.7026153
0
ARC
8
DEFAULT_255_1_234
10
4.5414318
20
140.3680545
40
0.2732568
50
89.5324876
51
103.531937
0
ARC
8
DEFAULT_255_1_234
10
4.5213762
20
140.4479884
40
0.1908508
50
103.2931773
51
133.5619022
0
ARC
8
DEFAULT_255_1_234
10
4.5169251
20
140.4539375
40
0.1834746
50
133.8349307
51
173.5344437
0
ARC
8
DEFAULT_255_1_234
10
4.5892294
20
140.4411213
40
0.2568033
50
172.5096846
51
180.1366907
0
ARC
8
DEFAULT_255_1_234
10
4.4941188
20
140.4445622
40
0.3103056
50
155.3484492
51
180.7484736
0
ARC
8
DEFAULT_255_1_234
10
4.4892277
20
140.4416846
40
0.3070957
50
131.5744599
51
154.4798489
0
ARC
8
DEFAULT_255_1_234
10
4.5205424
20
140.410031
40
0.3515643
50
96.9875458
51
131.9690667
0
ARC
8
DEFAULT_255_1_234
10
4.5424904
20
140.2854636
40
0.4779224
50
89.8596053
51
97.7825159
0
ARC
8
DEFAULT_255_1_234
10
4.5472967
20
140.2592616
40
0.5041361
50
78.3655447
51
90.4131539
0
ARC
8
DEFAULT_255_1_234
10
4.5830885
20
140.4251887
40
0.3344039
50
56.6229102
51
78.638727
0
ARC
8
DEFAULT_255_1_234
10
4.6045829
20
140.4627805
40
0.2912001
50
47.0253525
51
56.0854072
0
ARC
8
DEFAULT_255_1_234
10
4.6065609
20
140.4667223
40
0.2869704
50
10.9208013
51
46.7778124
0
ARC
8
DEFAULT_255_1_234
10
4.4701675
20
140.4351857
40
0.426899
50
359.6364486
51
11.6087304
0
ARC
8
DEFAULT_255_1_234
10
4.6536519
20
140.4336752
40
0.243409
50
332.3549906
51
359.7179418
0
ARC
8
DEFAULT_255_1_234
10
4.5886121
20
140.4645142
40
0.3153459
50
325.2333722
51
332.8745602
0
ARC
8
DEFAULT_255_1_234
10
4.6038744
20
140.4538828
40
0.2967456
50
292.9802137
51
325.2392345
0
ARC
8
DEFAULT_255_1_234
10
4.5764118
20
140.5072863
40
0.3566604
50
292.5402179
51
293.6924929
0
ARC
8
DEFAULT_255_1_234
10
4.6156714
20
139.8618091
40
0.3307468
50
57.6435486
51
72.8625112
0
ARC
8
DEFAULT_255_1_234
10
4.6511214
20
139.9192549
40
0.2632492
50
36.7248896
51
57.4697979
0
ARC
8
DEFAULT_255_1_234
10
4.6499847
20
139.920522
40
0.2634081
50
8.0545065
51
36.356114
0
ARC
8
DEFAULT_255_1_234
10
4.5637032
20
139.9050174
40
0.3510261
50
359.8320645
51
8.5869982
0
ARC
8
DEFAULT_255_1_234
10
4.5261808
20
139.9002101
40
0.3885653
50
343.9829931
51
0.5571613
0
ARC
8
DEFAULT_255_1_234
10
4.6148005
20
139.8759438
40
0.2966924
50
311.6359546
51
343.7651759
0
ARC
8
DEFAULT_255_1_234
10
4.5769574
20
139.9186102
40
0.3537231
50
279.7829875
51
311.6255694
0
ARC
8
DEFAULT_255_1_234
10
4.5468351
20
140.062328
40
0.5004971
50
269.7286406
51
280.3856417
0
ARC
8
DEFAULT_255_1_234
10
4.5406423
20
140.0581996
40
0.4963778
50
256.6828919
51
270.4412052
0
ARC
8
DEFAULT_255_1_234
10
4.5067719
20
139.9197394
40
0.3538406
50
229.4223008
51
256.8556159
0
ARC
8
DEFAULT_255_1_234
10
4.4653112
20
139.8730736
40
0.2914296
50
181.818294
51
229.6455059
0
ARC
8
DEFAULT_255_1_234
10
4.5693068
20
139.8861496
40
0.3959084
50
179.9755256
51
183.2323064
0
ARC
8
DEFAULT_255_1_234
10
4.5520814
20
139.8841037
40
0.2293034
50
179.4465117
51
196.2869258
0
ARC
8
DEFAULT_255_1_234
10
4.5033222
20
139.8707651
40
0.1787621
50
196.5661473
51
227.705904
0
ARC
8
DEFAULT_255_1_234
10
4.5197317
20
139.8891155
40
0.2033784
50
227.7652068
51
257.8762805
0
ARC
8
DEFAULT_255_1_234
10
4.5422287
20
139.9834156
40
0.3003081
50
257.4584385
51
270.426602
0
ARC
8
DEFAULT_255_1_234
10
4.5467853
20
140.0123996
40
0.329292
50
269.5962073
51
280.8789248
0
ARC
8
DEFAULT_255_1_234
10
4.5697382
20
139.8977685
40
0.2123908
50
280.6346389
51
299.8595945
0
ARC
8
DEFAULT_255_1_234
10
4.5888289
20
139.8615212
40
0.171457
50
300.3576302
51
314.5517981
0
ARC
8
DEFAULT_255_1_234
10
4.5805349
20
139.8675919
40
0.1816095
50
315.0728369
51
345.0431014
0
ARC
8
DEFAULT_255_1_234
10
4.4882163
20
139.8944841
40
0.2777492
50
344.5986631
51
357.9269593
0
ARC
8
DEFAULT_255_1_234
10
4.3986489
20
139.9006276
40
0.3674917
50
357.4748886
51
0.0231117
0
ARC
8
DEFAULT_255_1_234
10
4.5009599
20
139.9030679
40
0.2651907
50
359.5047933
51
13.4239635
0
ARC
8
DEFAULT_255_1_234
10
4.5876242
20
139.9252478
40
0.1757509
50
12.9498199
51
48.7551375
0
ARC
8
DEFAULT_255_1_234
10
4.5693976
20
139.90034
40
0.2065134
50
49.5088623
51
72.1836453
0
ARC
8
DEFAULT_255_1_234
10
4.5336129
20
139.7941291
40
0.3185836
50
71.9010081
51
84.3554254
0
ARC
8
DEFAULT_255_1_234
10
4.5174761
20
139.6580326
40
0.4556151
50
84.0193428
51
89.333121
0
LINE
8
DEFAULT_255_1_234
10
5.9146792
20
139.5779
11
5.803038
21
139.8831061
0
LINE
8
DEFAULT_255_1_234
10
5.803038
20
139.8831061
11
5.313102
21
139.8831061
0
LINE
8
DEFAULT_255_1_234
10
5.313102
20
139.8831061
11
5.2030672
21
139.5779
0
LINE
8
DEFAULT_255_1_234
10
5.2030672
20
139.5779
11
5.0440388
21
139.5779
0
LINE
8
DEFAULT_255_1_234
10
5.0440388
20
139.5779
11
5.4906034
21
140.7473211
0
LINE
8
DEFAULT_255_1_234
10
5.4906034
20
140.7473211
11
5.6255366
21
140.7473211
0
LINE
8
DEFAULT_255_1_234
10
5.6255366
20
140.7473211
11
6.0729044
21
139.5779
0
LINE
8
DEFAULT_255_1_234
10
6.0729044
20
139.5779
11
5.9146792
21
139.5779
0
LINE
8
DEFAULT_255_1_234
10
5.55807
20
140.5569689
11
5.3596861
21
140.0100075
0
LINE
8
DEFAULT_255_1_234
10
5.3596861
20
140.0100075
11
5.7572571
21
140.0100075
0
LINE
8
DEFAULT_255_1_234
10
5.7572571
20
140.0100075
11
5.55807
21
140.5569689
0
LINE
8
DEFAULT_255_1_234
10
4.8257119
20
147.6366792
11
4.8257119
21
147.5154
0
LINE
8
DEFAULT_255_1_234
10
4.8257119
20
147.5154
11
4.059484
21
147.5154
0
LINE
8
DEFAULT_255_1_234
10
4.059484
20
147.5154
11
4.059484
21
147.6222221
0
LINE
8
DEFAULT_255_1_234
10
4.059484
20
147.6222221
11
4.4642836
21
148.0719995
0
LINE
8
DEFAULT_255_1_234
10
4.1855823
20
148.3402595
11
4.0369952
21
148.3402595
0
LINE
8
DEFAULT_255_1_234
10
4.5518296
20
147.9764218
11
4.2385918
21
147.6366792
0
LINE
8
DEFAULT_255_1_234
10
4.2385918
20
147.6366792
11
4.8257119
21
147.6366792
0
ARC
8
DEFAULT_255_1_234
10
3.115267
20
149.2649527
40
1.8008286
50
318.5132453
51
320.7828378
0
ARC
8
DEFAULT_255_1_234
10
3.6439644
20
148.8346426
40
1.1191493
50
320.7372736
51
323.9737074
0
ARC
8
DEFAULT_255_1_234
10
4.0359501
20
148.5506361
40
0.6350923
50
323.8961724
51
328.6421089
0
ARC
8
DEFAULT_255_1_234
10
4.2406096
20
148.4244031
40
0.3946393
50
328.8299013
51
331.789948
0
ARC
8
DEFAULT_255_1_234
10
4.3403274
20
148.3729509
40
0.2824501
50
331.4255242
51
352.9364833
0
ARC
8
DEFAULT_255_1_234
10
4.3539775
20
148.3698976
40
0.2685315
50
353.2248685
51
0.0169286
0
ARC
8
DEFAULT_255_1_234
10
4.3749652
20
148.372195
40
0.2475536
50
359.4866256
51
15.9339782
0
ARC
8
DEFAULT_255_1_234
10
4.4256637
20
148.3858286
40
0.1950618
50
16.1714718
51
43.5284424
0
ARC
8
DEFAULT_255_1_234
10
4.4333946
20
148.3935573
40
0.184134
50
43.4415429
51
83.1661404
0
ARC
8
DEFAULT_255_1_234
10
4.4199864
20
148.3198771
40
0.258926
50
82.160215
51
90.1505798
0
ARC
8
DEFAULT_255_1_234
10
4.4168291
20
148.2661865
40
0.3126255
50
89.5460705
51
102.5418777
0
ARC
8
DEFAULT_255_1_234
10
4.3925377
20
148.3692665
40
0.2067346
50
102.1739365
51
129.2061916
0
ARC
8
DEFAULT_255_1_234
10
4.3846449
20
148.3817094
40
0.1921118
50
129.7279328
51
135.7542026
0
ARC
8
DEFAULT_255_1_234
10
4.3967977
20
148.3720045
40
0.2075944
50
136.175737
51
166.3674722
0
ARC
8
DEFAULT_255_1_234
10
4.4974896
20
148.3450182
40
0.3118201
50
165.9092917
51
178.8683903
0
ARC
8
DEFAULT_255_1_234
10
4.5839757
20
148.3403179
40
0.3983935
50
178.438168
51
180.0083905
0
ARC
8
DEFAULT_255_1_234
10
4.4438359
20
148.3442231
40
0.4068601
50
163.2878735
51
180.5581814
0
ARC
8
DEFAULT_255_1_234
10
4.3636621
20
148.366284
40
0.3237344
50
133.454115
51
162.9470031
0
ARC
8
DEFAULT_255_1_234
10
4.3815162
20
148.3473
40
0.349795
50
100.7869394
51
133.4384016
0
ARC
8
DEFAULT_255_1_234
10
4.4162934
20
148.1924319
40
0.5084616
50
89.6605301
51
101.3704185
0
ARC
8
DEFAULT_255_1_234
10
4.4229273
20
148.1985496
40
0.502348
50
78.2171172
51
90.4130393
0
ARC
8
DEFAULT_255_1_234
10
4.4584351
20
148.3609637
40
0.3361092
50
55.9268222
51
78.4888551
0
ARC
8
DEFAULT_255_1_234
10
4.4780791
20
148.3948324
40
0.2970617
50
47.9292255
51
55.4054003
0
ARC
8
DEFAULT_255_1_234
10
4.4882352
20
148.4051502
40
0.2825983
50
4.3347696
51
48.0560701
0
ARC
8
DEFAULT_255_1_234
10
4.3786745
20
148.3881601
40
0.393225
50
359.925209
51
5.5967654
0
ARC
8
DEFAULT_255_1_234
10
4.4215637
20
148.3937816
40
0.3503892
50
337.8914096
51
358.9967724
0
ARC
8
DEFAULT_255_1_234
10
4.1502049
20
148.4984706
40
0.6412172
50
326.9135351
51
338.3505194
0
ARC
8
DEFAULT_255_1_234
10
3.7516353
20
148.7539284
40
1.1146189
50
319.6472867
51
327.095818
0
ARC
8
DEFAULT_255_1_234
10
3.3683356
20
149.0701
40
1.6114559
50
317.2586784
51
319.9046139
0
LINE
8
DEFAULT_255_1_234
10
5.7341015
20
147.9531297
11
5.7341015
21
147.940279
0
LINE
8
DEFAULT_255_1_234
10
5.1421624
20
147.6157967
11
5.1349338
21
147.5154
0
LINE
8
DEFAULT_255_1_234
10
5.1349338
20
147.5154
11
4.9983942
21
147.5154
0
LINE
8
DEFAULT_255_1_234
10
4.9983942
20
147.5154
11
4.9983942
21
148.749075
0
LINE
8
DEFAULT_255_1_234
10
4.9983942
20
148.749075
11
5.1469814
21
148.749075
0
LINE
8
DEFAULT_255_1_234
10
5.1469814
20
148.749075
11
5.1469814
21
148.2888564
0
LINE
8
DEFAULT_255_1_234
10
5.1469814
20
148.1378597
11
5.1469814
21
147.7619744
0
ARC
8
DEFAULT_255_1_234
10
5.029429
20
147.9358573
40
0.7046863
50
349.4825105
51
0.3595108
0
ARC
8
DEFAULT_255_1_234
10
5.2571531
20
147.8920022
40
0.4727857
50
331.8602128
51
349.6704139
0
ARC
8
DEFAULT_255_1_234
10
5.3304299
20
147.8563125
40
0.3913503
50
322.8939783
51
331.4081204
0
ARC
8
DEFAULT_255_1_234
10
5.3999697
20
147.7983707
40
0.300965
50
296.7249167
51
323.7044215
0
ARC
8
DEFAULT_255_1_234
10
5.4029594
20
147.8053043
40
0.3058683
50
270.6342811
51
295.6405548
0
ARC
8
DEFAULT_255_1_234
10
5.3967904
20
147.8855995
40
0.3862632
50
269.9967524
51
271.4174733
0
ARC
8
DEFAULT_255_1_234
10
5.3929568
20
147.8720686
40
0.3727515
50
253.657532
51
270.5859025
0
ARC
8
DEFAULT_255_1_234
10
5.3698674
20
147.7877235
40
0.2853216
50
217.0543181
51
253.3409865
0
ARC
8
DEFAULT_255_1_234
10
5.3765342
20
148.1061052
40
0.2934152
50
93.1931545
51
141.4760602
0
ARC
8
DEFAULT_255_1_234
10
5.3947558
20
147.9828453
40
0.4176524
50
89.9442578
51
94.747309
0
ARC
8
DEFAULT_255_1_234
10
5.3991305
20
148.065141
40
0.3353801
50
70.6103515
51
90.6779749
0
ARC
8
DEFAULT_255_1_234
10
5.4105607
20
148.110689
40
0.2886533
50
36.1152635
51
69.7489296
0
ARC
8
DEFAULT_255_1_234
10
5.3119011
20
148.0353708
40
0.4127561
50
15.4648517
51
36.4891396
0
ARC
8
DEFAULT_255_1_234
10
5.1060697
20
147.9754524
40
0.6271187
50
3.9220813
51
15.7265815
0
ARC
8
DEFAULT_255_1_234
10
4.8701541
20
147.9542325
40
0.863948
50
359.9268643
51
4.2559037
0
ARC
8
DEFAULT_255_1_234
10
4.9515922
20
147.9602103
40
0.6339295
50
359.7230081
51
7.7115859
0
ARC
8
DEFAULT_255_1_234
10
5.1777487
20
147.9918172
40
0.4055784
50
7.5740023
51
19.4151451
0
ARC
8
DEFAULT_255_1_234
10
5.3045126
20
148.0364519
40
0.2711858
50
19.4238354
51
34.9161182
0
ARC
8
DEFAULT_255_1_234
10
5.3715864
20
148.0851172
40
0.1883373
50
34.4556322
51
84.4656458
0
ARC
8
DEFAULT_255_1_234
10
5.3587312
20
148.0096057
40
0.2647939
50
83.2727306
51
90.1114621
0
ARC
8
DEFAULT_255_1_234
10
5.3545169
20
148.0294509
40
0.2449763
50
89.1347934
51
111.4089923
0
ARC
8
DEFAULT_255_1_234
10
5.346572
20
148.0622473
40
0.2115923
50
112.6478598
51
148.9260864
0
ARC
8
DEFAULT_255_1_234
10
5.4243518
20
148.0080985
40
0.3062228
50
147.7597608
51
154.928557
0
ARC
8
DEFAULT_255_1_234
10
5.3983579
20
147.8836379
40
0.2792708
50
205.8264786
51
224.5301003
0
ARC
8
DEFAULT_255_1_234
10
5.3505883
20
147.8409914
40
0.2153317
50
225.354483
51
269.2437579
0
ARC
8
DEFAULT_255_1_234
10
5.3597518
20
147.9216292
40
0.2961942
50
267.6770046
51
270.0136612
0
ARC
8
DEFAULT_255_1_234
10
5.3624869
20
147.8457938
40
0.2203751
50
269.3072485
51
289.499141
0
ARC
8
DEFAULT_255_1_234
10
5.3696933
20
147.8161394
40
0.1900415
50
290.4353973
51
325.3766314
0
ARC
8
DEFAULT_255_1_234
10
5.3068156
20
147.8615643
40
0.2675986
50
325.0223901
51
342.692398
0
ARC
8
DEFAULT_255_1_234
10
5.1371044
20
147.9167812
40
0.446058
50
342.4062876
51
352.8669243
0
ARC
8
DEFAULT_255_1_234
10
4.8650519
20
147.9524975
40
0.7204419
50
352.7350668
51
359.8556985
0
ARC
8
DEFAULT_255_1_234
10
4.6740215
20
147.9571018
40
0.9114927
50
359.5965197
51
0.0027543
0
LINE
8
DEFAULT_255_1_234
10
4.8787119
20
155.5741792
11
4.8787119
21
155.4529
0
LINE
8
DEFAULT_255_1_234
10
4.8787119
20
155.4529
11
4.112484
21
155.4529
0
LINE
8
DEFAULT_255_1_234
10
4.112484
20
155.4529
11
4.112484
21
155.5597221
0
LINE
8
DEFAULT_255_1_234
10
4.112484
20
155.5597221
11
4.5172836
21
156.0094995
0
LINE
8
DEFAULT_255_1_234
10
4.2385823
20
156.2777595
11
4.0899952
21
156.2777595
0
LINE
8
DEFAULT_255_1_234
10
4.6048296
20
155.9139218
11
4.2915918
21
155.5741792
0
LINE
8
DEFAULT_255_1_234
10
4.2915918
20
155.5741792
11
4.8787119
21
155.5741792
0
ARC
8
DEFAULT_255_1_234
10
3.168267
20
157.2024527
40
1.8008286
50
318.5132453
51
320.7828378
0
ARC
8
DEFAULT_255_1_234
10
3.6969644
20
156.7721426
40
1.1191493
50
320.7372736
51
323.9737074
0
ARC
8
DEFAULT_255_1_234
10
4.0889501
20
156.4881361
40
0.6350923
50
323.8961724
51
328.6421089
0
ARC
8
DEFAULT_255_1_234
10
4.2936096
20
156.3619031
40
0.3946393
50
328.8299013
51
331.789948
0
ARC
8
DEFAULT_255_1_234
10
4.3933274
20
156.3104509
40
0.2824501
50
331.4255242
51
352.9364833
0
ARC
8
DEFAULT_255_1_234
10
4.4069775
20
156.3073976
40
0.2685315
50
353.2248685
51
0.0169286
0
ARC
8
DEFAULT_255_1_234
10
4.4279652
20
156.309695
40
0.2475536
50
359.4866256
51
15.9339782
0
ARC
8
DEFAULT_255_1_234
10
4.4786637
20
156.3233286
40
0.1950618
50
16.1714718
51
43.5284424
0
ARC
8
DEFAULT_255_1_234
10
4.4863946
20
156.3310573
40
0.184134
50
43.4415429
51
83.1661404
0
ARC
8
DEFAULT_255_1_234
10
4.4729864
20
156.2573771
40
0.258926
50
82.160215
51
90.1505798
0
ARC
8
DEFAULT_255_1_234
10
4.4698291
20
156.2036865
40
0.3126255
50
89.5460705
51
102.5418777
0
ARC
8
DEFAULT_255_1_234
10
4.4455377
20
156.3067665
40
0.2067346
50
102.1739365
51
129.2061916
0
ARC
8
DEFAULT_255_1_234
10
4.4376449
20
156.3192094
40
0.1921118
50
129.7279328
51
135.7542026
0
ARC
8
DEFAULT_255_1_234
10
4.4497977
20
156.3095045
40
0.2075944
50
136.175737
51
166.3674722
0
ARC
8
DEFAULT_255_1_234
10
4.5504896
20
156.2825182
40
0.3118201
50
165.9092917
51
178.8683903
0
ARC
8
DEFAULT_255_1_234
10
4.6369757
20
156.2778179
40
0.3983935
50
178.438168
51
180.0083905
0
ARC
8
DEFAULT_255_1_234
10
4.4968359
20
156.2817231
40
0.4068601
50
163.2878735
51
180.5581814
0
ARC
8
DEFAULT_255_1_234
10
4.4166621
20
156.303784
40
0.3237344
50
133.454115
51
162.9470031
0
ARC
8
DEFAULT_255_1_234
10
4.4345162
20
156.2848
40
0.349795
50
100.7869394
51
133.4384016
0
ARC
8
DEFAULT_255_1_234
10
4.4692934
20
156.1299319
40
0.5084616
50
89.6605301
51
101.3704185
0
ARC
8
DEFAULT_255_1_234
10
4.4759273
20
156.1360496
40
0.502348
50
78.2171172
51
90.4130393
0
ARC
8
DEFAULT_255_1_234
10
4.5114351
20
156.2984637
40
0.3361092
50
55.9268222
51
78.4888551
0
ARC
8
DEFAULT_255_1_234
10
4.5310791
20
156.3323324
40
0.2970617
50
47.9292255
51
55.4054003
0
ARC
8
DEFAULT_255_1_234
10
4.5412352
20
156.3426502
40
0.2825983
50
4.3347696
51
48.0560701
0
ARC
8
DEFAULT_255_1_234
10
4.4316745
20
156.3256601
40
0.393225
50
359.925209
51
5.5967654
0
ARC
8
DEFAULT_255_1_234
10
4.4745637
20
156.3312816
40
0.3503892
50
337.8914096
51
358.9967724
0
ARC
8
DEFAULT_255_1_234
10
4.2032049
20
156.4359706
40
0.6412172
50
326.9135351
51
338.3505194
0
ARC
8
DEFAULT_255_1_234
10
3.8046353
20
156.6914284
40
1.1146189
50
319.6472867
51
327.095818
0
ARC
8
DEFAULT_255_1_234
10
3.4213356
20
157.0076
40
1.6114559
50
317.2586784
51
319.9046139
0
LINE
8
DEFAULT_255_1_234
10
5.4802891
20
155.4529
11
5.0746863
21
155.4529
0
LINE
8
DEFAULT_255_1_234
10
5.0746863
20
155.4529
11
5.0746863
21
156.6223211
0
LINE
8
DEFAULT_255_1_234
10
5.0746863
20
156.6223211
11
5.456997
21
156.6223211
0
LINE
8
DEFAULT_255_1_234
10
5.4859113
20
155.9998614
11
5.2288957
21
155.9998614
0
LINE
8
DEFAULT_255_1_234
10
5.2288957
20
155.9998614
11
5.2288957
21
155.5789983
0
LINE
8
DEFAULT_255_1_234
10
5.2288957
20
155.5789983
11
5.4835018
21
155.5789983
0
LINE
8
DEFAULT_255_1_234
10
5.2288957
20
156.4954196
11
5.2288957
21
156.1235501
0
LINE
8
DEFAULT_255_1_234
10
5.2288957
20
156.1235501
11
5.4618161
21
156.1235501
0
LINE
8
DEFAULT_255_1_234
10
5.456997
20
156.4954196
11
5.2288957
21
156.4954196
0
ARC
8
DEFAULT_255_1_234
10
5.4607679
20
155.8855901
40
0.7367406
50
82.1257326
51
90.2932599
0
ARC
8
DEFAULT_255_1_234
10
5.4996634
20
156.1574013
40
0.4621653
50
69.9044149
51
82.2857423
0
ARC
8
DEFAULT_255_1_234
10
5.5567312
20
156.3116637
40
0.2976871
50
51.1838526
51
70.0181538
0
ARC
8
DEFAULT_255_1_234
10
5.5822278
20
156.348724
40
0.2528517
50
12.1017251
51
50.4214761
0
ARC
8
DEFAULT_255_1_234
10
5.4438152
20
156.3139676
40
0.3955061
50
359.5251267
51
12.8211707
0
ARC
8
DEFAULT_255_1_234
10
5.6018078
20
156.3070344
40
0.2375281
50
323.4908128
51
0.8817314
0
ARC
8
DEFAULT_255_1_234
10
5.5599765
20
156.339355
40
0.2903817
50
298.6825083
51
323.2756573
0
ARC
8
DEFAULT_255_1_234
10
5.5238128
20
156.3994649
40
0.3604842
50
293.1999386
51
299.1396394
0
ARC
8
DEFAULT_255_1_234
10
5.5911101
20
155.7909126
40
0.2871098
50
54.0011765
51
74.9167975
0
ARC
8
DEFAULT_255_1_234
10
5.602746
20
155.8106332
40
0.2643248
50
36.3580696
51
53.5291921
0
ARC
8
DEFAULT_255_1_234
10
5.5900702
20
155.8015998
40
0.2798884
50
4.8189881
51
36.3089977
0
ARC
8
DEFAULT_255_1_234
10
5.5121537
20
155.790627
40
0.358478
50
359.9370252
51
5.5204067
0
ARC
8
DEFAULT_255_1_234
10
5.4797059
20
155.7865667
40
0.3909429
50
344.7478609
51
0.5373281
0
ARC
8
DEFAULT_255_1_234
10
5.578803
20
155.7598544
40
0.2883093
50
311.1786488
51
344.6886812
0
ARC
8
DEFAULT_255_1_234
10
5.5496077
20
155.7961987
40
0.3348923
50
286.0418249
51
310.8441291
0
ARC
8
DEFAULT_255_1_234
10
5.4988909
20
155.9608807
40
0.5071869
50
274.1042341
51
286.4071509
0
ARC
8
DEFAULT_255_1_234
10
5.4812165
20
156.1492229
40
0.6963234
50
269.9236873
51
274.445647
0
ARC
8
DEFAULT_255_1_234
10
5.4858166
20
155.9152537
40
0.3362634
50
269.6055768
51
281.3740047
0
ARC
8
DEFAULT_255_1_234
10
5.5088804
20
155.8059353
40
0.224546
50
281.1055983
51
302.5132223
0
ARC
8
DEFAULT_255_1_234
10
5.5235703
20
155.7795823
40
0.1944357
50
303.0368945
51
311.8811219
0
ARC
8
DEFAULT_255_1_234
10
5.530711
20
155.771089
40
0.1833454
50
311.9916004
51
351.7143462
0
ARC
8
DEFAULT_255_1_234
10
5.449034
20
155.787593
40
0.2665871
50
350.7339597
51
0.2221581
0
ARC
8
DEFAULT_255_1_234
10
5.4382786
20
155.7932467
40
0.2773789
50
359.0456241
51
17.2296242
0
ARC
8
DEFAULT_255_1_234
10
5.5421903
20
155.8241163
40
0.1689915
50
17.6685481
51
78.9940892
0
ARC
8
DEFAULT_255_1_234
10
5.4905067
20
155.6386224
40
0.3612658
50
76.5635957
51
90.6980921
0
LINE
8
DEFAULT_255_1_234
10
5.4861051
20
155.9998613
11
5.4859113
21
155.9998614
0
ARC
8
DEFAULT_255_1_234
10
5.4640727
20
156.4521036
40
0.3285612
50
269.6064736
51
281.4533503
0
ARC
8
DEFAULT_255_1_234
10
5.4863547
20
156.3469688
40
0.2210975
50
281.2041486
51
302.5148063
0
ARC
8
DEFAULT_255_1_234
10
5.5000397
20
156.3223241
40
0.1929674
50
303.021671
51
309.8369575
0
ARC
8
DEFAULT_255_1_234
10
5.5183858
20
156.3017488
40
0.1654181
50
309.5228395
51
356.9509836
0
ARC
8
DEFAULT_255_1_234
10
5.4520441
20
156.3112932
40
0.2322512
50
355.4701227
51
0.0492546
0
ARC
8
DEFAULT_255_1_234
10
5.4241532
20
156.3135094
40
0.2601498
50
359.5558597
51
11.2096359
0
ARC
8
DEFAULT_255_1_234
10
5.5198822
20
156.333323
40
0.1623975
50
10.9182341
51
31.3230275
0
ARC
8
DEFAULT_255_1_234
10
5.5484555
20
156.3492214
40
0.1297302
50
31.8852677
51
52.1412565
0
ARC
8
DEFAULT_255_1_234
10
5.5210288
20
156.310475
40
0.1771663
50
52.8285564
51
71.9850297
0
ARC
8
DEFAULT_255_1_234
10
5.4834464
20
156.1998664
40
0.2939794
50
71.6863486
51
82.8455995
0
ARC
8
DEFAULT_255_1_234
10
5.4595
20
156.0189149
40
0.476506
50
82.6984714
51
90.1729175
0
ARC
8
DEFAULT_255_1_234
10
5.4572635
20
156.1412623
40
0.3541573
50
89.8708275
51
90.0431131
0
LINE
8
DEFAULT_255_1_234
10
4.9613119
20
163.5116792
11
4.9613119
21
163.3904
0
LINE
8
DEFAULT_255_1_234
10
4.9613119
20
163.3904
11
4.195084
21
163.3904
0
LINE
8
DEFAULT_255_1_234
10
4.195084
20
163.3904
11
4.195084
21
163.4972221
0
LINE
8
DEFAULT_255_1_234
10
4.195084
20
163.4972221
11
4.5998836
21
163.9469995
0
LINE
8
DEFAULT_255_1_234
10
4.3211823
20
164.2152595
11
4.1725952
21
164.2152595
0
LINE
8
DEFAULT_255_1_234
10
4.6874296
20
163.8514218
11
4.3741918
21
163.5116792
0
LINE
8
DEFAULT_255_1_234
10
4.3741918
20
163.5116792
11
4.9613119
21
163.5116792
0
ARC
8
DEFAULT_255_1_234
10
3.250867
20
165.1399527
40
1.8008286
50
318.5132453
51
320.7828378
0
ARC
8
DEFAULT_255_1_234
10
3.7795644
20
164.7096426
40
1.1191493
50
320.7372736
51
323.9737074
0
ARC
8
DEFAULT_255_1_234
10
4.1715501
20
164.4256361
40
0.6350923
50
323.8961724
51
328.6421089
0
ARC
8
DEFAULT_255_1_234
10
4.3762096
20
164.2994031
40
0.3946393
50
328.8299013
51
331.789948
0
ARC
8
DEFAULT_255_1_234
10
4.4759274
20
164.2479509
40
0.2824501
50
331.4255242
51
352.9364833
0
ARC
8
DEFAULT_255_1_234
10
4.4895775
20
164.2448976
40
0.2685315
50
353.2248685
51
0.0169286
0
ARC
8
DEFAULT_255_1_234
10
4.5105652
20
164.247195
40
0.2475536
50
359.4866256
51
15.9339782
0
ARC
8
DEFAULT_255_1_234
10
4.5612637
20
164.2608286
40
0.1950618
50
16.1714718
51
43.5284424
0
ARC
8
DEFAULT_255_1_234
10
4.5689946
20
164.2685573
40
0.184134
50
43.4415429
51
83.1661404
0
ARC
8
DEFAULT_255_1_234
10
4.5555864
20
164.1948771
40
0.258926
50
82.160215
51
90.1505798
0
ARC
8
DEFAULT_255_1_234
10
4.5524291
20
164.1411865
40
0.3126255
50
89.5460705
51
102.5418777
0
ARC
8
DEFAULT_255_1_234
10
4.5281377
20
164.2442665
40
0.2067346
50
102.1739365
51
129.2061916
0
ARC
8
DEFAULT_255_1_234
10
4.5202449
20
164.2567094
40
0.1921118
50
129.7279328
51
135.7542026
0
ARC
8
DEFAULT_255_1_234
10
4.5323977
20
164.2470045
40
0.2075944
50
136.175737
51
166.3674722
0
ARC
8
DEFAULT_255_1_234
10
4.6330896
20
164.2200182
40
0.3118201
50
165.9092917
51
178.8683903
0
ARC
8
DEFAULT_255_1_234
10
4.7195757
20
164.2153179
40
0.3983935
50
178.438168
51
180.0083905
0
ARC
8
DEFAULT_255_1_234
10
4.5794359
20
164.2192231
40
0.4068601
50
163.2878735
51
180.5581814
0
ARC
8
DEFAULT_255_1_234
10
4.4992621
20
164.241284
40
0.3237344
50
133.454115
51
162.9470031
0
ARC
8
DEFAULT_255_1_234
10
4.5171162
20
164.2223
40
0.349795
50
100.7869394
51
133.4384016
0
ARC
8
DEFAULT_255_1_234
10
4.5518934
20
164.0674319
40
0.5084616
50
89.6605301
51
101.3704185
0
ARC
8
DEFAULT_255_1_234
10
4.5585273
20
164.0735496
40
0.502348
50
78.2171172
51
90.4130393
0
ARC
8
DEFAULT_255_1_234
10
4.5940351
20
164.2359637
40
0.3361092
50
55.9268222
51
78.4888551
0
ARC
8
DEFAULT_255_1_234
10
4.6136791
20
164.2698324
40
0.2970617
50
47.9292255
51
55.4054003
0
ARC
8
DEFAULT_255_1_234
10
4.6238352
20
164.2801502
40
0.2825983
50
4.3347696
51
48.0560701
0
ARC
8
DEFAULT_255_1_234
10
4.5142745
20
164.2631601
40
0.393225
50
359.925209
51
5.5967654
0
ARC
8
DEFAULT_255_1_234
10
4.5571637
20
164.2687816
40
0.3503892
50
337.8914096
51
358.9967724
0
ARC
8
DEFAULT_255_1_234
10
4.2858049
20
164.3734706
40
0.6412172
50
326.9135351
51
338.3505194
0
ARC
8
DEFAULT_255_1_234
10
3.8872353
20
164.6289284
40
1.1146189
50
319.6472867
51
327.095818
0
ARC
8
DEFAULT_255_1_234
10
3.5039356
20
164.9451
40
1.6114559
50
317.2586784
51
319.9046139
0
LINE
8
DEFAULT_255_1_234
10
5.9146792
20
163.3904
11
5.803038
21
163.6956061
0
LINE
8
DEFAULT_255_1_234
10
5.803038
20
163.6956061
11
5.313102
21
163.6956061
0
LINE
8
DEFAULT_255_1_234
10
5.313102
20
163.6956061
11
5.2030672
21
163.3904
0
LINE
8
DEFAULT_255_1_234
10
5.2030672
20
163.3904
11
5.0440388
21
163.3904
0
LINE
8
DEFAULT_255_1_234
10
5.0440388
20
163.3904
11
5.4906034
21
164.5598211
0
LINE
8
DEFAULT_255_1_234
10
5.4906034
20
164.5598211
11
5.6255366
21
164.5598211
0
LINE
8
DEFAULT_255_1_234
10
5.6255366
20
164.5598211
11
6.0729044
21
163.3904
0
LINE
8
DEFAULT_255_1_234
10
6.0729044
20
163.3904
11
5.9146792
21
163.3904
0
LINE
8
DEFAULT_255_1_234
10
5.55807
20
164.3694689
11
5.3596861
21
163.8225075
0
LINE
8
DEFAULT_255_1_234
10
5.3596861
20
163.8225075
11
5.7572571
21
163.8225075
0
LINE
8
DEFAULT_255_1_234
10
5.7572571
20
163.8225075
11
5.55807
21
164.3694689
0
LINE
8
DEFAULT_255_1_234
10
4.5478137
20
172.5029433
11
4.5478137
21
171.3279
0
LINE
8
DEFAULT_255_1_234
10
4.5478137
20
171.3279
11
4.3984234
21
171.3279
0
LINE
8
DEFAULT_255_1_234
10
4.3984234
20
171.3279
11
4.3984234
21
172.3182133
0
LINE
8
DEFAULT_255_1_234
10
4.3984234
20
172.3182133
11
4.0988396
21
172.2081785
0
LINE
8
DEFAULT_255_1_234
10
4.0988396
20
172.2081785
11
4.0988396
21
172.3431117
0
LINE
8
DEFAULT_255_1_234
10
4.0988396
20
172.3431117
11
4.5245217
21
172.5029433
0
LINE
8
DEFAULT_255_1_234
10
4.5245217
20
172.5029433
11
4.5478137
21
172.5029433
0
LINE
8
DEFAULT_255_1_234
10
5.7341015
20
171.7656297
11
5.7341015
21
171.752779
0
LINE
8
DEFAULT_255_1_234
10
5.1421624
20
171.4282967
11
5.1349338
21
171.3279
0
LINE
8
DEFAULT_255_1_234
10
5.1349338
20
171.3279
11
4.9983942
21
171.3279
0
LINE
8
DEFAULT_255_1_234
10
4.9983942
20
171.3279
11
4.9983942
21
172.561575
0
LINE
8
DEFAULT_255_1_234
10
4.9983942
20
172.561575
11
5.1469814
21
172.561575
0
LINE
8
DEFAULT_255_1_234
10
5.1469814
20
172.561575
11
5.1469814
21
172.1013564
0
LINE
8
DEFAULT_255_1_234
10
5.1469814
20
171.9503597
11
5.1469814
21
171.5744744
0
ARC
8
DEFAULT_255_1_234
10
5.029429
20
171.7483573
40
0.7046863
50
349.4825105
51
0.3595108
0
ARC
8
DEFAULT_255_1_234
10
5.2571531
20
171.7045022
40
0.4727857
50
331.8602128
51
349.6704139
0
ARC
8
DEFAULT_255_1_234
10
5.3304299
20
171.6688125
40
0.3913503
50
322.8939783
51
331.4081204
0
ARC
8
DEFAULT_255_1_234
10
5.3999697
20
171.6108707
40
0.300965
50
296.7249167
51
323.7044215
0
ARC
8
DEFAULT_255_1_234
10
5.4029594
20
171.6178043
40
0.3058683
50
270.6342811
51
295.6405548
0
ARC
8
DEFAULT_255_1_234
10
5.3967904
20
171.6980995
40
0.3862632
50
269.9967524
51
271.4174733
0
ARC
8
DEFAULT_255_1_234
10
5.3929568
20
171.6845686
40
0.3727515
50
253.657532
51
270.5859025
0
ARC
8
DEFAULT_255_1_234
10
5.3698674
20
171.6002235
40
0.2853216
50
217.0543181
51
253.3409865
0
ARC
8
DEFAULT_255_1_234
10
5.3765342
20
171.9186052
40
0.2934152
50
93.1931545
51
141.4760602
0
ARC
8
DEFAULT_255_1_234
10
5.3947558
20
171.7953453
40
0.4176524
50
89.9442578
51
94.747309
0
ARC
8
DEFAULT_255_1_234
10
5.3991305
20
171.877641
40
0.3353801
50
70.6103515
51
90.6779749
0
ARC
8
DEFAULT_255_1_234
10
5.4105607
20
171.923189
40
0.2886533
50
36.1152635
51
69.7489296
0
ARC
8
DEFAULT_255_1_234
10
5.3119011
20
171.8478708
40
0.4127561
50
15.4648517
51
36.4891396
0
ARC
8
DEFAULT_255_1_234
10
5.1060697
20
171.7879524
40
0.6271187
50
3.9220813
51
15.7265815
0
ARC
8
DEFAULT_255_1_234
10
4.8701541
20
171.7667325
40
0.863948
50
359.9268643
51
4.2559037
0
ARC
8
DEFAULT_255_1_234
10
4.9515922
20
171.7727103
40
0.6339295
50
359.7230081
51
7.7115859
0
ARC
8
DEFAULT_255_1_234
10
5.1777487
20
171.8043172
40
0.4055784
50
7.5740023
51
19.4151451
0
ARC
8
DEFAULT_255_1_234
10
5.3045126
20
171.8489519
40
0.2711858
50
19.4238354
51
34.9161182
0
ARC
8
DEFAULT_255_1_234
10
5.3715864
20
171.8976172
40
0.1883373
50
34.4556322
51
84.4656458
0
ARC
8
DEFAULT_255_1_234
10
5.3587312
20
171.8221057
40
0.2647939
50
83.2727306
51
90.1114621
0
ARC
8
DEFAULT_255_1_234
10
5.3545169
20
171.8419509
40
0.2449763
50
89.1347934
51
111.4089923
0
ARC
8
DEFAULT_255_1_234
10
5.346572
20
171.8747473
40
0.2115923
50
112.6478598
51
148.9260864
0
ARC
8
DEFAULT_255_1_234
10
5.4243518
20
171.8205985
40
0.3062228
50
147.7597608
51
154.928557
0
ARC
8
DEFAULT_255_1_234
10
5.3983579
20
171.6961379
40
0.2792708
50
205.8264786
51
224.5301003
0
ARC
8
DEFAULT_255_1_234
10
5.3505883
20
171.6534914
40
0.2153317
50
225.354483
51
269.2437579
0
ARC
8
DEFAULT_255_1_234
10
5.3597518
20
171.7341292
40
0.2961942
50
267.6770046
51
270.0136612
0
ARC
8
DEFAULT_255_1_234
10
5.3624869
20
171.6582938
40
0.2203751
50
269.3072485
51
289.499141
0
ARC
8
DEFAULT_255_1_234
10
5.3696933
20
171.6286394
40
0.1900415
50
290.4353973
51
325.3766314
0
ARC
8
DEFAULT_255_1_234
10
5.3068156
20
171.6740643
40
0.2675986
50
325.0223901
51
342.692398
0
ARC
8
DEFAULT_255_1_234
10
5.1371044
20
171.7292812
40
0.446058
50
342.4062876
51
352.8669243
0
ARC
8
DEFAULT_255_1_234
10
4.8650519
20
171.7649975
40
0.7204419
50
352.7350668
51
359.8556985
0
ARC
8
DEFAULT_255_1_234
10
4.6740215
20
171.7696018
40
0.9114927
50
359.5965197
51
0.0027543
0
LINE
8
DEFAULT_255_1_234
10
4.6008137
20
180.4404433
11
4.6008137
21
179.2654
0
LINE
8
DEFAULT_255_1_234
10
4.6008137
20
179.2654
11
4.4514234
21
179.2654
0
LINE
8
DEFAULT_255_1_234
10
4.4514234
20
179.2654
11
4.4514234
21
180.2557133
0
LINE
8
DEFAULT_255_1_234
10
4.4514234
20
180.2557133
11
4.1518396
21
180.1456785
0
LINE
8
DEFAULT_255_1_234
10
4.1518396
20
180.1456785
11
4.1518396
21
180.2806117
0
LINE
8
DEFAULT_255_1_234
10
4.1518396
20
180.2806117
11
4.5775217
21
180.4404433
0
LINE
8
DEFAULT_255_1_234
10
4.5775217
20
180.4404433
11
4.6008137
21
180.4404433
0
LINE
8
DEFAULT_255_1_234
10
5.4802891
20
179.2654
11
5.0746863
21
179.2654
0
LINE
8
DEFAULT_255_1_234
10
5.0746863
20
179.2654
11
5.0746863
21
180.4348211
0
LINE
8
DEFAULT_255_1_234
10
5.0746863
20
180.4348211
11
5.456997
21
180.4348211
0
LINE
8
DEFAULT_255_1_234
10
5.4859113
20
179.8123614
11
5.2288957
21
179.8123614
0
LINE
8
DEFAULT_255_1_234
10
5.2288957
20
179.8123614
11
5.2288957
21
179.3914983
0
LINE
8
DEFAULT_255_1_234
10
5.2288957
20
179.3914983
11
5.4835018
21
179.3914983
0
LINE
8
DEFAULT_255_1_234
10
5.2288957
20
180.3079196
11
5.2288957
21
179.9360501
0
LINE
8
DEFAULT_255_1_234
10
5.2288957
20
179.9360501
11
5.4618161
21
179.9360501
0
LINE
8
DEFAULT_255_1_234
10
5.456997
20
180.3079196
11
5.2288957
21
180.3079196
0
ARC
8
DEFAULT_255_1_234
10
5.4607679
20
179.6980901
40
0.7367406
50
82.1257326
51
90.2932599
0
ARC
8
DEFAULT_255_1_234
10
5.4996634
20
179.9699013
40
0.4621653
50
69.9044149
51
82.2857423
0
ARC
8
DEFAULT_255_1_234
10
5.5567312
20
180.1241637
40
0.2976871
50
51.1838526
51
70.0181538
0
ARC
8
DEFAULT_255_1_234
10
5.5822278
20
180.161224
40
0.2528517
50
12.1017251
51
50.4214761
0
ARC
8
DEFAULT_255_1_234
10
5.4438152
20
180.1264676
40
0.3955061
50
359.5251267
51
12.8211707
0
ARC
8
DEFAULT_255_1_234
10
5.6018078
20
180.1195344
40
0.2375281
50
323.4908128
51
0.8817314
0
ARC
8
DEFAULT_255_1_234
10
5.5599765
20
180.151855
40
0.2903817
50
298.6825083
51
323.2756573
0
ARC
8
DEFAULT_255_1_234
10
5.5238128
20
180.2119649
40
0.3604842
50
293.1999386
51
299.1396394
0
ARC
8
DEFAULT_255_1_234
10
5.5911101
20
179.6034126
40
0.2871098
50
54.0011765
51
74.9167975
0
ARC
8
DEFAULT_255_1_234
10
5.602746
20
179.6231332
40
0.2643248
50
36.3580696
51
53.5291921
0
ARC
8
DEFAULT_255_1_234
10
5.5900702
20
179.6140998
40
0.2798884
50
4.8189881
51
36.3089977
0
ARC
8
DEFAULT_255_1_234
10
5.5121537
20
179.603127
40
0.358478
50
359.9370252
51
5.5204067
0
ARC
8
DEFAULT_255_1_234
10
5.4797059
20
179.5990667
40
0.3909429
50
344.7478609
51
0.5373281
0
ARC
8
DEFAULT_255_1_234
10
5.578803
20
179.5723544
40
0.2883093
50
311.1786488
51
344.6886812
0
ARC
8
DEFAULT_255_1_234
10
5.5496077
20
179.6086987
40
0.3348923
50
286.0418249
51
310.8441291
0
ARC
8
DEFAULT_255_1_234
10
5.4988909
20
179.7733807
40
0.5071869
50
274.1042341
51
286.4071509
0
ARC
8
DEFAULT_255_1_234
10
5.4812165
20
179.9617229
40
0.6963234
50
269.9236873
51
274.445647
0
ARC
8
DEFAULT_255_1_234
10
5.4858166
20
179.7277537
40
0.3362634
50
269.6055768
51
281.3740047
0
ARC
8
DEFAULT_255_1_234
10
5.5088804
20
179.6184353
40
0.224546
50
281.1055983
51
302.5132223
0
ARC
8
DEFAULT_255_1_234
10
5.5235703
20
179.5920823
40
0.1944357
50
303.0368945
51
311.8811219
0
ARC
8
DEFAULT_255_1_234
10
5.530711
20
179.583589
40
0.1833454
50
311.9916004
51
351.7143462
0
ARC
8
DEFAULT_255_1_234
10
5.449034
20
179.600093
40
0.2665871
50
350.7339597
51
0.2221581
0
ARC
8
DEFAULT_255_1_234
10
5.4382786
20
179.6057467
40
0.2773789
50
359.0456241
51
17.2296242
0
ARC
8
DEFAULT_255_1_234
10
5.5421903
20
179.6366163
40
0.1689915
50
17.6685481
51
78.9940892
0
ARC
8
DEFAULT_255_1_234
10
5.4905067
20
179.4511224
40
0.3612658
50
76.5635957
51
90.6980921
0
LINE
8
DEFAULT_255_1_234
10
5.4861051
20
179.8123613
11
5.4859113
21
179.8123614
0
ARC
8
DEFAULT_255_1_234
10
5.4640727
20
180.2646036
40
0.3285612
50
269.6064736
51
281.4533503
0
ARC
8
DEFAULT_255_1_234
10
5.4863547
20
180.1594688
40
0.2210975
50
281.2041486
51
302.5148063
0
ARC
8
DEFAULT_255_1_234
10
5.5000397
20
180.1348241
40
0.1929674
50
303.021671
51
309.8369575
0
ARC
8
DEFAULT_255_1_234
10
5.5183858
20
180.1142488
40
0.1654181
50
309.5228395
51
356.9509836
0
ARC
8
DEFAULT_255_1_234
10
5.4520441
20
180.1237932
40
0.2322512
50
355.4701227
51
0.0492546
0
ARC
8
DEFAULT_255_1_234
10
5.4241532
20
180.1260094
40
0.2601498
50
359.5558597
51
11.2096359
0
ARC
8
DEFAULT_255_1_234
10
5.5198822
20
180.145823
40
0.1623975
50
10.9182341
51
31.3230275
0
ARC
8
DEFAULT_255_1_234
10
5.5484555
20
180.1617214
40
0.1297302
50
31.8852677
51
52.1412565
0
ARC
8
DEFAULT_255_1_234
10
5.5210288
20
180.122975
40
0.1771663
50
52.8285564
51
71.9850297
0
ARC
8
DEFAULT_255_1_234
10
5.4834464
20
180.0123664
40
0.2939794
50
71.6863486
51
82.8455995
0
ARC
8
DEFAULT_255_1_234
10
5.4595
20
179.8314149
40
0.476506
50
82.6984714
51
90.1729175
0
ARC
8
DEFAULT_255_1_234
10
5.4572635
20
179.9537623
40
0.3541573
50
89.8708275
51
90.0431131
0
LINE
8
DEFAULT_255_1_234
10
4.6834137
20
188.3779433
11
4.6834137
21
187.2029
0
LINE
8
DEFAULT_255_1_234
10
4.6834137
20
187.2029
11
4.5340234
21
187.2029
0
LINE
8
DEFAULT_255_1_234
10
4.5340234
20
187.2029
11
4.5340234
21
188.1932133
0
LINE
8
DEFAULT_255_1_234
10
4.5340234
20
188.1932133
11
4.2344396
21
188.0831785
0
LINE
8
DEFAULT_255_1_234
10
4.2344396
20
188.0831785
11
4.2344396
21
188.2181117
0
LINE
8
DEFAULT_255_1_234
10
4.2344396
20
188.2181117
11
4.6601217
21
188.3779433
0
LINE
8
DEFAULT_255_1_234
10
4.6601217
20
188.3779433
11
4.6834137
21
188.3779433
0
LINE
8
DEFAULT_255_1_234
10
5.9146792
20
187.2029
11
5.803038
21
187.5081061
0
LINE
8
DEFAULT_255_1_234
10
5.803038
20
187.5081061
11
5.313102
21
187.5081061
0
LINE
8
DEFAULT_255_1_234
10
5.313102
20
187.5081061
11
5.2030672
21
187.2029
0
LINE
8
DEFAULT_255_1_234
10
5.2030672
20
187.2029
11
5.0440388
21
187.2029
0
LINE
8
DEFAULT_255_1_234
10
5.0440388
20
187.2029
11
5.4906034
21
188.3723211
0
LINE
8
DEFAULT_255_1_234
10
5.4906034
20
188.3723211
11
5.6255366
21
188.3723211
0
LINE
8
DEFAULT_255_1_234
10
5.6255366
20
188.3723211
11
6.0729044
21
187.2029
0
LINE
8
DEFAULT_255_1_234
10
6.0729044
20
187.2029
11
5.9146792
21
187.2029
0
LINE
8
DEFAULT_255_1_234
10
5.55807
20
188.1819689
11
5.3596861
21
187.6350075
0
LINE
8
DEFAULT_255_1_234
10
5.3596861
20
187.6350075
11
5.7572571
21
187.6350075
0
LINE
8
DEFAULT_255_1_234
10
5.7572571
20
187.6350075
11
5.55807
21
188.1819689
0
LINE
8
DEFAULT_255_1_234
10
23.1654817
20
195.8319327
11
23.1654817
21
195.6391709
0
LINE
8
DEFAULT_255_1_234
10
22.427365
20
195.6190916
11
22.427365
21
195.8174755
0
LINE
8
DEFAULT_255_1_234
10
23.0168946
20
195.5990123
11
23.0168946
21
195.8423739
0
LINE
8
DEFAULT_255_1_234
10
22.5759521
20
195.8536184
11
22.5759521
21
195.6158789
0
ARC
8
DEFAULT_255_1_234
10
21.9407707
20
195.6342805
40
1.2247208
50
353.8441951
51
0.2287902
0
ARC
8
DEFAULT_255_1_234
10
22.4047211
20
195.5824806
40
0.7578929
50
344.4934747
51
353.9765454
0
ARC
8
DEFAULT_255_1_234
10
22.7039801
20
195.4973981
40
0.4467846
50
329.2803592
51
344.7472793
0
ARC
8
DEFAULT_255_1_234
10
22.8032626
20
195.4429018
40
0.3336173
50
324.9352394
51
328.6160465
0
ARC
8
DEFAULT_255_1_234
10
22.8409734
20
195.4165427
40
0.2876076
50
280.580143
51
324.9173126
0
ARC
8
DEFAULT_255_1_234
10
22.8008527
20
195.5836099
40
0.4592847
50
269.5977311
51
281.6734359
0
ARC
8
DEFAULT_255_1_234
10
22.7936433
20
195.5716173
40
0.4472986
50
256.6228859
51
270.51044
0
ARC
8
DEFAULT_255_1_234
10
22.753441
20
195.4167877
40
0.2873874
50
215.8618325
51
257.2788573
0
ARC
8
DEFAULT_255_1_234
10
22.8555442
20
195.4852977
40
0.4102928
50
197.9693508
51
215.2623606
0
ARC
8
DEFAULT_255_1_234
10
23.1040558
20
195.5691709
40
0.6725652
50
187.8816417
51
198.2346507
0
ARC
8
DEFAULT_255_1_234
10
23.4998766
20
195.6263079
40
1.0724845
50
180.8976217
51
188.0055519
0
ARC
8
DEFAULT_255_1_234
10
23.7798954
20
195.6366777
40
1.3526448
50
180.7449369
51
181.1510016
0
ARC
8
DEFAULT_255_1_234
10
23.6221683
20
195.8223042
40
1.1948131
50
173.7675579
51
180.231553
0
ARC
8
DEFAULT_255_1_234
10
23.170383
20
195.8733666
40
0.7401564
50
164.3058563
51
173.9002247
0
ARC
8
DEFAULT_255_1_234
10
22.8791899
20
195.9572656
40
0.4371288
50
148.7922025
51
164.568378
0
ARC
8
DEFAULT_255_1_234
10
22.7840351
20
196.0103929
40
0.3282386
50
144.5883898
51
148.1176286
0
ARC
8
DEFAULT_255_1_234
10
22.7497249
20
196.0343315
40
0.2864044
50
101.6440918
51
144.514236
0
ARC
8
DEFAULT_255_1_234
10
22.7922315
20
195.8654069
40
0.4604934
50
89.5284041
51
102.5819763
0
ARC
8
DEFAULT_255_1_234
10
22.8001403
20
195.8615018
40
0.464401
50
77.0437873
51
90.5081339
0
ARC
8
DEFAULT_255_1_234
10
22.8403405
20
196.0257615
40
0.2953195
50
48.2778575
51
77.4994676
0
ARC
8
DEFAULT_255_1_234
10
22.8476036
20
196.0386746
40
0.2808655
50
36.3142134
51
47.6305865
0
ARC
8
DEFAULT_255_1_234
10
22.7607343
20
195.9801515
40
0.3855453
50
18.2931786
51
35.6769206
0
ARC
8
DEFAULT_255_1_234
10
22.5064102
20
195.8928593
40
0.654423
50
8.024666
51
18.5605216
0
ARC
8
DEFAULT_255_1_234
10
22.0901022
20
195.8313792
40
1.0752407
50
1.1274072
51
8.1718305
0
ARC
8
DEFAULT_255_1_234
10
21.7665213
20
195.8186885
40
1.3990231
50
0.5424119
51
1.3863029
0
ARC
8
DEFAULT_255_1_234
10
21.948659
20
195.8459342
40
1.0682415
50
359.8090433
51
4.9407866
0
ARC
8
DEFAULT_255_1_234
10
22.3696604
20
195.8835113
40
0.6455691
50
4.8362157
51
12.2904523
0
ARC
8
DEFAULT_255_1_234
10
22.6451719
20
195.9448965
40
0.3633074
50
12.0805627
51
23.8173984
0
ARC
8
DEFAULT_255_1_234
10
22.7625425
20
195.9945919
40
0.2358723
50
24.2871213
51
31.3935614
0
ARC
8
DEFAULT_255_1_234
10
22.8150122
20
196.0289233
40
0.1732111
50
30.7407893
51
82.4657128
0
ARC
8
DEFAULT_255_1_234
10
22.7970256
20
195.9405691
40
0.263235
50
81.1060089
51
90.2184952
0
ARC
8
DEFAULT_255_1_234
10
22.7934555
20
195.9663924
40
0.2374236
50
89.3806855
51
105.6762551
0
ARC
8
DEFAULT_255_1_234
10
22.7751186
20
196.0330567
40
0.1682847
50
105.7981136
51
149.7388061
0
ARC
8
DEFAULT_255_1_234
10
22.8815264
20
195.969095
40
0.2924306
50
149.4208916
51
163.6286378
0
ARC
8
DEFAULT_255_1_234
10
23.0906152
20
195.905325
40
0.5110213
50
163.3763315
51
172.1410975
0
ARC
8
DEFAULT_255_1_234
10
23.4206871
20
195.8580518
40
0.8444586
50
172.0259487
51
178.0703232
0
ARC
8
DEFAULT_255_1_234
10
23.723696
20
195.8436906
40
1.1477868
50
177.8631668
51
179.5044149
0
ARC
8
DEFAULT_255_1_234
10
23.6164365
20
195.6122389
40
1.0404907
50
179.7995573
51
185.2460446
0
ARC
8
DEFAULT_255_1_234
10
23.2121404
20
195.5739513
40
0.6343885
50
185.1411642
51
193.0079639
0
ARC
8
DEFAULT_255_1_234
10
22.9477877
20
195.5114641
40
0.3627568
50
192.7897626
51
205.2507664
0
ARC
8
DEFAULT_255_1_234
10
22.8431424
20
195.4647415
40
0.2481908
50
205.8005384
51
211.2537509
0
ARC
8
DEFAULT_255_1_234
10
22.7907864
20
195.429658
40
0.1852521
50
210.3789793
51
238.4008143
0
ARC
8
DEFAULT_255_1_234
10
22.7888386
20
195.4343376
40
0.1882621
50
239.6520629
51
265.9793761
0
ARC
8
DEFAULT_255_1_234
10
22.7973586
20
195.5015427
40
0.2559272
50
265.1315437
51
270.060332
0
ARC
8
DEFAULT_255_1_234
10
22.8002365
20
195.4691534
40
0.2235528
50
269.3314664
51
287.2178029
0
ARC
8
DEFAULT_255_1_234
10
22.8140217
20
195.4188279
40
0.1714108
50
287.7958004
51
329.080874
0
ARC
8
DEFAULT_255_1_234
10
22.7182674
20
195.478593
40
0.2842745
50
328.6634704
51
343.3325132
0
ARC
8
DEFAULT_255_1_234
10
22.5009694
20
195.5462863
40
0.5118644
50
343.0499468
51
351.9393422
0
ARC
8
DEFAULT_255_1_234
10
22.1542994
20
195.5973949
40
0.8622784
50
351.8069023
51
357.7959224
0
ARC
8
DEFAULT_255_1_234
10
21.830755
20
195.6141721
40
1.1862365
50
357.5871873
51
359.2677531
0
LINE
8
DEFAULT_255_1_234
10
23.4490021
20
196.3098211
11
23.7815161
21
195.3452093
0
LINE
8
DEFAULT_255_1_234
10
23.7815161
20
195.3452093
11
24.1156364
21
196.3098211
0
LINE
8
DEFAULT_255_1_234
10
24.1156364
20
196.3098211
11
24.2843029
21
196.3098211
0
LINE
8
DEFAULT_255_1_234
10
24.2843029
20
196.3098211
11
23.850589
21
195.1404
0
LINE
8
DEFAULT_255_1_234
10
23.850589
20
195.1404
11
23.7140495
21
195.1404
0
LINE
8
DEFAULT_255_1_234
10
23.7140495
20
195.1404
11
23.2811388
21
196.3098211
0
LINE
8
DEFAULT_255_1_234
10
23.2811388
20
196.3098211
11
23.4490021
21
196.3098211
0
ENDSEC
0
EOF