0
SECTION
2
HEADER
9
$MEASUREMENT
70
1
0
ENDSEC
0
SECTION
2
TABLES
0
TABLE
2
LTYPE
0
LTYPE
72
65
70
64
2
CONTINUOUS
3
______
73
0
40
0
0
ENDTAB
0
TABLE
2
LAYER
0
LAYER
2
DEFAULT_255_2_778
70
0
62
255
6
CONTINUOUS
0
LAYER
2
DEFAULT_255_2_778_1
70
0
62
255
6
CONTINUOUS
0
LAYER
2
DEFAULT_255_1_388
70
0
62
255
6
CONTINUOUS
0
ENDTAB
0
ENDSEC
0
SECTION
2
ENTITIES
0
ARC
8
DEFAULT_255_2_778
10
3.5700693
20
202.8052013
40
0.7914215
50
129.1312896
51
180.1450914
0
ARC
8
DEFAULT_255_2_778
10
3.5703345
20
202.8056884
40
0.7912112
50
89.854026
51
129.1684493
0
ARC
8
DEFAULT_255_2_778
10
25.7993937
20
202.8053749
40
0.7915249
50
39.4792447
51
90.147911
0
ARC
8
DEFAULT_255_2_778
10
25.7999935
20
202.8052216
40
0.7911595
50
359.8533901
51
39.5154338
0
ARC
8
DEFAULT_255_2_778
10
25.7996693
20
-1.986351
40
0.7914836
50
309.4761667
51
0.1482649
0
ARC
8
DEFAULT_255_2_778
10
25.799398
20
-1.9867821
40
0.7913235
50
269.8517415
51
309.511178
0
ARC
8
DEFAULT_255_2_778
10
3.570342
20
-1.9867239
40
0.7913815
50
219.1282118
51
270.1454017
0
ARC
8
DEFAULT_255_2_778
10
3.5700247
20
-1.9863414
40
0.7913769
50
179.8524075
51
219.1641908
0
LINE
8
DEFAULT_255_2_778
10
3.5723503
20
203.5968971
11
25.7973503
21
203.5968971
0
LINE
8
DEFAULT_255_2_778
10
26.5911503
20
202.8031971
11
26.5911503
21
-1.9843029
0
LINE
8
DEFAULT_255_2_778
10
25.7973503
20
-2.7781029
11
3.5723503
21
-2.7781029
0
LINE
8
DEFAULT_255_2_778
10
2.7786503
20
-1.9843029
11
2.7786503
21
202.8031971
0
ARC
8
DEFAULT_255_2_778
10
15.2718323
20
201.361689
40
0.3782009
50
0.4397807
51
91.3045231
0
ARC
8
DEFAULT_255_2_778
10
15.2696879
20
201.3594064
40
0.3803695
50
269.0259909
51
0.7811192
0
ARC
8
DEFAULT_255_2_778
10
15.4288293
20
201.3469643
40
0.7639615
50
290.7362057
51
357.8000295
0
ARC
8
DEFAULT_255_2_778
10
15.3436031
20
201.3645235
40
0.8499188
50
356.8376875
51
0.0046095
0
ARC
8
DEFAULT_255_2_778
10
15.3422443
20
201.3645748
40
0.8512778
50
0.0011515
51
85.3589632
0
ARC
8
DEFAULT_255_2_778
10
15.3422371
20
201.3455092
40
0.8702827
50
85.4600549
51
90.0075769
0
ARC
8
DEFAULT_255_2_778
10
20.173385
20
201.3552426
40
0.3845507
50
1.3931151
51
90.158378
0
ARC
8
DEFAULT_255_2_778
10
20.2329096
20
201.3488635
40
0.8684198
50
359.7643557
51
42.1181505
0
ARC
8
DEFAULT_255_2_778
10
20.2353156
20
201.3492931
40
0.866348
50
42.2037872
51
87.9292218
0
ARC
8
DEFAULT_255_2_778
10
20.2305626
20
201.3080097
40
0.9077821
50
87.7235759
51
90.0025578
0
ARC
8
DEFAULT_255_2_778
10
12.9264947
20
201.3621344
40
0.3777354
50
0.3727528
51
91.1638813
0
ARC
8
DEFAULT_255_2_778
10
12.9805692
20
201.3488595
40
0.8684602
50
359.7646302
51
42.1161032
0
ARC
8
DEFAULT_255_2_778
10
12.9830774
20
201.3494127
40
0.8662296
50
42.2002176
51
87.9268901
0
ARC
8
DEFAULT_255_2_778
10
12.9783626
20
201.3083749
40
0.9074169
50
87.7231194
51
90.002558
0
ARC
8
DEFAULT_255_2_778
10
17.559042
20
200.9570858
40
1.2841942
50
233.3100129
51
270.0348017
0
ARC
8
DEFAULT_255_2_778
10
17.5711133
20
200.9774622
40
1.3077482
50
187.7860459
51
233.4193197
0
ARC
8
DEFAULT_255_2_778
10
17.5893588
20
200.9790185
40
1.3260368
50
179.9838663
51
187.7458681
0
ARC
8
DEFAULT_255_2_778
10
17.5478523
20
200.9796375
40
1.2845303
50
143.7084173
51
180.0109545
0
ARC
8
DEFAULT_255_2_778
10
17.5629238
20
200.9745899
40
1.2996747
50
94.9692901
51
143.9223324
0
ARC
8
DEFAULT_255_2_778
10
17.5597032
20
200.9752347
40
1.2987573
50
89.9947559
51
94.8302073
0
ARC
8
DEFAULT_255_2_778
10
17.5619339
20
200.9694304
40
1.3045632
50
58.1407344
51
90.0927508
0
ARC
8
DEFAULT_255_2_778
10
17.5700831
20
200.9750662
40
1.2954809
50
3.5056409
51
58.315291
0
ARC
8
DEFAULT_255_2_778
10
17.5711163
20
200.9791563
40
1.2942058
50
359.9971467
51
3.3277024
0
ARC
8
DEFAULT_255_2_778
10
17.3826088
20
200.9770483
40
1.4827147
50
0.006083
51
0.0789681
0
ARC
8
DEFAULT_255_2_778
10
17.5604187
20
200.9772022
40
1.3049047
50
315.0308293
51
0.0001529
0
ARC
8
DEFAULT_255_2_778
10
17.5609377
20
200.9769521
40
1.3043608
50
270.000667
51
315.0224921
0
LINE
8
DEFAULT_255_2_778
10
17.5609529
20
199.6725914
11
17.5598221
21
199.6725919
0
ARC
8
DEFAULT_255_2_778
10
17.5640812
20
200.9754112
40
0.7580313
50
269.6780691
51
315.5292436
0
ARC
8
DEFAULT_255_2_778
10
17.5610107
20
200.9746878
40
0.7597205
50
315.7303962
51
0.2857903
0
ARC
8
DEFAULT_255_2_778
10
17.8487376
20
200.9789382
40
0.4719845
50
359.944048
51
0.0186519
0
ARC
8
DEFAULT_255_2_778
10
17.5687772
20
200.9779605
40
0.7519457
50
0.086204
51
85.4319233
0
ARC
8
DEFAULT_255_2_778
10
17.5599609
20
200.9355338
40
0.7949581
50
85.0420495
51
90.0100075
0
ARC
8
DEFAULT_255_2_778
10
17.5579396
20
200.9922519
40
0.7382424
50
89.8538973
51
89.9999976
0
ARC
8
DEFAULT_255_2_778
10
17.558077
20
200.9793044
40
0.7511899
50
90.01048
51
134.9443097
0
ARC
8
DEFAULT_255_2_778
10
17.5582947
20
200.9791222
40
0.7514726
50
134.9462486
51
180.0023145
0
ARC
8
DEFAULT_255_2_778
10
17.5708624
20
200.9751875
40
0.7640503
50
179.7072119
51
222.5790813
0
ARC
8
DEFAULT_255_2_778
10
17.5579296
20
200.9641475
40
0.7470579
50
222.6267201
51
270.1451401
0
ARC
8
DEFAULT_255_2_778
10
9.564442
20
200.9570858
40
1.2841942
50
233.3100129
51
270.0348017
0
ARC
8
DEFAULT_255_2_778
10
9.5765133
20
200.9774622
40
1.3077482
50
187.7860459
51
233.4193197
0
ARC
8
DEFAULT_255_2_778
10
9.5947588
20
200.9790185
40
1.3260368
50
179.9838663
51
187.7458681
0
ARC
8
DEFAULT_255_2_778
10
9.5535129
20
200.9794961
40
1.2847909
50
143.1940819
51
180.0046489
0
ARC
8
DEFAULT_255_2_778
10
9.5683078
20
200.9748006
40
1.2994598
50
94.9233187
51
143.4191345
0
ARC
8
DEFAULT_255_2_778
10
9.5651008
20
200.975512
40
1.2984798
50
89.9946509
51
94.7850278
0
ARC
8
DEFAULT_255_2_778
10
9.5673902
20
200.9693441
40
1.3046496
50
58.1428905
51
90.0952196
0
ARC
8
DEFAULT_255_2_778
10
9.5758177
20
200.9754453
40
1.2950254
50
3.2656058
51
58.3171105
0
ARC
8
DEFAULT_255_2_778
10
9.5763693
20
200.9794485
40
1.2942527
50
359.997494
51
3.0900664
0
ARC
8
DEFAULT_255_2_778
10
9.5936718
20
200.9772448
40
1.276952
50
359.9949307
51
0.0963391
0
ARC
8
DEFAULT_255_2_778
10
9.5663093
20
200.9772585
40
1.3043147
50
315.0200668
51
359.994431
0
ARC
8
DEFAULT_255_2_778
10
9.5663338
20
200.97702
40
1.3041287
50
270.0008363
51
315.026719
0
LINE
8
DEFAULT_255_2_778
10
9.5663529
20
199.6728914
11
9.5652221
21
199.6728919
0
ARC
8
DEFAULT_255_2_778
10
9.5694412
20
200.9754135
40
0.7580334
50
269.6810953
51
315.6152252
0
ARC
8
DEFAULT_255_2_778
10
9.5663839
20
200.9747381
40
0.7597504
50
315.8129036
51
0.3254485
0
ARC
8
DEFAULT_255_2_778
10
9.5738176
20
200.9776565
40
0.7523058
50
0.1093155
51
85.7820321
0
ARC
8
DEFAULT_255_2_778
10
9.5653381
20
200.9361263
40
0.7943655
50
85.3923987
51
90.0083732
0
ARC
8
DEFAULT_255_2_778
10
9.5633385
20
200.9913348
40
0.7391595
50
89.8539942
51
89.9999859
0
ARC
8
DEFAULT_255_2_778
10
9.563405
20
200.9794783
40
0.7510159
50
90.0050654
51
134.9497993
0
ARC
8
DEFAULT_255_2_778
10
9.5632746
20
200.9792963
40
0.7510526
50
134.9329452
51
180.0155944
0
ARC
8
DEFAULT_255_2_778
10
9.5762945
20
200.9751612
40
0.7640826
50
179.7052536
51
222.5741919
0
ARC
8
DEFAULT_255_2_778
10
9.5632805
20
200.9641163
40
0.7470269
50
222.6256588
51
270.1489141
0
LINE
8
DEFAULT_255_2_778
10
14.0768221
20
202.1951919
11
14.0768221
21
199.7323919
0
LINE
8
DEFAULT_255_2_778
10
14.0768221
20
199.7323919
11
14.6203221
21
199.7323919
0
LINE
8
DEFAULT_255_2_778
10
14.6203221
20
199.7323919
11
14.6203221
21
201.7397919
0
LINE
8
DEFAULT_255_2_778
10
14.6203221
20
201.7397919
11
15.2632221
21
201.7397919
0
LINE
8
DEFAULT_255_2_778
10
15.2632221
20
200.9790919
11
14.7986221
21
200.9790919
0
LINE
8
DEFAULT_255_2_778
10
14.7986221
20
200.9790919
11
15.6397221
21
199.7320919
0
LINE
8
DEFAULT_255_2_778
10
15.6397221
20
199.7320919
11
16.3126221
21
199.7320919
0
LINE
8
DEFAULT_255_2_778
10
16.3126221
20
199.7320919
11
15.6993221
21
200.6324919
0
LINE
8
DEFAULT_255_2_778
10
15.3421221
20
202.2157919
11
14.6200221
21
202.2157919
0
LINE
8
DEFAULT_255_2_778
10
14.6200221
20
202.2157919
11
14.0766221
21
202.1951919
0
LINE
8
DEFAULT_255_2_778
10
14.0766221
20
202.1951919
11
14.0768221
21
202.1951919
0
LINE
8
DEFAULT_255_2_778
10
19.0142221
20
202.1951919
11
19.0142221
21
199.7323919
0
LINE
8
DEFAULT_255_2_778
10
19.0142221
20
199.7323919
11
19.5577221
21
199.7323919
0
LINE
8
DEFAULT_255_2_778
10
19.5577221
20
199.7323919
11
19.5577221
21
201.7397919
0
LINE
8
DEFAULT_255_2_778
10
19.5577221
20
201.7397919
11
20.1723221
21
201.7397919
0
LINE
8
DEFAULT_255_2_778
10
20.5578221
20
201.3645919
11
20.5578221
21
199.7323919
0
LINE
8
DEFAULT_255_2_778
10
20.5578221
20
199.7323919
11
21.1013221
21
199.7323919
0
LINE
8
DEFAULT_255_2_778
10
21.1013221
20
199.7323919
11
21.1013221
21
201.3452919
0
LINE
8
DEFAULT_255_2_778
10
20.2305221
20
202.2157919
11
19.5577221
21
202.2157919
0
LINE
8
DEFAULT_255_2_778
10
19.5577221
20
202.2157919
11
19.0142221
21
202.1951919
0
LINE
8
DEFAULT_255_2_778
10
19.0142221
20
202.1951919
11
19.0142221
21
202.1951919
0
LINE
8
DEFAULT_255_2_778
10
11.0196221
20
202.1951919
11
11.0196221
21
199.7323919
0
LINE
8
DEFAULT_255_2_778
10
11.0196221
20
199.7323919
11
11.5628221
21
199.7323919
0
LINE
8
DEFAULT_255_2_778
10
11.5628221
20
199.7323919
11
11.5628221
21
201.7397919
0
LINE
8
DEFAULT_255_2_778
10
11.5628221
20
201.7397919
11
12.1671221
21
201.7397919
0
LINE
8
DEFAULT_255_2_778
10
12.1671221
20
201.7397919
11
12.1671221
21
199.7323919
0
LINE
8
DEFAULT_255_2_778
10
12.1671221
20
199.7323919
11
12.7105221
21
199.7323919
0
LINE
8
DEFAULT_255_2_778
10
12.7105221
20
199.7323919
11
12.7105221
21
201.7397919
0
LINE
8
DEFAULT_255_2_778
10
12.7105221
20
201.7397919
11
12.9188221
21
201.7397919
0
LINE
8
DEFAULT_255_2_778
10
13.3042221
20
201.3645919
11
13.3042221
21
199.7323919
0
LINE
8
DEFAULT_255_2_778
10
13.3042221
20
199.7323919
11
13.8490221
21
199.7323919
0
LINE
8
DEFAULT_255_2_778
10
13.8490221
20
199.7323919
11
13.8490221
21
201.3452919
0
LINE
8
DEFAULT_255_2_778
10
12.9783221
20
202.2157919
11
11.5731221
21
202.2157919
0
LINE
8
DEFAULT_255_2_778
10
11.5731221
20
202.2157919
11
11.0193221
21
202.1951919
0
LINE
8
DEFAULT_255_2_778
10
11.0193221
20
202.1951919
11
11.0196221
21
202.1951919
0
LINE
8
DEFAULT_255_2_778
10
17.5598221
20
199.6725919
11
17.5598221
21
199.6728919
0
LINE
8
DEFAULT_255_2_778
10
9.5652221
20
199.6728919
11
9.5652221
21
199.6728919
0
LINE
8
DEFAULT_255_2_778
10
10.7161417
20
93.7947475
11
10.7161417
21
5.1593475
0
LINE
8
DEFAULT_255_2_778
10
10.7161417
20
5.1593475
11
9.3932417
21
5.1593475
0
LINE
8
DEFAULT_255_2_778
10
9.3932417
20
187.7218475
11
10.7161417
21
187.7218475
0
LINE
8
DEFAULT_255_2_778
10
10.7161417
20
187.7218475
11
10.7161417
21
99.0864475
0
LINE
8
DEFAULT_255_2_778
10
9.3932834
20
99.0864333
11
12.0390834
21
99.0864333
0
LINE
8
DEFAULT_255_2_778
10
12.0390834
20
99.0864333
11
12.0390834
21
93.7947333
0
LINE
8
DEFAULT_255_2_778
10
12.0390834
20
93.7947333
11
9.3932834
21
93.7947333
0
LINE
8
DEFAULT_255_2_778
10
9.3932834
20
93.7947333
11
9.3932834
21
99.0864333
0
ARC
8
DEFAULT_255_2_778_1
10
13.1928591
20
93.897177
40
4.816461
50
120.9442904
51
122.351755
0
ARC
8
DEFAULT_255_2_778_1
10
12.7462523
20
94.6008039
40
3.9830657
50
122.3407904
51
124.1946752
0
ARC
8
DEFAULT_255_2_778_1
10
12.3063464
20
95.2473306
40
3.2010724
50
124.1855758
51
126.4338849
0
ARC
8
DEFAULT_255_2_778_1
10
11.9204129
20
95.7700611
40
2.5513094
50
126.4326926
51
128.8877368
0
ARC
8
DEFAULT_255_2_778_1
10
11.5855968
20
96.1844658
40
2.0185498
50
128.8749205
51
131.8726567
0
ARC
8
DEFAULT_255_2_778_1
10
11.2884677
20
96.5154854
40
1.5737356
50
131.8616166
51
135.4168838
0
ARC
8
DEFAULT_255_2_778_1
10
11.025668
20
96.7736765
40
1.2053256
50
135.3893975
51
139.9687014
0
ARC
8
DEFAULT_255_2_778_1
10
10.7927889
20
96.9685102
40
0.9016937
50
139.9301659
51
145.9260426
0
ARC
8
DEFAULT_255_2_778_1
10
10.596654
20
97.1005104
40
0.6652776
50
145.8787362
51
153.8146208
0
ARC
8
DEFAULT_255_2_778_1
10
10.4445553
20
97.1748797
40
0.4959714
50
153.770634
51
164.3484794
0
ARC
8
DEFAULT_255_2_778_1
10
10.3432387
20
97.2030786
40
0.3908039
50
164.3220276
51
179.8083066
0
ARC
8
DEFAULT_255_2_778_1
10
10.3642789
20
97.211215
40
0.4118985
50
180.9499449
51
213.8111542
0
ARC
8
DEFAULT_255_2_778_1
10
10.6401828
20
97.3807896
40
0.73561
50
212.8271214
51
224.258472
0
ARC
8
DEFAULT_255_2_778_1
10
11.0230335
20
97.7501236
40
1.267567
50
224.1376218
51
231.4508261
0
ARC
8
DEFAULT_255_2_778_1
10
11.6657195
20
98.5531168
40
2.2960809
50
231.3955893
51
236.1256478
0
ARC
8
DEFAULT_255_2_778_1
10
13.4980223
20
101.2996293
40
5.5976905
50
236.2233172
51
239.1314682
0
ARC
8
DEFAULT_255_2_778_1
10
25.447927
20
121.0273568
40
28.6623793
50
238.8606853
51
239.0711101
0
ARC
8
DEFAULT_255_2_778_1
10
6.2757281
20
88.9302653
40
8.7248518
50
57.2420924
51
59.4062964
0
ARC
8
DEFAULT_255_2_778_1
10
9.5034241
20
93.9612102
40
2.747542
50
52.8289294
51
57.079028
0
ARC
8
DEFAULT_255_2_778_1
10
10.2780783
20
94.9815488
40
1.466457
50
46.3041868
51
52.8596521
0
ARC
8
DEFAULT_255_2_778_1
10
10.7103073
20
95.4316842
40
0.8424061
50
36.2174211
51
46.4090895
0
ARC
8
DEFAULT_255_2_778_1
10
10.9948088
20
95.6365128
40
0.4918609
50
17.400375
51
36.5489745
0
ARC
8
DEFAULT_255_2_778_1
10
11.1088994
20
95.6763754
40
0.3710912
50
0.0676858
51
16.7951297
0
ARC
8
DEFAULT_255_2_778_1
10
11.0878613
20
95.6782428
40
0.3921317
50
343.8035191
51
359.7912046
0
ARC
8
DEFAULT_255_2_778_1
10
10.9815912
20
95.7087167
40
0.5026844
50
333.2506233
51
343.8465691
0
ARC
8
DEFAULT_255_2_778_1
10
10.8277757
20
95.7854313
40
0.6745679
50
325.6600948
51
333.3122657
0
ARC
8
DEFAULT_255_2_778_1
10
10.6323344
20
95.9182296
40
0.9108568
50
319.7560915
51
325.6976089
0
ARC
8
DEFAULT_255_2_778_1
10
10.404199
20
96.1100002
40
1.2088854
50
315.4577584
51
319.8037947
0
ARC
8
DEFAULT_255_2_778_1
10
10.1408127
20
96.3688507
40
1.5781764
50
311.7298824
51
315.4670864
0
ARC
8
DEFAULT_255_2_778_1
10
9.8317879
20
96.7144074
40
2.0417554
50
308.723055
51
311.7470879
0
ARC
8
DEFAULT_255_2_778_1
10
9.477589
20
97.1556492
40
2.6075745
50
306.1165163
51
308.7300151
0
ARC
8
DEFAULT_255_2_778_1
10
9.0746091
20
97.7069523
40
3.2904564
50
303.9559446
51
306.1266333
0
ARC
8
DEFAULT_255_2_778_1
10
8.6630432
20
98.316215
40
4.0257023
50
302.3733397
51
303.9712246
0
ARC
8
DEFAULT_255_2_778_1
10
8.2434347
20
98.9777058
40
4.8090549
50
300.9434827
51
302.3758078
0
LINE
8
DEFAULT_255_1_388
10
9.673632
20
-0.2223532
11
9.8480199
21
-0.2223532
0
LINE
8
DEFAULT_255_1_388
10
8.8351242
20
-0.0434475
11
8.8351242
21
0.0830516
0
LINE
8
DEFAULT_255_1_388
10
9.8480199
20
0.2529217
11
9.673632
21
0.2529217
0
LINE
8
DEFAULT_255_1_388
10
9.0095121
20
0.0785337
11
9.0095121
21
-0.0488688
0
ARC
8
DEFAULT_255_1_388
10
9.2314433
20
-0.1551671
40
0.6202263
50
340.1774904
51
353.7812217
0
ARC
8
DEFAULT_255_1_388
10
9.4082286
20
-0.2210107
40
0.4315926
50
311.4560052
51
340.4420756
0
ARC
8
DEFAULT_255_1_388
10
9.4044826
20
-0.2085335
40
0.4434573
50
282.4332229
51
310.7514507
0
ARC
8
DEFAULT_255_1_388
10
9.3550644
20
-0.0043297
40
0.6535262
50
269.9358869
51
282.8096729
0
ARC
8
DEFAULT_255_1_388
10
9.3492583
20
0.1469329
40
0.8048043
50
269.9995752
51
270.3612856
0
ARC
8
DEFAULT_255_1_388
10
9.3433073
20
-0.1329219
40
0.5249831
50
250.7885263
51
270.6488451
0
ARC
8
DEFAULT_255_1_388
10
9.3243898
20
-0.2046147
40
0.4510942
50
219.3628377
51
250.0611024
0
ARC
8
DEFAULT_255_1_388
10
9.4176772
20
-0.1253347
40
0.5735046
50
193.5480293
51
219.5755675
0
ARC
8
DEFAULT_255_1_388
10
9.6844981
20
-0.056048
40
0.849146
50
181.1220183
51
193.8754971
0
ARC
8
DEFAULT_255_1_388
10
9.9168214
20
-0.0436086
40
1.0816971
50
179.9914644
51
181.5398227
0
ARC
8
DEFAULT_255_1_388
10
9.7091525
20
0.0872586
40
0.8740384
50
169.5837606
51
180.275782
0
ARC
8
DEFAULT_255_1_388
10
9.5024873
20
0.1254439
40
0.6638751
50
155.0367033
51
169.6002779
0
ARC
8
DEFAULT_255_1_388
10
9.3747331
20
0.1870336
40
0.5220662
50
136.7831557
51
155.2472983
0
ARC
8
DEFAULT_255_1_388
10
9.3309122
20
0.2242577
40
0.4646502
50
121.7633063
51
136.4281161
0
ARC
8
DEFAULT_255_1_388
10
9.3460962
20
0.1962049
40
0.4964979
50
95.6460018
51
121.5489589
0
ARC
8
DEFAULT_255_1_388
10
9.3637936
20
0.0714704
40
0.6223912
50
89.9245727
51
96.1375919
0
ARC
8
DEFAULT_255_1_388
10
9.3694641
20
0.0848721
40
0.6090084
50
76.6779212
51
90.456405
0
ARC
8
DEFAULT_255_1_388
10
9.4137454
20
0.263806
40
0.42469
50
47.4858803
51
76.9287069
0
ARC
8
DEFAULT_255_1_388
10
9.3972068
20
0.2525623
40
0.4441778
50
16.5424081
51
46.8934505
0
ARC
8
DEFAULT_255_1_388
10
9.2163118
20
0.1931265
40
0.6345318
50
5.4072971
51
17.0363711
0
ARC
8
DEFAULT_255_1_388
10
9.0544843
20
0.1671304
40
0.6250632
50
7.8888693
51
15.9242022
0
ARC
8
DEFAULT_255_1_388
10
9.2779828
20
0.2320309
40
0.3923364
50
15.7650676
51
27.9410069
0
ARC
8
DEFAULT_255_1_388
10
9.4021997
20
0.2985317
40
0.2514401
50
27.8167196
51
46.4007942
0
ARC
8
DEFAULT_255_1_388
10
9.4077839
20
0.2978882
40
0.2480958
50
47.4372362
51
75.0695672
0
ARC
8
DEFAULT_255_1_388
10
9.3730675
20
0.1770277
40
0.3738281
50
74.7009379
51
87.8124314
0
ARC
8
DEFAULT_255_1_388
10
9.3648292
20
0.0586659
40
0.4924321
50
87.3802571
51
90.0251599
0
ARC
8
DEFAULT_255_1_388
10
9.3604939
20
0.1906997
40
0.3604218
50
89.3451886
51
108.5744412
0
ARC
8
DEFAULT_255_1_388
10
9.3450931
20
0.2484836
40
0.3007661
50
109.2998307
51
143.3037387
0
ARC
8
DEFAULT_255_1_388
10
9.4308221
20
0.1825584
40
0.4089031
50
143.075267
51
163.1918576
0
ARC
8
DEFAULT_255_1_388
10
9.6504055
20
0.1132652
40
0.6391492
50
162.9375929
51
174.6208776
0
ARC
8
DEFAULT_255_1_388
10
9.9458437
20
0.0808711
40
0.9363344
50
174.342123
51
180.1430283
0
ARC
8
DEFAULT_255_1_388
10
9.8410978
20
-0.0534883
40
0.8315986
50
179.6817261
51
189.150555
0
ARC
8
DEFAULT_255_1_388
10
9.5597727
20
-0.1003441
40
0.5464044
50
188.9911061
51
203.5772363
0
ARC
8
DEFAULT_255_1_388
10
9.4383019
20
-0.1507461
40
0.4149206
50
203.9075402
51
215.1312435
0
ARC
8
DEFAULT_255_1_388
10
9.3344817
20
-0.2312093
40
0.2837747
50
213.9071511
51
263.8848919
0
ARC
8
DEFAULT_255_1_388
10
9.348581
20
-0.1429481
40
0.3730641
50
263.1757928
51
270.1031044
0
ARC
8
DEFAULT_255_1_388
10
9.352189
20
-0.0026489
40
0.5133712
50
269.6722503
51
279.0606936
0
ARC
8
DEFAULT_255_1_388
10
9.3822045
20
-0.184085
40
0.3294739
50
278.8749101
51
293.6349581
0
ARC
8
DEFAULT_255_1_388
10
9.4182249
20
-0.2686749
40
0.2375405
50
293.8553806
51
310.0518171
0
ARC
8
DEFAULT_255_1_388
10
9.4187758
20
-0.2756979
40
0.2318463
50
311.0644687
51
332.0111037
0
ARC
8
DEFAULT_255_1_388
10
9.2846431
20
-0.2017298
40
0.3850112
50
331.6586806
51
343.2877423
0
ARC
8
DEFAULT_255_1_388
10
9.0525896
20
-0.1304194
40
0.6277712
50
343.1446576
51
351.0103568
0
ARC
8
DEFAULT_255_1_388
10
8.889322
20
-0.1004127
40
0.7937327
50
350.71248
51
351.1626997
0
LINE
8
DEFAULT_255_1_388
10
10.9575971
20
0.2953892
11
10.7832091
21
0.2953892
0
LINE
8
DEFAULT_255_1_388
10
10.0043366
20
-0.2584958
11
10.1787245
21
-0.2584958
0
ARC
8
DEFAULT_255_1_388
10
10.8572818
20
1.3017821
40
1.4087688
50
248.9196578
51
254.1442424
0
ARC
8
DEFAULT_255_1_388
10
10.6682699
20
0.8151805
40
0.8867498
50
241.6337352
51
249.0064643
0
ARC
8
DEFAULT_255_1_388
10
10.4963012
20
0.5000764
40
0.5277799
50
230.4982261
51
241.8087583
0
ARC
8
DEFAULT_255_1_388
10
10.4080783
20
0.3876686
40
0.3849419
50
227.4062979
51
229.9877433
0
ARC
8
DEFAULT_255_1_388
10
10.3532129
20
0.3341155
40
0.3084129
50
200.6782127
51
228.1765252
0
ARC
8
DEFAULT_255_1_388
10
10.3613498
20
0.3324277
40
0.315461
50
179.506278
51
199.8695278
0
ARC
8
DEFAULT_255_1_388
10
10.3603087
20
0.3407671
40
0.3144584
50
132.4834401
51
181.0242352
0
ARC
8
DEFAULT_255_1_388
10
10.4272291
20
0.2775788
40
0.4063094
50
129.2526113
51
133.4249077
0
ARC
8
DEFAULT_255_1_388
10
10.4437884
20
0.2527619
40
0.436014
50
101.9878945
51
128.8741833
0
ARC
8
DEFAULT_255_1_388
10
10.4886299
20
0.059136
40
0.6347415
50
89.5906376
51
102.3170567
0
ARC
8
DEFAULT_255_1_388
10
10.4965611
20
0.0949586
40
0.5989122
50
77.2359491
51
90.3248968
0
ARC
8
DEFAULT_255_1_388
10
10.5198542
20
0.2037554
40
0.4876594
50
63.8379856
51
77.0808925
0
ARC
8
DEFAULT_255_1_388
10
10.5511075
20
0.2619882
40
0.4216191
50
45.9863127
51
64.1608798
0
ARC
8
DEFAULT_255_1_388
10
10.5804469
20
0.295499
40
0.3771394
50
32.2747934
51
45.6544796
0
ARC
8
DEFAULT_255_1_388
10
10.5879275
20
0.2976426
40
0.3696765
50
359.6507495
51
32.6129943
0
ARC
8
DEFAULT_255_1_388
10
10.4818458
20
0.2981788
40
0.3013762
50
359.469654
51
14.983205
0
ARC
8
DEFAULT_255_1_388
10
10.561171
20
0.3194288
40
0.2192542
50
14.9781954
51
48.2004799
0
ARC
8
DEFAULT_255_1_388
10
10.5426821
20
0.2961937
40
0.2489048
50
48.5926661
51
74.1242559
0
ARC
8
DEFAULT_255_1_388
10
10.5051624
20
0.1723607
40
0.3782845
50
73.7889321
51
86.6653996
0
ARC
8
DEFAULT_255_1_388
10
10.4936438
20
0.0365955
40
0.5145025
50
86.2642725
51
90.0533288
0
ARC
8
DEFAULT_255_1_388
10
10.4904531
20
0.0810376
40
0.4700681
50
89.669455
51
99.2313411
0
ARC
8
DEFAULT_255_1_388
10
10.4631691
20
0.2435401
40
0.3052945
50
99.0695987
51
113.7659242
0
ARC
8
DEFAULT_255_1_388
10
10.4323685
20
0.3161772
40
0.226407
50
114.0402885
51
127.9848946
0
ARC
8
DEFAULT_255_1_388
10
10.4053161
20
0.3494884
40
0.1835045
50
127.7287217
51
176.7106493
0
ARC
8
DEFAULT_255_1_388
10
10.4816826
20
0.338121
40
0.2604907
50
175.1780759
51
180.0581213
0
ARC
8
DEFAULT_255_1_388
10
10.386817
20
0.3367411
40
0.1656287
50
179.6140658
51
228.124674
0
ARC
8
DEFAULT_255_1_388
10
10.4365527
20
0.382794
40
0.2332038
50
226.5785315
51
230.8792476
0
ARC
8
DEFAULT_255_1_388
10
10.4895014
20
0.4530908
40
0.3211664
50
231.4636401
51
241.9261664
0
ARC
8
DEFAULT_255_1_388
10
10.6241797
20
0.7009349
40
0.6032345
50
241.7177136
51
248.3259138
0
ARC
8
DEFAULT_255_1_388
10
10.7800392
20
1.0870771
40
1.0196417
50
248.2007377
51
252.4527713
0
ARC
8
DEFAULT_255_1_388
10
10.9153919
20
1.5055092
40
1.4594143
50
252.3388938
51
254.347037
0
ARC
8
DEFAULT_255_1_388
10
10.0669219
20
-1.5292905
40
1.6917621
50
71.0197462
51
74.4085467
0
ARC
8
DEFAULT_255_1_388
10
10.2576307
20
-0.9787856
40
1.1091618
50
66.1845203
51
71.086519
0
ARC
8
DEFAULT_255_1_388
10
10.4326856
20
-0.5846561
40
0.6779073
50
59.3537334
51
66.269255
0
ARC
8
DEFAULT_255_1_388
10
10.5326582
20
-0.4155223
40
0.4814366
50
49.1021732
51
59.3294421
0
ARC
8
DEFAULT_255_1_388
10
10.624757
20
-0.3105425
40
0.3417875
50
32.7924183
51
49.2503526
0
ARC
8
DEFAULT_255_1_388
10
10.6597185
20
-0.2855689
40
0.2988789
50
31.121225
51
32.3977355
0
ARC
8
DEFAULT_255_1_388
10
10.6509363
20
-0.2888272
40
0.3080861
50
8.1116803
51
30.7958224
0
ARC
8
DEFAULT_255_1_388
10
10.5597708
20
-0.3043563
40
0.4005385
50
359.8390945
51
8.4707348
0
ARC
8
DEFAULT_255_1_388
10
10.6301756
20
-0.3098249
40
0.3301608
50
337.4732479
51
0.7538283
0
ARC
8
DEFAULT_255_1_388
10
10.6502781
20
-0.3120446
40
0.3107929
50
307.5917028
51
336.4313755
0
ARC
8
DEFAULT_255_1_388
10
10.5991839
20
-0.2552491
40
0.3870096
50
307.6560665
51
308.4561779
0
ARC
8
DEFAULT_255_1_388
10
10.5726055
20
-0.2144168
40
0.435591
50
284.3733666
51
307.1426212
0
ARC
8
DEFAULT_255_1_388
10
10.5168949
20
-0.0094609
40
0.6479685
50
272.4384566
51
284.6464689
0
ARC
8
DEFAULT_255_1_388
10
10.5026334
20
0.1929434
40
0.8508149
50
269.9708517
51
272.8180721
0
ARC
8
DEFAULT_255_1_388
10
10.4978017
20
-0.0362717
40
0.6216151
50
248.2707343
51
270.4054609
0
ARC
8
DEFAULT_255_1_388
10
10.4916888
20
-0.0577327
40
0.5994203
50
246.1380358
51
248.054058
0
ARC
8
DEFAULT_255_1_388
10
10.4446031
20
-0.1566295
40
0.4899388
50
233.1671897
51
246.4951656
0
ARC
8
DEFAULT_255_1_388
10
10.3822666
20
-0.2407863
40
0.3852115
50
215.3403381
51
233.084328
0
ARC
8
DEFAULT_255_1_388
10
10.351603
20
-0.2630907
40
0.3472969
50
179.2419235
51
215.2648426
0
ARC
8
DEFAULT_255_1_388
10
10.4379581
20
-0.2615021
40
0.259251
50
179.3355796
51
199.1045873
0
ARC
8
DEFAULT_255_1_388
10
10.4005723
20
-0.2712777
40
0.2207454
50
199.8830064
51
232.7061328
0
ARC
8
DEFAULT_255_1_388
10
10.4536997
20
-0.2044544
40
0.306101
50
232.3736206
51
255.5136621
0
ARC
8
DEFAULT_255_1_388
10
10.4920503
20
-0.0644823
40
0.4512213
50
255.2447928
51
267.5318292
0
ARC
8
DEFAULT_255_1_388
10
10.501897
20
0.0741709
40
0.5901825
50
267.1564563
51
270.0294721
0
ARC
8
DEFAULT_255_1_388
10
10.5050295
20
0.0242623
40
0.5402814
50
269.6999944
51
278.1662446
0
ARC
8
DEFAULT_255_1_388
10
10.5338323
20
-0.1704026
40
0.3435003
50
278.0229022
51
290.6255326
0
ARC
8
DEFAULT_255_1_388
10
10.5729489
20
-0.2747453
40
0.2320666
50
290.6616368
51
307.0374127
0
ARC
8
DEFAULT_255_1_388
10
10.6067389
20
-0.316196
40
0.1786372
50
306.3942078
51
355.303191
0
ARC
8
DEFAULT_255_1_388
10
10.5491682
20
-0.3075814
40
0.2367516
50
354.3662092
51
0.0709489
0
ARC
8
DEFAULT_255_1_388
10
10.5651551
20
-0.3050439
40
0.2207761
50
359.4175379
51
16.1975911
0
ARC
8
DEFAULT_255_1_388
10
10.6163669
20
-0.2910046
40
0.1676828
50
16.4721294
51
52.6261798
0
ARC
8
DEFAULT_255_1_388
10
10.5240177
20
-0.4129394
40
0.3206412
50
52.7381828
51
62.4979144
0
ARC
8
DEFAULT_255_1_388
10
10.3681929
20
-0.7061764
40
0.6527035
50
62.2517425
51
68.1219454
0
ARC
8
DEFAULT_255_1_388
10
10.1747417
20
-1.1816049
40
1.1659797
50
68.006043
51
71.8055127
0
ARC
8
DEFAULT_255_1_388
10
9.9727325
20
-1.7874277
40
1.8045908
50
71.718361
51
73.9260743
0
LINE
8
DEFAULT_255_1_388
10
11.6885807
20
0.6821148
11
11.6885807
21
-0.6398
0
LINE
8
DEFAULT_255_1_388
10
11.6885807
20
-0.6398
11
11.5205177
21
-0.6398
0
LINE
8
DEFAULT_255_1_388
10
11.5205177
20
-0.6398
11
11.5205177
21
0.474295
0
LINE
8
DEFAULT_255_1_388
10
11.5205177
20
0.474295
11
11.1834882
21
0.3505066
0
LINE
8
DEFAULT_255_1_388
10
11.1834882
20
0.3505066
11
11.1834882
21
0.5023055
0
LINE
8
DEFAULT_255_1_388
10
11.1834882
20
0.5023055
11
11.6623773
21
0.6821148
0
LINE
8
DEFAULT_255_1_388
10
11.6623773
20
0.6821148
11
11.6885807
21
0.6821148
0
LINE
8
DEFAULT_255_1_388
10
12.2975832
20
0.6757898
11
12.505403
21
-0.2250639
0
LINE
8
DEFAULT_255_1_388
10
12.505403
20
-0.2250639
11
12.5307028
21
-0.3985483
0
LINE
8
DEFAULT_255_1_388
10
12.5307028
20
-0.3985483
11
12.5677489
21
-0.2422316
0
LINE
8
DEFAULT_255_1_388
10
12.5677489
20
-0.2422316
11
12.8279755
21
0.6757898
0
LINE
8
DEFAULT_255_1_388
10
12.8279755
20
0.6757898
11
12.9743529
21
0.6757898
0
LINE
8
DEFAULT_255_1_388
10
12.9743529
20
0.6757898
11
13.2282545
21
-0.2422316
0
LINE
8
DEFAULT_255_1_388
10
13.2282545
20
-0.2422316
11
13.2643971
21
-0.401259
0
LINE
8
DEFAULT_255_1_388
10
13.2643971
20
-0.401259
11
13.2924076
21
-0.2241604
0
LINE
8
DEFAULT_255_1_388
10
13.2924076
20
-0.2241604
11
13.4966132
21
0.6757898
0
LINE
8
DEFAULT_255_1_388
10
13.4966132
20
0.6757898
11
13.6710011
21
0.6757898
0
LINE
8
DEFAULT_255_1_388
10
13.6710011
20
0.6757898
11
13.3520429
21
-0.6398
0
LINE
8
DEFAULT_255_1_388
10
13.3520429
20
-0.6398
11
13.1939191
21
-0.6398
0
LINE
8
DEFAULT_255_1_388
10
13.1939191
20
-0.6398
11
12.9228498
21
0.3188819
0
LINE
8
DEFAULT_255_1_388
10
12.9228498
20
0.3188819
11
12.9020678
21
0.4191775
0
LINE
8
DEFAULT_255_1_388
10
12.9020678
20
0.4191775
11
12.8812858
21
0.3188819
0
LINE
8
DEFAULT_255_1_388
10
12.8812858
20
0.3188819
11
12.6002772
21
-0.6398
0
LINE
8
DEFAULT_255_1_388
10
12.6002772
20
-0.6398
11
12.4421535
21
-0.6398
0
LINE
8
DEFAULT_255_1_388
10
12.4421535
20
-0.6398
11
12.1240988
21
0.6757898
0
LINE
8
DEFAULT_255_1_388
10
12.1240988
20
0.6757898
11
12.2975832
21
0.6757898
0
LINE
8
DEFAULT_255_1_388
10
14.1309154
20
-0.0127263
11
14.1309154
21
-0.1491645
0
LINE
8
DEFAULT_255_1_388
10
14.1309154
20
-0.1491645
11
13.689976
21
-0.1491645
0
LINE
8
DEFAULT_255_1_388
10
13.689976
20
-0.1491645
11
13.689976
21
-0.0127263
0
LINE
8
DEFAULT_255_1_388
10
13.689976
20
-0.0127263
11
14.1309154
21
-0.0127263
0
LINE
8
DEFAULT_255_1_388
10
14.8031674
20
-0.1247683
11
14.4932448
21
-0.1247683
0
LINE
8
DEFAULT_255_1_388
10
14.4932448
20
-0.1247683
11
14.4932448
21
-0.6398
0
LINE
8
DEFAULT_255_1_388
10
14.4932448
20
-0.6398
11
14.3197604
21
-0.6398
0
LINE
8
DEFAULT_255_1_388
10
14.3197604
20
-0.6398
11
14.3197604
21
0.6757898
0
LINE
8
DEFAULT_255_1_388
10
14.3197604
20
0.6757898
11
14.8049745
21
0.6757898
0
LINE
8
DEFAULT_255_1_388
10
14.4932448
20
0.5330267
11
14.4932448
21
0.0170914
0
LINE
8
DEFAULT_255_1_388
10
14.4932448
20
0.0170914
11
14.8049745
21
0.0170914
0
LINE
8
DEFAULT_255_1_388
10
14.8149137
20
0.5330267
11
14.4932448
21
0.5330267
0
ARC
8
DEFAULT_255_1_388
10
14.8097118
20
-0.0058666
40
0.6816729
50
78.8380084
51
90.398184
0
ARC
8
DEFAULT_255_1_388
10
14.8565149
20
0.2214796
40
0.449571
50
58.9633273
51
79.0810717
0
ARC
8
DEFAULT_255_1_388
10
14.8904533
20
0.2844823
40
0.3781049
50
48.0194715
51
58.4475592
0
ARC
8
DEFAULT_255_1_388
10
14.9004353
20
0.2940818
40
0.3642936
50
3.3374546
51
48.1766642
0
ARC
8
DEFAULT_255_1_388
10
14.761916
20
0.2741581
40
0.5038766
50
359.9483251
51
4.6822857
0
ARC
8
DEFAULT_255_1_388
10
14.7759083
20
0.2693779
40
0.4899031
50
346.1879032
51
0.5059221
0
ARC
8
DEFAULT_255_1_388
10
14.9287875
20
0.2296763
40
0.3319729
50
310.8832219
51
346.5426612
0
ARC
8
DEFAULT_255_1_388
10
14.8940723
20
0.2765853
40
0.3901853
50
286.6925305
51
310.228778
0
ARC
8
DEFAULT_255_1_388
10
14.8300453
20
0.4779585
40
0.6014737
50
274.6848219
51
287.0247342
0
ARC
8
DEFAULT_255_1_388
10
14.8047002
20
0.7264088
40
0.8511785
50
269.8968222
51
275.0192639
0
ARC
8
DEFAULT_255_1_388
10
14.8077995
20
0.4926144
40
0.4755314
50
269.6596206
51
279.4150542
0
ARC
8
DEFAULT_255_1_388
10
14.8367453
20
0.3248945
40
0.3053379
50
279.2050006
51
294.9901776
0
ARC
8
DEFAULT_255_1_388
10
14.8694088
20
0.2520353
40
0.2255036
50
295.2886769
51
311.2912669
0
ARC
8
DEFAULT_255_1_388
10
14.8773829
20
0.2401938
40
0.2113522
50
311.7853512
51
347.2860549
0
ARC
8
DEFAULT_255_1_388
10
14.766699
20
0.268643
40
0.3256011
50
346.6891629
51
0.1057086
0
ARC
8
DEFAULT_255_1_388
10
14.674445
20
0.2719247
40
0.417863
50
359.63239
51
359.9961329
0
ARC
8
DEFAULT_255_1_388
10
14.7909055
20
0.2746987
40
0.3014155
50
359.4673371
51
15.5931159
0
ARC
8
DEFAULT_255_1_388
10
14.8612118
20
0.2936937
40
0.2285918
50
15.7441779
51
46.620186
0
ARC
8
DEFAULT_255_1_388
10
14.8445878
20
0.2745361
40
0.2539359
50
46.8628482
51
75.6676625
0
ARC
8
DEFAULT_255_1_388
10
14.8114934
20
0.1554243
40
0.3775415
50
75.2763152
51
88.2916439
0
ARC
8
DEFAULT_255_1_388
10
14.8048934
20
0.0552097
40
0.4779221
50
87.8589087
51
88.7986197
0
LINE
8
DEFAULT_255_1_388
10
16.3961515
20
0.6757898
11
16.3961515
21
0.5330267
0
LINE
8
DEFAULT_255_1_388
10
16.3961515
20
0.5330267
11
15.9732833
21
0.5330267
0
LINE
8
DEFAULT_255_1_388
10
15.9732833
20
0.5330267
11
15.9732833
21
-0.6398
0
LINE
8
DEFAULT_255_1_388
10
15.9732833
20
-0.6398
11
15.8007025
21
-0.6398
0
LINE
8
DEFAULT_255_1_388
10
15.8007025
20
-0.6398
11
15.8007025
21
0.5330267
0
LINE
8
DEFAULT_255_1_388
10
15.8007025
20
0.5330267
11
15.3787379
21
0.5330267
0
LINE
8
DEFAULT_255_1_388
10
15.3787379
20
0.5330267
11
15.3787379
21
0.6757898
0
LINE
8
DEFAULT_255_1_388
10
15.3787379
20
0.6757898
11
16.3961515
21
0.6757898
0
LINE
8
DEFAULT_255_1_388
10
17.4497077
20
0.2953892
11
17.2753197
21
0.2953892
0
LINE
8
DEFAULT_255_1_388
10
16.4964472
20
-0.2584958
11
16.6708351
21
-0.2584958
0
ARC
8
DEFAULT_255_1_388
10
17.3493924
20
1.3017821
40
1.4087688
50
248.9196578
51
254.1442424
0
ARC
8
DEFAULT_255_1_388
10
17.1603805
20
0.8151805
40
0.8867498
50
241.6337352
51
249.0064643
0
ARC
8
DEFAULT_255_1_388
10
16.9884118
20
0.5000764
40
0.5277799
50
230.4982261
51
241.8087583
0
ARC
8
DEFAULT_255_1_388
10
16.9001889
20
0.3876686
40
0.3849419
50
227.4062979
51
229.9877433
0
ARC
8
DEFAULT_255_1_388
10
16.8453235
20
0.3341155
40
0.3084129
50
200.6782127
51
228.1765252
0
ARC
8
DEFAULT_255_1_388
10
16.8534604
20
0.3324277
40
0.315461
50
179.506278
51
199.8695278
0
ARC
8
DEFAULT_255_1_388
10
16.8524193
20
0.3407671
40
0.3144584
50
132.4834401
51
181.0242352
0
ARC
8
DEFAULT_255_1_388
10
16.9193397
20
0.2775788
40
0.4063094
50
129.2526113
51
133.4249077
0
ARC
8
DEFAULT_255_1_388
10
16.935899
20
0.2527619
40
0.436014
50
101.9878945
51
128.8741833
0
ARC
8
DEFAULT_255_1_388
10
16.9807405
20
0.059136
40
0.6347415
50
89.5906376
51
102.3170567
0
ARC
8
DEFAULT_255_1_388
10
16.9886717
20
0.0949586
40
0.5989122
50
77.2359491
51
90.3248968
0
ARC
8
DEFAULT_255_1_388
10
17.0119648
20
0.2037554
40
0.4876594
50
63.8379856
51
77.0808925
0
ARC
8
DEFAULT_255_1_388
10
17.0432181
20
0.2619882
40
0.4216191
50
45.9863127
51
64.1608798
0
ARC
8
DEFAULT_255_1_388
10
17.0725575
20
0.295499
40
0.3771394
50
32.2747934
51
45.6544796
0
ARC
8
DEFAULT_255_1_388
10
17.0800381
20
0.2976426
40
0.3696765
50
359.6507495
51
32.6129943
0
ARC
8
DEFAULT_255_1_388
10
16.9739564
20
0.2981788
40
0.3013762
50
359.469654
51
14.983205
0
ARC
8
DEFAULT_255_1_388
10
17.0532816
20
0.3194288
40
0.2192542
50
14.9781954
51
48.2004799
0
ARC
8
DEFAULT_255_1_388
10
17.0347927
20
0.2961937
40
0.2489048
50
48.5926661
51
74.1242559
0
ARC
8
DEFAULT_255_1_388
10
16.997273
20
0.1723607
40
0.3782845
50
73.7889321
51
86.6653996
0
ARC
8
DEFAULT_255_1_388
10
16.9857544
20
0.0365955
40
0.5145025
50
86.2642725
51
90.0533288
0
ARC
8
DEFAULT_255_1_388
10
16.9825637
20
0.0810376
40
0.4700681
50
89.669455
51
99.2313411
0
ARC
8
DEFAULT_255_1_388
10
16.9552797
20
0.2435401
40
0.3052945
50
99.0695987
51
113.7659242
0
ARC
8
DEFAULT_255_1_388
10
16.9244791
20
0.3161772
40
0.226407
50
114.0402885
51
127.9848946
0
ARC
8
DEFAULT_255_1_388
10
16.8974267
20
0.3494884
40
0.1835045
50
127.7287217
51
176.7106493
0
ARC
8
DEFAULT_255_1_388
10
16.9737932
20
0.338121
40
0.2604907
50
175.1780759
51
180.0581213
0
ARC
8
DEFAULT_255_1_388
10
16.8789276
20
0.3367411
40
0.1656287
50
179.6140658
51
228.124674
0
ARC
8
DEFAULT_255_1_388
10
16.9286633
20
0.382794
40
0.2332038
50
226.5785315
51
230.8792476
0
ARC
8
DEFAULT_255_1_388
10
16.981612
20
0.4530908
40
0.3211664
50
231.4636401
51
241.9261664
0
ARC
8
DEFAULT_255_1_388
10
17.1162903
20
0.7009349
40
0.6032345
50
241.7177136
51
248.3259138
0
ARC
8
DEFAULT_255_1_388
10
17.2721498
20
1.0870771
40
1.0196417
50
248.2007377
51
252.4527713
0
ARC
8
DEFAULT_255_1_388
10
17.4075025
20
1.5055092
40
1.4594143
50
252.3388938
51
254.347037
0
ARC
8
DEFAULT_255_1_388
10
16.5590325
20
-1.5292905
40
1.6917621
50
71.0197462
51
74.4085467
0
ARC
8
DEFAULT_255_1_388
10
16.7497413
20
-0.9787856
40
1.1091618
50
66.1845203
51
71.086519
0
ARC
8
DEFAULT_255_1_388
10
16.9247962
20
-0.5846561
40
0.6779073
50
59.3537334
51
66.269255
0
ARC
8
DEFAULT_255_1_388
10
17.0247688
20
-0.4155223
40
0.4814366
50
49.1021732
51
59.3294421
0
ARC
8
DEFAULT_255_1_388
10
17.1168676
20
-0.3105425
40
0.3417875
50
32.7924183
51
49.2503526
0
ARC
8
DEFAULT_255_1_388
10
17.1518291
20
-0.2855689
40
0.2988789
50
31.121225
51
32.3977355
0
ARC
8
DEFAULT_255_1_388
10
17.1430469
20
-0.2888272
40
0.3080861
50
8.1116803
51
30.7958224
0
ARC
8
DEFAULT_255_1_388
10
17.0518814
20
-0.3043563
40
0.4005385
50
359.8390945
51
8.4707348
0
ARC
8
DEFAULT_255_1_388
10
17.1222862
20
-0.3098249
40
0.3301608
50
337.4732479
51
0.7538283
0
ARC
8
DEFAULT_255_1_388
10
17.1423887
20
-0.3120446
40
0.3107929
50
307.5917028
51
336.4313755
0
ARC
8
DEFAULT_255_1_388
10
17.0912945
20
-0.2552491
40
0.3870096
50
307.6560665
51
308.4561779
0
ARC
8
DEFAULT_255_1_388
10
17.0647161
20
-0.2144168
40
0.435591
50
284.3733666
51
307.1426212
0
ARC
8
DEFAULT_255_1_388
10
17.0090055
20
-0.0094609
40
0.6479685
50
272.4384566
51
284.6464689
0
ARC
8
DEFAULT_255_1_388
10
16.994744
20
0.1929434
40
0.8508149
50
269.9708517
51
272.8180721
0
ARC
8
DEFAULT_255_1_388
10
16.9899123
20
-0.0362717
40
0.6216151
50
248.2707343
51
270.4054609
0
ARC
8
DEFAULT_255_1_388
10
16.9837994
20
-0.0577327
40
0.5994203
50
246.1380358
51
248.054058
0
ARC
8
DEFAULT_255_1_388
10
16.9367137
20
-0.1566295
40
0.4899388
50
233.1671897
51
246.4951656
0
ARC
8
DEFAULT_255_1_388
10
16.8743772
20
-0.2407863
40
0.3852115
50
215.3403381
51
233.084328
0
ARC
8
DEFAULT_255_1_388
10
16.8437136
20
-0.2630907
40
0.3472969
50
179.2419235
51
215.2648426
0
ARC
8
DEFAULT_255_1_388
10
16.9300687
20
-0.2615021
40
0.259251
50
179.3355796
51
199.1045873
0
ARC
8
DEFAULT_255_1_388
10
16.8926829
20
-0.2712777
40
0.2207454
50
199.8830064
51
232.7061328
0
ARC
8
DEFAULT_255_1_388
10
16.9458103
20
-0.2044544
40
0.306101
50
232.3736206
51
255.5136621
0
ARC
8
DEFAULT_255_1_388
10
16.9841609
20
-0.0644823
40
0.4512213
50
255.2447928
51
267.5318292
0
ARC
8
DEFAULT_255_1_388
10
16.9940076
20
0.0741709
40
0.5901825
50
267.1564563
51
270.0294721
0
ARC
8
DEFAULT_255_1_388
10
16.9971401
20
0.0242623
40
0.5402814
50
269.6999944
51
278.1662446
0
ARC
8
DEFAULT_255_1_388
10
17.0259429
20
-0.1704026
40
0.3435003
50
278.0229022
51
290.6255326
0
ARC
8
DEFAULT_255_1_388
10
17.0650595
20
-0.2747453
40
0.2320666
50
290.6616368
51
307.0374127
0
ARC
8
DEFAULT_255_1_388
10
17.0988495
20
-0.316196
40
0.1786372
50
306.3942078
51
355.303191
0
ARC
8
DEFAULT_255_1_388
10
17.0412788
20
-0.3075814
40
0.2367516
50
354.3662092
51
0.0709489
0
ARC
8
DEFAULT_255_1_388
10
17.0572657
20
-0.3050439
40
0.2207761
50
359.4175379
51
16.1975911
0
ARC
8
DEFAULT_255_1_388
10
17.1084775
20
-0.2910046
40
0.1676828
50
16.4721294
51
52.6261798
0
ARC
8
DEFAULT_255_1_388
10
17.0161282
20
-0.4129394
40
0.3206412
50
52.7381828
51
62.4979144
0
ARC
8
DEFAULT_255_1_388
10
16.8603035
20
-0.7061764
40
0.6527035
50
62.2517425
51
68.1219454
0
ARC
8
DEFAULT_255_1_388
10
16.6668523
20
-1.1816049
40
1.1659797
50
68.006043
51
71.8055127
0
ARC
8
DEFAULT_255_1_388
10
16.4648431
20
-1.7874277
40
1.8045908
50
71.718361
51
73.9260743
0
LINE
8
DEFAULT_255_1_388
10
17.8418546
20
-0.0145334
11
17.7081271
21
0.0198021
0
LINE
8
DEFAULT_255_1_388
10
17.7081271
20
0.0198021
11
17.7749909
21
0.6757898
0
LINE
8
DEFAULT_255_1_388
10
17.7749909
20
0.6757898
11
18.44905
21
0.6757898
0
LINE
8
DEFAULT_255_1_388
10
18.44905
20
0.6757898
11
18.44905
21
0.5212803
0
LINE
8
DEFAULT_255_1_388
10
18.44905
20
0.5212803
11
17.9168505
21
0.5212803
0
LINE
8
DEFAULT_255_1_388
10
17.9168505
20
0.5212803
11
17.8770937
21
0.1625652
0
LINE
8
DEFAULT_255_1_388
10
17.6611417
20
-0.2937348
11
17.8192655
21
-0.2937348
0
LINE
8
DEFAULT_255_1_388
10
17.8861293
20
0.0216092
11
17.8418546
21
-0.0145334
0
ARC
8
DEFAULT_255_1_388
10
18.085755
20
-0.1951759
40
0.4141476
50
93.7181681
51
120.253934
0
ARC
8
DEFAULT_255_1_388
10
18.0963602
20
-0.2860716
40
0.5055616
50
89.9660471
51
94.2495185
0
ARC
8
DEFAULT_255_1_388
10
18.1009424
20
-0.2197846
40
0.4392953
50
73.8045384
51
90.5585736
0
ARC
8
DEFAULT_255_1_388
10
18.1273682
20
-0.123248
40
0.3392225
50
41.3071072
51
73.543002
0
ARC
8
DEFAULT_255_1_388
10
18.0805502
20
-0.1635539
40
0.4009977
50
13.5075837
51
41.2174839
0
ARC
8
DEFAULT_255_1_388
10
17.8958599
20
-0.2119093
40
0.5918864
50
1.1330171
51
13.8830737
0
ARC
8
DEFAULT_255_1_388
10
17.7362245
20
-0.2204478
40
0.7516787
50
359.9925091
51
1.5431298
0
ARC
8
DEFAULT_255_1_388
10
17.880686
20
-0.2250973
40
0.6072343
50
347.8572712
51
0.4294349
0
ARC
8
DEFAULT_255_1_388
10
18.0775995
20
-0.2697102
40
0.4053482
50
323.6727442
51
348.1674594
0
ARC
8
DEFAULT_255_1_388
10
18.1106959
20
-0.2898825
40
0.3667495
50
316.8171818
51
323.1486802
0
ARC
8
DEFAULT_255_1_388
10
18.1176083
20
-0.2940388
40
0.358869
50
281.839603
51
316.5458142
0
ARC
8
DEFAULT_255_1_388
10
18.0753371
20
-0.1190637
40
0.5388223
50
269.5770964
51
282.4214641
0
ARC
8
DEFAULT_255_1_388
10
18.0673291
20
-0.143107
40
0.5147801
50
256.2425863
51
270.4486481
0
ARC
8
DEFAULT_255_1_388
10
18.0336819
20
-0.2780876
40
0.3756708
50
228.9024379
51
256.33135
0
ARC
8
DEFAULT_255_1_388
10
18.0253799
20
-0.2911946
40
0.360344
50
193.7536029
51
228.5272638
0
ARC
8
DEFAULT_255_1_388
10
18.1646364
20
-0.2503537
40
0.5053599
50
184.9244437
51
194.4976052
0
ARC
8
DEFAULT_255_1_388
10
18.1863005
20
-0.2463278
40
0.3700839
50
187.3596909
51
198.6733728
0
ARC
8
DEFAULT_255_1_388
10
18.0682249
20
-0.2872627
40
0.2451195
50
198.4453795
51
217.7945479
0
ARC
8
DEFAULT_255_1_388
10
18.0349421
20
-0.3108437
40
0.2043754
50
218.2887146
51
228.5613203
0
ARC
8
DEFAULT_255_1_388
10
18.0459428
20
-0.2960098
40
0.2227819
50
228.9652423
51
258.1237049
0
ARC
8
DEFAULT_255_1_388
10
18.0690866
20
-0.1969036
40
0.3245374
50
257.7260585
51
270.4013717
0
ARC
8
DEFAULT_255_1_388
10
18.0741364
20
-0.2469745
40
0.2744726
50
269.4204315
51
286.420998
0
ARC
8
DEFAULT_255_1_388
10
18.0908419
20
-0.3076295
40
0.2115721
50
286.7250065
51
320.6004665
0
ARC
8
DEFAULT_255_1_388
10
18.0477335
20
-0.2726473
40
0.2670878
50
320.6712228
51
344.5440474
0
ARC
8
DEFAULT_255_1_388
10
17.9176049
20
-0.2344606
40
0.4026927
50
344.241448
51
356.735803
0
ARC
8
DEFAULT_255_1_388
10
17.7772356
20
-0.2228344
40
0.5435085
50
356.3547471
51
0.0507222
0
ARC
8
DEFAULT_255_1_388
10
17.9274621
20
-0.2193188
40
0.3932934
50
359.5579289
51
12.9534322
0
ARC
8
DEFAULT_255_1_388
10
18.0461461
20
-0.1905414
40
0.2711827
50
12.6489751
51
41.608121
0
ARC
8
DEFAULT_255_1_388
10
18.0720621
20
-0.1685054
40
0.2371737
50
41.7851122
51
85.9892156
0
ARC
8
DEFAULT_255_1_388
10
18.0581931
20
-0.2600262
40
0.3295244
50
84.6965848
51
90.0672125
0
ARC
8
DEFAULT_255_1_388
10
18.0555498
20
-0.3351882
40
0.4046926
50
89.6804991
51
99.161352
0
ARC
8
DEFAULT_255_1_388
10
18.0324508
20
-0.1971152
40
0.2647044
50
98.9836248
51
113.8905702
0
ARC
8
DEFAULT_255_1_388
10
18.0066183
20
-0.1361882
40
0.1985386
50
114.195234
51
127.3641866
0
LINE
8
DEFAULT_255_1_388
10
19.2965934
20
0.6766934
11
19.326411
21
0.6766934
0
LINE
8
DEFAULT_255_1_388
10
19.326411
20
0.6766934
11
19.326411
21
0.5348338
0
LINE
8
DEFAULT_255_1_388
10
19.326411
20
0.5348338
11
19.2956898
21
0.5348338
0
LINE
8
DEFAULT_255_1_388
10
18.6803625
20
-0.1392253
11
18.6803625
21
-0.0750722
0
LINE
8
DEFAULT_255_1_388
10
18.8484254
20
-0.0967578
11
18.8484254
21
-0.1582001
0
ARC
8
DEFAULT_255_1_388
10
19.301579
20
-0.0274174
40
0.562282
50
90.6001079
51
104.5146616
0
ARC
8
DEFAULT_255_1_388
10
19.2578749
20
0.13511
40
0.3939917
50
104.2855758
51
133.8630124
0
ARC
8
DEFAULT_255_1_388
10
19.2763002
20
0.1229243
40
0.4155734
50
134.5304124
51
161.6210222
0
ARC
8
DEFAULT_255_1_388
10
19.4622934
20
0.0573421
40
0.6127682
50
161.2850533
51
174.2074364
0
ARC
8
DEFAULT_255_1_388
10
19.6212501
20
0.0354437
40
0.7731446
50
173.7817938
51
174.9251711
0
ARC
8
DEFAULT_255_1_388
10
19.1086695
20
-0.120073
40
0.3412588
50
95.8332067
51
138.995412
0
ARC
8
DEFAULT_255_1_388
10
19.1337975
20
-0.2639305
40
0.4870358
50
89.8755506
51
97.0540979
0
ARC
8
DEFAULT_255_1_388
10
19.1391364
20
-0.1699159
40
0.3930432
50
71.6407016
51
90.6240821
0
ARC
8
DEFAULT_255_1_388
10
19.1560758
20
-0.1075567
40
0.3285421
50
39.6368051
51
71.0190743
0
ARC
8
DEFAULT_255_1_388
10
19.0844665
20
-0.1694414
40
0.4231706
50
10.6588054
51
39.9044509
0
ARC
8
DEFAULT_255_1_388
10
18.9103211
20
-0.2072777
40
0.60133
50
359.6827842
51
11.1326896
0
ARC
8
DEFAULT_255_1_388
10
18.9058547
20
-0.2152285
40
0.6058047
50
347.2485908
51
0.4371098
0
ARC
8
DEFAULT_255_1_388
10
19.0934332
20
-0.2603621
40
0.4128987
50
318.1408565
51
347.6118497
0
ARC
8
DEFAULT_255_1_388
10
19.1299929
20
-0.2904097
40
0.3656244
50
275.6342406
51
317.824739
0
ARC
8
DEFAULT_255_1_388
10
19.105145
20
-0.1442173
40
0.513655
50
269.8872513
51
276.7916069
0
ARC
8
DEFAULT_255_1_388
10
19.0989642
20
-0.2595819
40
0.398323
50
246.9139443
51
270.7436787
0
ARC
8
DEFAULT_255_1_388
10
19.0996838
20
-0.2755956
40
0.3839368
50
218.1665534
51
245.8780431
0
ARC
8
DEFAULT_255_1_388
10
19.198621
20
-0.1928097
40
0.5128958
50
191.4115343
51
218.6077624
0
ARC
8
DEFAULT_255_1_388
10
19.4166527
20
-0.1439223
40
0.7363054
50
179.6344971
51
191.7836758
0
ARC
8
DEFAULT_255_1_388
10
20.0446401
20
-0.0675505
40
1.3642984
50
171.4523743
51
180.3158856
0
ARC
8
DEFAULT_255_1_388
10
19.5502128
20
0.0093895
40
0.8639311
50
157.9802296
51
171.6246761
0
ARC
8
DEFAULT_255_1_388
10
19.3011479
20
0.1087038
40
0.5958004
50
141.4299236
51
157.8541251
0
ARC
8
DEFAULT_255_1_388
10
19.2289562
20
0.1597746
40
0.5075416
50
102.871586
51
140.8564533
0
ARC
8
DEFAULT_255_1_388
10
19.3018115
20
-0.1147057
40
0.7914163
50
90.377773
51
103.5868422
0
ARC
8
DEFAULT_255_1_388
10
19.1062636
20
-0.1827457
40
0.2667015
50
89.8751238
51
126.2072139
0
ARC
8
DEFAULT_255_1_388
10
19.1114107
20
-0.2001153
40
0.2838229
50
124.9742447
51
144.8960197
0
ARC
8
DEFAULT_255_1_388
10
19.0916352
20
-0.1840019
40
0.2583845
50
145.2974778
51
160.2660922
0
ARC
8
DEFAULT_255_1_388
10
19.437284
20
-0.1617849
40
0.5888695
50
179.6512124
51
190.285571
0
ARC
8
DEFAULT_255_1_388
10
19.246732
20
-0.1977032
40
0.3949683
50
190.0944895
51
207.5099647
0
ARC
8
DEFAULT_255_1_388
10
19.1830902
20
-0.2279823
40
0.3245464
50
207.9585471
51
216.325377
0
ARC
8
DEFAULT_255_1_388
10
19.1448539
20
-0.2594288
40
0.2751259
50
215.7661336
51
232.5457193
0
ARC
8
DEFAULT_255_1_388
10
19.1017655
20
-0.3141727
40
0.2054668
50
232.8005815
51
270.6605497
0
ARC
8
DEFAULT_255_1_388
10
19.1069079
20
-0.2732147
40
0.2464268
50
269.3550767
51
288.474612
0
ARC
8
DEFAULT_255_1_388
10
19.1173586
20
-0.3125279
40
0.2058436
50
289.1831976
51
322.9685307
0
ARC
8
DEFAULT_255_1_388
10
19.0485688
20
-0.2582721
40
0.2934408
50
322.6007085
51
346.5183319
0
ARC
8
DEFAULT_255_1_388
10
18.9183444
20
-0.2250566
40
0.4278249
50
346.2584622
51
358.7739592
0
ARC
8
DEFAULT_255_1_388
10
18.8032019
20
-0.2188171
40
0.5430876
50
358.3757628
51
0.0082477
0
ARC
8
DEFAULT_255_1_388
10
18.8888837
20
-0.2157144
40
0.4574157
50
359.6211417
51
11.28403
0
ARC
8
DEFAULT_255_1_388
10
19.0325444
20
-0.1857465
40
0.3106708
50
11.0483152
51
31.8145585
0
ARC
8
DEFAULT_255_1_388
10
19.0673149
20
-0.1668955
40
0.2711963
50
32.3028554
51
38.0820598
0
ARC
8
DEFAULT_255_1_388
10
19.1146382
20
-0.1240283
40
0.2075566
50
36.8249851
51
85.741667
0
ARC
8
DEFAULT_255_1_388
10
19.1070795
20
-0.1803935
40
0.2643487
50
85.0150021
51
90.050843
0
LINE
8
DEFAULT_255_1_388
10
11.157832
20
197.5537468
11
11.3322199
21
197.5537468
0
LINE
8
DEFAULT_255_1_388
10
10.3193242
20
197.7326525
11
10.3193242
21
197.8591516
0
LINE
8
DEFAULT_255_1_388
10
11.3322199
20
198.0290217
11
11.157832
21
198.0290217
0
LINE
8
DEFAULT_255_1_388
10
10.4937121
20
197.8546337
11
10.4937121
21
197.7272312
0
ARC
8
DEFAULT_255_1_388
10
10.7156433
20
197.6209329
40
0.6202263
50
340.1774904
51
353.7812217
0
ARC
8
DEFAULT_255_1_388
10
10.8924286
20
197.5550893
40
0.4315926
50
311.4560052
51
340.4420756
0
ARC
8
DEFAULT_255_1_388
10
10.8886826
20
197.5675665
40
0.4434573
50
282.4332229
51
310.7514507
0
ARC
8
DEFAULT_255_1_388
10
10.8392644
20
197.7717703
40
0.6535262
50
269.9358869
51
282.8096729
0
ARC
8
DEFAULT_255_1_388
10
10.8334583
20
197.9230329
40
0.8048043
50
269.9995752
51
270.3612856
0
ARC
8
DEFAULT_255_1_388
10
10.8275073
20
197.6431781
40
0.5249831
50
250.7885263
51
270.6488451
0
ARC
8
DEFAULT_255_1_388
10
10.8085898
20
197.5714853
40
0.4510942
50
219.3628377
51
250.0611024
0
ARC
8
DEFAULT_255_1_388
10
10.9018772
20
197.6507653
40
0.5735046
50
193.5480293
51
219.5755675
0
ARC
8
DEFAULT_255_1_388
10
11.1686981
20
197.720052
40
0.849146
50
181.1220183
51
193.8754971
0
ARC
8
DEFAULT_255_1_388
10
11.4010214
20
197.7324914
40
1.0816971
50
179.9914644
51
181.5398227
0
ARC
8
DEFAULT_255_1_388
10
11.1933525
20
197.8633586
40
0.8740384
50
169.5837606
51
180.275782
0
ARC
8
DEFAULT_255_1_388
10
10.9866873
20
197.9015439
40
0.6638751
50
155.0367033
51
169.6002779
0
ARC
8
DEFAULT_255_1_388
10
10.8589331
20
197.9631336
40
0.5220662
50
136.7831557
51
155.2472983
0
ARC
8
DEFAULT_255_1_388
10
10.8151122
20
198.0003577
40
0.4646502
50
121.7633063
51
136.4281161
0
ARC
8
DEFAULT_255_1_388
10
10.8302962
20
197.9723049
40
0.4964979
50
95.6460018
51
121.5489589
0
ARC
8
DEFAULT_255_1_388
10
10.8479936
20
197.8475704
40
0.6223912
50
89.9245727
51
96.1375919
0
ARC
8
DEFAULT_255_1_388
10
10.8536641
20
197.8609721
40
0.6090084
50
76.6779212
51
90.456405
0
ARC
8
DEFAULT_255_1_388
10
10.8979454
20
198.039906
40
0.42469
50
47.4858803
51
76.9287069
0
ARC
8
DEFAULT_255_1_388
10
10.8814068
20
198.0286623
40
0.4441778
50
16.5424081
51
46.8934505
0
ARC
8
DEFAULT_255_1_388
10
10.7005118
20
197.9692265
40
0.6345318
50
5.4072971
51
17.0363711
0
ARC
8
DEFAULT_255_1_388
10
10.5386843
20
197.9432304
40
0.6250632
50
7.8888693
51
15.9242022
0
ARC
8
DEFAULT_255_1_388
10
10.7621828
20
198.0081309
40
0.3923364
50
15.7650676
51
27.9410069
0
ARC
8
DEFAULT_255_1_388
10
10.8863997
20
198.0746317
40
0.2514401
50
27.8167196
51
46.4007942
0
ARC
8
DEFAULT_255_1_388
10
10.8919839
20
198.0739882
40
0.2480958
50
47.4372362
51
75.0695672
0
ARC
8
DEFAULT_255_1_388
10
10.8572675
20
197.9531277
40
0.3738281
50
74.7009379
51
87.8124314
0
ARC
8
DEFAULT_255_1_388
10
10.8490292
20
197.8347659
40
0.4924321
50
87.3802571
51
90.0251599
0
ARC
8
DEFAULT_255_1_388
10
10.8446939
20
197.9667997
40
0.3604218
50
89.3451886
51
108.5744412
0
ARC
8
DEFAULT_255_1_388
10
10.8292931
20
198.0245836
40
0.3007661
50
109.2998307
51
143.3037387
0
ARC
8
DEFAULT_255_1_388
10
10.9150221
20
197.9586584
40
0.4089031
50
143.075267
51
163.1918576
0
ARC
8
DEFAULT_255_1_388
10
11.1346055
20
197.8893652
40
0.6391492
50
162.9375929
51
174.6208776
0
ARC
8
DEFAULT_255_1_388
10
11.4300437
20
197.8569711
40
0.9363344
50
174.342123
51
180.1430283
0
ARC
8
DEFAULT_255_1_388
10
11.3252978
20
197.7226117
40
0.8315986
50
179.6817261
51
189.150555
0
ARC
8
DEFAULT_255_1_388
10
11.0439727
20
197.6757559
40
0.5464044
50
188.9911061
51
203.5772363
0
ARC
8
DEFAULT_255_1_388
10
10.9225019
20
197.6253539
40
0.4149206
50
203.9075402
51
215.1312435
0
ARC
8
DEFAULT_255_1_388
10
10.8186817
20
197.5448907
40
0.2837747
50
213.9071511
51
263.8848919
0
ARC
8
DEFAULT_255_1_388
10
10.832781
20
197.6331519
40
0.3730641
50
263.1757928
51
270.1031044
0
ARC
8
DEFAULT_255_1_388
10
10.836389
20
197.7734511
40
0.5133712
50
269.6722503
51
279.0606936
0
ARC
8
DEFAULT_255_1_388
10
10.8664045
20
197.592015
40
0.3294739
50
278.8749101
51
293.6349581
0
ARC
8
DEFAULT_255_1_388
10
10.9024249
20
197.5074251
40
0.2375405
50
293.8553806
51
310.0518171
0
ARC
8
DEFAULT_255_1_388
10
10.9029758
20
197.5004021
40
0.2318463
50
311.0644687
51
332.0111037
0
ARC
8
DEFAULT_255_1_388
10
10.7688431
20
197.5743702
40
0.3850112
50
331.6586806
51
343.2877423
0
ARC
8
DEFAULT_255_1_388
10
10.5367896
20
197.6456806
40
0.6277712
50
343.1446576
51
351.0103568
0
ARC
8
DEFAULT_255_1_388
10
10.373522
20
197.6756873
40
0.7937327
50
350.71248
51
351.1626997
0
LINE
8
DEFAULT_255_1_388
10
12.4417971
20
198.0714892
11
12.2674091
21
198.0714892
0
LINE
8
DEFAULT_255_1_388
10
11.4885366
20
197.5176042
11
11.6629245
21
197.5176042
0
ARC
8
DEFAULT_255_1_388
10
12.3414818
20
199.0778821
40
1.4087688
50
248.9196578
51
254.1442424
0
ARC
8
DEFAULT_255_1_388
10
12.1524699
20
198.5912805
40
0.8867498
50
241.6337352
51
249.0064643
0
ARC
8
DEFAULT_255_1_388
10
11.9805012
20
198.2761764
40
0.5277799
50
230.4982261
51
241.8087583
0
ARC
8
DEFAULT_255_1_388
10
11.8922783
20
198.1637686
40
0.3849419
50
227.4062979
51
229.9877433
0
ARC
8
DEFAULT_255_1_388
10
11.8374129
20
198.1102155
40
0.3084129
50
200.6782127
51
228.1765252
0
ARC
8
DEFAULT_255_1_388
10
11.8455498
20
198.1085277
40
0.315461
50
179.506278
51
199.8695278
0
ARC
8
DEFAULT_255_1_388
10
11.8445087
20
198.1168671
40
0.3144584
50
132.4834401
51
181.0242352
0
ARC
8
DEFAULT_255_1_388
10
11.9114291
20
198.0536788
40
0.4063094
50
129.2526113
51
133.4249077
0
ARC
8
DEFAULT_255_1_388
10
11.9279884
20
198.0288619
40
0.436014
50
101.9878945
51
128.8741833
0
ARC
8
DEFAULT_255_1_388
10
11.9728299
20
197.835236
40
0.6347415
50
89.5906376
51
102.3170567
0
ARC
8
DEFAULT_255_1_388
10
11.9807611
20
197.8710586
40
0.5989122
50
77.2359491
51
90.3248968
0
ARC
8
DEFAULT_255_1_388
10
12.0040542
20
197.9798554
40
0.4876594
50
63.8379856
51
77.0808925
0
ARC
8
DEFAULT_255_1_388
10
12.0353075
20
198.0380882
40
0.4216191
50
45.9863127
51
64.1608798
0
ARC
8
DEFAULT_255_1_388
10
12.0646469
20
198.071599
40
0.3771394
50
32.2747934
51
45.6544796
0
ARC
8
DEFAULT_255_1_388
10
12.0721275
20
198.0737426
40
0.3696765
50
359.6507495
51
32.6129943
0
ARC
8
DEFAULT_255_1_388
10
11.9660458
20
198.0742788
40
0.3013762
50
359.469654
51
14.983205
0
ARC
8
DEFAULT_255_1_388
10
12.045371
20
198.0955288
40
0.2192542
50
14.9781954
51
48.2004799
0
ARC
8
DEFAULT_255_1_388
10
12.0268821
20
198.0722937
40
0.2489048
50
48.5926661
51
74.1242559
0
ARC
8
DEFAULT_255_1_388
10
11.9893624
20
197.9484607
40
0.3782845
50
73.7889321
51
86.6653996
0
ARC
8
DEFAULT_255_1_388
10
11.9778438
20
197.8126955
40
0.5145025
50
86.2642725
51
90.0533288
0
ARC
8
DEFAULT_255_1_388
10
11.9746531
20
197.8571376
40
0.4700681
50
89.669455
51
99.2313411
0
ARC
8
DEFAULT_255_1_388
10
11.9473691
20
198.0196401
40
0.3052945
50
99.0695987
51
113.7659242
0
ARC
8
DEFAULT_255_1_388
10
11.9165685
20
198.0922772
40
0.226407
50
114.0402885
51
127.9848946
0
ARC
8
DEFAULT_255_1_388
10
11.8895161
20
198.1255884
40
0.1835045
50
127.7287217
51
176.7106493
0
ARC
8
DEFAULT_255_1_388
10
11.9658826
20
198.114221
40
0.2604907
50
175.1780759
51
180.0581213
0
ARC
8
DEFAULT_255_1_388
10
11.871017
20
198.1128411
40
0.1656287
50
179.6140658
51
228.124674
0
ARC
8
DEFAULT_255_1_388
10
11.9207527
20
198.158894
40
0.2332038
50
226.5785315
51
230.8792476
0
ARC
8
DEFAULT_255_1_388
10
11.9737014
20
198.2291908
40
0.3211664
50
231.4636401
51
241.9261664
0
ARC
8
DEFAULT_255_1_388
10
12.1083797
20
198.4770349
40
0.6032345
50
241.7177136
51
248.3259138
0
ARC
8
DEFAULT_255_1_388
10
12.2642392
20
198.8631771
40
1.0196417
50
248.2007377
51
252.4527713
0
ARC
8
DEFAULT_255_1_388
10
12.3995919
20
199.2816092
40
1.4594143
50
252.3388938
51
254.347037
0
ARC
8
DEFAULT_255_1_388
10
11.5511219
20
196.2468095
40
1.6917621
50
71.0197462
51
74.4085467
0
ARC
8
DEFAULT_255_1_388
10
11.7418307
20
196.7973144
40
1.1091618
50
66.1845203
51
71.086519
0
ARC
8
DEFAULT_255_1_388
10
11.9168856
20
197.1914439
40
0.6779073
50
59.3537334
51
66.269255
0
ARC
8
DEFAULT_255_1_388
10
12.0168582
20
197.3605777
40
0.4814366
50
49.1021732
51
59.3294421
0
ARC
8
DEFAULT_255_1_388
10
12.108957
20
197.4655575
40
0.3417875
50
32.7924183
51
49.2503526
0
ARC
8
DEFAULT_255_1_388
10
12.1439185
20
197.4905311
40
0.2988789
50
31.121225
51
32.3977355
0
ARC
8
DEFAULT_255_1_388
10
12.1351363
20
197.4872728
40
0.3080861
50
8.1116803
51
30.7958224
0
ARC
8
DEFAULT_255_1_388
10
12.0439708
20
197.4717437
40
0.4005385
50
359.8390945
51
8.4707348
0
ARC
8
DEFAULT_255_1_388
10
12.1143756
20
197.4662751
40
0.3301608
50
337.4732479
51
0.7538283
0
ARC
8
DEFAULT_255_1_388
10
12.1344781
20
197.4640554
40
0.3107929
50
307.5917028
51
336.4313755
0
ARC
8
DEFAULT_255_1_388
10
12.0833839
20
197.5208509
40
0.3870096
50
307.6560665
51
308.4561779
0
ARC
8
DEFAULT_255_1_388
10
12.0568055
20
197.5616832
40
0.435591
50
284.3733666
51
307.1426212
0
ARC
8
DEFAULT_255_1_388
10
12.0010949
20
197.7666391
40
0.6479685
50
272.4384566
51
284.6464689
0
ARC
8
DEFAULT_255_1_388
10
11.9868334
20
197.9690434
40
0.8508149
50
269.9708517
51
272.8180721
0
ARC
8
DEFAULT_255_1_388
10
11.9820017
20
197.7398283
40
0.6216151
50
248.2707343
51
270.4054609
0
ARC
8
DEFAULT_255_1_388
10
11.9758888
20
197.7183673
40
0.5994203
50
246.1380358
51
248.054058
0
ARC
8
DEFAULT_255_1_388
10
11.9288031
20
197.6194705
40
0.4899388
50
233.1671897
51
246.4951656
0
ARC
8
DEFAULT_255_1_388
10
11.8664666
20
197.5353137
40
0.3852115
50
215.3403381
51
233.084328
0
ARC
8
DEFAULT_255_1_388
10
11.835803
20
197.5130093
40
0.3472969
50
179.2419235
51
215.2648426
0
ARC
8
DEFAULT_255_1_388
10
11.9221581
20
197.5145979
40
0.259251
50
179.3355796
51
199.1045873
0
ARC
8
DEFAULT_255_1_388
10
11.8847723
20
197.5048223
40
0.2207454
50
199.8830064
51
232.7061328
0
ARC
8
DEFAULT_255_1_388
10
11.9378997
20
197.5716456
40
0.306101
50
232.3736206
51
255.5136621
0
ARC
8
DEFAULT_255_1_388
10
11.9762503
20
197.7116177
40
0.4512213
50
255.2447928
51
267.5318292
0
ARC
8
DEFAULT_255_1_388
10
11.986097
20
197.8502709
40
0.5901825
50
267.1564563
51
270.0294721
0
ARC
8
DEFAULT_255_1_388
10
11.9892295
20
197.8003623
40
0.5402814
50
269.6999944
51
278.1662446
0
ARC
8
DEFAULT_255_1_388
10
12.0180323
20
197.6056974
40
0.3435003
50
278.0229022
51
290.6255326
0
ARC
8
DEFAULT_255_1_388
10
12.0571489
20
197.5013547
40
0.2320666
50
290.6616368
51
307.0374127
0
ARC
8
DEFAULT_255_1_388
10
12.0909389
20
197.459904
40
0.1786372
50
306.3942078
51
355.303191
0
ARC
8
DEFAULT_255_1_388
10
12.0333682
20
197.4685186
40
0.2367516
50
354.3662092
51
0.0709489
0
ARC
8
DEFAULT_255_1_388
10
12.0493551
20
197.4710561
40
0.2207761
50
359.4175379
51
16.1975911
0
ARC
8
DEFAULT_255_1_388
10
12.1005669
20
197.4850954
40
0.1676828
50
16.4721294
51
52.6261798
0
ARC
8
DEFAULT_255_1_388
10
12.0082177
20
197.3631606
40
0.3206412
50
52.7381828
51
62.4979144
0
ARC
8
DEFAULT_255_1_388
10
11.8523929
20
197.0699236
40
0.6527035
50
62.2517425
51
68.1219454
0
ARC
8
DEFAULT_255_1_388
10
11.6589417
20
196.5944951
40
1.1659797
50
68.006043
51
71.8055127
0
ARC
8
DEFAULT_255_1_388
10
11.4569325
20
195.9886723
40
1.8045908
50
71.718361
51
73.9260743
0
LINE
8
DEFAULT_255_1_388
10
12.9884536
20
197.7633737
11
12.9884536
21
197.6269355
0
LINE
8
DEFAULT_255_1_388
10
12.9884536
20
197.6269355
11
12.5475141
21
197.6269355
0
LINE
8
DEFAULT_255_1_388
10
12.5475141
20
197.6269355
11
12.5475141
21
197.7633737
0
LINE
8
DEFAULT_255_1_388
10
12.5475141
20
197.7633737
11
12.9884536
21
197.7633737
0
LINE
8
DEFAULT_255_1_388
10
14.0501418
20
198.0714892
11
13.8757539
21
198.0714892
0
LINE
8
DEFAULT_255_1_388
10
13.0968813
20
197.5176042
11
13.2712692
21
197.5176042
0
ARC
8
DEFAULT_255_1_388
10
13.9498266
20
199.0778821
40
1.4087688
50
248.9196578
51
254.1442424
0
ARC
8
DEFAULT_255_1_388
10
13.7608146
20
198.5912805
40
0.8867498
50
241.6337352
51
249.0064643
0
ARC
8
DEFAULT_255_1_388
10
13.5888459
20
198.2761764
40
0.5277799
50
230.4982261
51
241.8087583
0
ARC
8
DEFAULT_255_1_388
10
13.500623
20
198.1637686
40
0.3849419
50
227.4062979
51
229.9877433
0
ARC
8
DEFAULT_255_1_388
10
13.4457577
20
198.1102155
40
0.3084129
50
200.6782127
51
228.1765252
0
ARC
8
DEFAULT_255_1_388
10
13.4538946
20
198.1085277
40
0.315461
50
179.506278
51
199.8695278
0
ARC
8
DEFAULT_255_1_388
10
13.4528534
20
198.1168671
40
0.3144584
50
132.4834401
51
181.0242352
0
ARC
8
DEFAULT_255_1_388
10
13.5197739
20
198.0536788
40
0.4063094
50
129.2526113
51
133.4249077
0
ARC
8
DEFAULT_255_1_388
10
13.5363331
20
198.0288619
40
0.436014
50
101.9878945
51
128.8741833
0
ARC
8
DEFAULT_255_1_388
10
13.5811747
20
197.835236
40
0.6347415
50
89.5906376
51
102.3170567
0
ARC
8
DEFAULT_255_1_388
10
13.5891058
20
197.8710586
40
0.5989122
50
77.2359491
51
90.3248968
0
ARC
8
DEFAULT_255_1_388
10
13.6123989
20
197.9798554
40
0.4876594
50
63.8379856
51
77.0808925
0
ARC
8
DEFAULT_255_1_388
10
13.6436523
20
198.0380882
40
0.4216191
50
45.9863127
51
64.1608798
0
ARC
8
DEFAULT_255_1_388
10
13.6729916
20
198.071599
40
0.3771394
50
32.2747934
51
45.6544796
0
ARC
8
DEFAULT_255_1_388
10
13.6804723
20
198.0737426
40
0.3696765
50
359.6507495
51
32.6129943
0
ARC
8
DEFAULT_255_1_388
10
13.5743905
20
198.0742788
40
0.3013762
50
359.469654
51
14.983205
0
ARC
8
DEFAULT_255_1_388
10
13.6537158
20
198.0955288
40
0.2192542
50
14.9781954
51
48.2004799
0
ARC
8
DEFAULT_255_1_388
10
13.6352268
20
198.0722937
40
0.2489048
50
48.5926661
51
74.1242559
0
ARC
8
DEFAULT_255_1_388
10
13.5977071
20
197.9484607
40
0.3782845
50
73.7889321
51
86.6653996
0
ARC
8
DEFAULT_255_1_388
10
13.5861885
20
197.8126955
40
0.5145025
50
86.2642725
51
90.0533288
0
ARC
8
DEFAULT_255_1_388
10
13.5829978
20
197.8571376
40
0.4700681
50
89.669455
51
99.2313411
0
ARC
8
DEFAULT_255_1_388
10
13.5557138
20
198.0196401
40
0.3052945
50
99.0695987
51
113.7659242
0
ARC
8
DEFAULT_255_1_388
10
13.5249132
20
198.0922772
40
0.226407
50
114.0402885
51
127.9848946
0
ARC
8
DEFAULT_255_1_388
10
13.4978608
20
198.1255884
40
0.1835045
50
127.7287217
51
176.7106493
0
ARC
8
DEFAULT_255_1_388
10
13.5742274
20
198.114221
40
0.2604907
50
175.1780759
51
180.0581213
0
ARC
8
DEFAULT_255_1_388
10
13.4793617
20
198.1128411
40
0.1656287
50
179.6140658
51
228.124674
0
ARC
8
DEFAULT_255_1_388
10
13.5290975
20
198.158894
40
0.2332038
50
226.5785315
51
230.8792476
0
ARC
8
DEFAULT_255_1_388
10
13.5820461
20
198.2291908
40
0.3211664
50
231.4636401
51
241.9261664
0
ARC
8
DEFAULT_255_1_388
10
13.7167245
20
198.4770349
40
0.6032345
50
241.7177136
51
248.3259138
0
ARC
8
DEFAULT_255_1_388
10
13.8725839
20
198.8631771
40
1.0196417
50
248.2007377
51
252.4527713
0
ARC
8
DEFAULT_255_1_388
10
14.0079366
20
199.2816092
40
1.4594143
50
252.3388938
51
254.347037
0
ARC
8
DEFAULT_255_1_388
10
13.1594667
20
196.2468095
40
1.6917621
50
71.0197462
51
74.4085467
0
ARC
8
DEFAULT_255_1_388
10
13.3501754
20
196.7973144
40
1.1091618
50
66.1845203
51
71.086519
0
ARC
8
DEFAULT_255_1_388
10
13.5252303
20
197.1914439
40
0.6779073
50
59.3537334
51
66.269255
0
ARC
8
DEFAULT_255_1_388
10
13.6252029
20
197.3605777
40
0.4814366
50
49.1021732
51
59.3294421
0
ARC
8
DEFAULT_255_1_388
10
13.7173018
20
197.4655575
40
0.3417875
50
32.7924183
51
49.2503526
0
ARC
8
DEFAULT_255_1_388
10
13.7522632
20
197.4905311
40
0.2988789
50
31.121225
51
32.3977355
0
ARC
8
DEFAULT_255_1_388
10
13.743481
20
197.4872728
40
0.3080861
50
8.1116803
51
30.7958224
0
ARC
8
DEFAULT_255_1_388
10
13.6523155
20
197.4717437
40
0.4005385
50
359.8390945
51
8.4707348
0
ARC
8
DEFAULT_255_1_388
10
13.7227203
20
197.4662751
40
0.3301608
50
337.4732479
51
0.7538283
0
ARC
8
DEFAULT_255_1_388
10
13.7428228
20
197.4640554
40
0.3107929
50
307.5917028
51
336.4313755
0
ARC
8
DEFAULT_255_1_388
10
13.6917286
20
197.5208509
40
0.3870096
50
307.6560665
51
308.4561779
0
ARC
8
DEFAULT_255_1_388
10
13.6651502
20
197.5616832
40
0.435591
50
284.3733666
51
307.1426212
0
ARC
8
DEFAULT_255_1_388
10
13.6094397
20
197.7666391
40
0.6479685
50
272.4384566
51
284.6464689
0
ARC
8
DEFAULT_255_1_388
10
13.5951782
20
197.9690434
40
0.8508149
50
269.9708517
51
272.8180721
0
ARC
8
DEFAULT_255_1_388
10
13.5903464
20
197.7398283
40
0.6216151
50
248.2707343
51
270.4054609
0
ARC
8
DEFAULT_255_1_388
10
13.5842336
20
197.7183673
40
0.5994203
50
246.1380358
51
248.054058
0
ARC
8
DEFAULT_255_1_388
10
13.5371478
20
197.6194705
40
0.4899388
50
233.1671897
51
246.4951656
0
ARC
8
DEFAULT_255_1_388
10
13.4748113
20
197.5353137
40
0.3852115
50
215.3403381
51
233.084328
0
ARC
8
DEFAULT_255_1_388
10
13.4441477
20
197.5130093
40
0.3472969
50
179.2419235
51
215.2648426
0
ARC
8
DEFAULT_255_1_388
10
13.5305028
20
197.5145979
40
0.259251
50
179.3355796
51
199.1045873
0
ARC
8
DEFAULT_255_1_388
10
13.493117
20
197.5048223
40
0.2207454
50
199.8830064
51
232.7061328
0
ARC
8
DEFAULT_255_1_388
10
13.5462445
20
197.5716456
40
0.306101
50
232.3736206
51
255.5136621
0
ARC
8
DEFAULT_255_1_388
10
13.584595
20
197.7116177
40
0.4512213
50
255.2447928
51
267.5318292
0
ARC
8
DEFAULT_255_1_388
10
13.5944417
20
197.8502709
40
0.5901825
50
267.1564563
51
270.0294721
0
ARC
8
DEFAULT_255_1_388
10
13.5975743
20
197.8003623
40
0.5402814
50
269.6999944
51
278.1662446
0
ARC
8
DEFAULT_255_1_388
10
13.626377
20
197.6056974
40
0.3435003
50
278.0229022
51
290.6255326
0
ARC
8
DEFAULT_255_1_388
10
13.6654937
20
197.5013547
40
0.2320666
50
290.6616368
51
307.0374127
0
ARC
8
DEFAULT_255_1_388
10
13.6992837
20
197.459904
40
0.1786372
50
306.3942078
51
355.303191
0
ARC
8
DEFAULT_255_1_388
10
13.641713
20
197.4685186
40
0.2367516
50
354.3662092
51
0.0709489
0
ARC
8
DEFAULT_255_1_388
10
13.6576998
20
197.4710561
40
0.2207761
50
359.4175379
51
16.1975911
0
ARC
8
DEFAULT_255_1_388
10
13.7089116
20
197.4850954
40
0.1676828
50
16.4721294
51
52.6261798
0
ARC
8
DEFAULT_255_1_388
10
13.6165624
20
197.3631606
40
0.3206412
50
52.7381828
51
62.4979144
0
ARC
8
DEFAULT_255_1_388
10
13.4607376
20
197.0699236
40
0.6527035
50
62.2517425
51
68.1219454
0
ARC
8
DEFAULT_255_1_388
10
13.2672864
20
196.5944951
40
1.1659797
50
68.006043
51
71.8055127
0
ARC
8
DEFAULT_255_1_388
10
13.0652772
20
195.9886723
40
1.8045908
50
71.718361
51
73.9260743
0
LINE
8
DEFAULT_255_1_388
10
14.2064584
20
197.5980214
11
14.2064584
21
197.6287426
0
LINE
8
DEFAULT_255_1_388
10
15.0359306
20
197.6468139
11
15.0359306
21
197.5772395
0
LINE
8
DEFAULT_255_1_388
10
15.0359306
20
197.5772395
11
14.3736179
21
197.5772395
0
LINE
8
DEFAULT_255_1_388
10
14.9211779
20
197.3865874
11
15.0232807
21
197.3070737
0
LINE
8
DEFAULT_255_1_388
10
14.3790393
20
197.7145813
11
14.8687712
21
197.7145813
0
LINE
8
DEFAULT_255_1_388
10
14.8687712
20
197.7145813
11
14.8687712
21
197.7272312
0
ARC
8
DEFAULT_255_1_388
10
14.6496346
20
197.610521
40
0.4923176
50
252.326534
51
270.5809615
0
ARC
8
DEFAULT_255_1_388
10
14.626581
20
197.527194
40
0.4059384
50
223.3000488
51
251.8562489
0
ARC
8
DEFAULT_255_1_388
10
14.650359
20
197.5502898
40
0.4390832
50
190.9374369
51
223.3654369
0
ARC
8
DEFAULT_255_1_388
10
14.8444268
20
197.5941598
40
0.63798
50
179.6531919
51
191.4988561
0
ARC
8
DEFAULT_255_1_388
10
14.8581295
20
197.6323571
40
0.6516811
50
167.4005523
51
180.3177836
0
ARC
8
DEFAULT_255_1_388
10
14.7397966
20
197.6573853
40
0.5307402
50
154.1835149
51
167.2508278
0
ARC
8
DEFAULT_255_1_388
10
14.6687557
20
197.6947925
40
0.4505076
50
134.3150225
51
154.5315008
0
ARC
8
DEFAULT_255_1_388
10
14.6442892
20
197.716255
40
0.4180662
50
122.8617482
51
133.9707159
0
ARC
8
DEFAULT_255_1_388
10
14.6326499
20
197.7412882
40
0.3907416
50
89.8248474
51
123.4199325
0
ARC
8
DEFAULT_255_1_388
10
14.6382797
20
197.6685352
40
0.4635141
50
74.7874349
51
90.5482648
0
ARC
8
DEFAULT_255_1_388
10
14.6713261
20
197.7905987
40
0.3370565
50
39.8178888
51
74.7634383
0
ARC
8
DEFAULT_255_1_388
10
14.6136504
20
197.7456356
40
0.4101553
50
16.8990848
51
39.4830125
0
ARC
8
DEFAULT_255_1_388
10
14.4005118
20
197.6773711
40
0.6339427
50
4.9634768
51
17.2027767
0
ARC
8
DEFAULT_255_1_388
10
14.1284523
20
197.64866
40
0.9074803
50
359.8834402
51
5.2832409
0
ARC
8
DEFAULT_255_1_388
10
14.807688
20
197.5846981
40
0.4341343
50
180.9844233
51
194.9402766
0
ARC
8
DEFAULT_255_1_388
10
14.6896046
20
197.552417
40
0.3117211
50
194.8030557
51
222.0412897
0
ARC
8
DEFAULT_255_1_388
10
14.6553918
20
197.5184715
40
0.2635903
50
221.541578
51
268.8616004
0
ARC
8
DEFAULT_255_1_388
10
14.6636039
20
197.594528
40
0.3398611
50
267.7321071
51
270.009808
0
ARC
8
DEFAULT_255_1_388
10
14.6656102
20
197.6172178
40
0.3625561
50
269.6921218
51
280.4122297
0
ARC
8
DEFAULT_255_1_388
10
14.6854514
20
197.5138767
40
0.2573323
50
280.2257165
51
298.633539
0
ARC
8
DEFAULT_255_1_388
10
14.6979928
20
197.4874578
40
0.2281403
50
299.0485543
51
300.4624141
0
ARC
8
DEFAULT_255_1_388
10
14.6220908
20
197.6139796
40
0.3756797
50
300.6578578
51
322.037749
0
ARC
8
DEFAULT_255_1_388
10
14.5850429
20
197.6463266
40
0.4247956
50
321.671786
51
322.3059078
0
ARC
8
DEFAULT_255_1_388
10
14.6873992
20
197.5169267
40
0.3960488
50
276.9729088
51
328.0035579
0
ARC
8
DEFAULT_255_1_388
10
14.6562463
20
197.6834609
40
0.5652345
50
269.8358003
51
278.0581296
0
ARC
8
DEFAULT_255_1_388
10
14.6306762
20
197.767282
40
0.2274263
50
89.2017936
51
117.2852353
0
ARC
8
DEFAULT_255_1_388
10
14.6366513
20
197.7625637
40
0.2343798
50
118.0546404
51
137.4544511
0
ARC
8
DEFAULT_255_1_388
10
14.6788156
20
197.7242556
40
0.2913471
50
137.5109688
51
158.8516701
0
ARC
8
DEFAULT_255_1_388
10
14.8068257
20
197.6725902
40
0.4293804
50
158.5845496
51
170.1719753
0
ARC
8
DEFAULT_255_1_388
10
14.9384592
20
197.6464519
40
0.5635533
50
169.8378964
51
173.0563877
0
ARC
8
DEFAULT_255_1_388
10
14.4099876
20
197.7039187
40
0.4593755
50
2.9089079
51
12.88469
0
ARC
8
DEFAULT_255_1_388
10
14.5641796
20
197.7402082
40
0.3009753
50
12.6957404
51
28.6405841
0
ARC
8
DEFAULT_255_1_388
10
14.6251292
20
197.7717577
40
0.232366
50
29.016559
51
41.1492981
0
ARC
8
DEFAULT_255_1_388
10
14.6479271
20
197.791608
40
0.2021373
50
41.1646967
51
85.001362
0
ARC
8
DEFAULT_255_1_388
10
14.6343275
20
197.7089775
40
0.2857091
50
83.728216
51
90.0968824
0
LINE
8
DEFAULT_255_1_388
10
15.7018576
20
198.1193781
11
15.7018576
21
197.963965
0
LINE
8
DEFAULT_255_1_388
10
15.3964528
20
197.8302375
11
15.3964528
21
197.1363
0
LINE
8
DEFAULT_255_1_388
10
15.3964528
20
197.1363
11
15.2292934
21
197.1363
0
LINE
8
DEFAULT_255_1_388
10
15.2292934
20
197.1363
11
15.2292934
21
198.1139567
0
LINE
8
DEFAULT_255_1_388
10
15.2292934
20
198.1139567
11
15.391935
21
198.1139567
0
LINE
8
DEFAULT_255_1_388
10
15.391935
20
198.1139567
11
15.3946457
21
198.0010112
0
ARC
8
DEFAULT_255_1_388
10
15.6268736
20
197.5073068
40
0.4627735
50
80.6751522
51
86.893806
0
ARC
8
DEFAULT_255_1_388
10
15.6200566
20
197.3981103
40
0.5721798
50
86.8046851
51
90.0423898
0
ARC
8
DEFAULT_255_1_388
10
15.6158985
20
197.6748197
40
0.2954939
50
89.2758283
51
106.6212906
0
ARC
8
DEFAULT_255_1_388
10
15.592901
20
197.7584009
40
0.2088351
50
107.1347109
51
157.6456887
0
ARC
8
DEFAULT_255_1_388
10
15.6697072
20
197.7156908
40
0.296292
50
155.6557383
51
157.256838
0
ARC
8
DEFAULT_255_1_388
10
15.6476687
20
197.8467472
40
0.296341
50
127.8167201
51
148.6300223
0
ARC
8
DEFAULT_255_1_388
10
15.6191434
20
197.8760066
40
0.2557782
50
91.3329934
51
126.7875218
0
ARC
8
DEFAULT_255_1_388
10
15.6276821
20
197.7956718
40
0.3363561
50
89.9858247
51
92.4688453
0
ARC
8
DEFAULT_255_1_388
10
15.6286314
20
197.8265114
40
0.3055179
50
85.3587643
51
90.1624243
0
ARC
8
DEFAULT_255_1_388
10
15.6381379
20
197.9394458
40
0.1921848
50
78.4019195
51
85.4592653
0
ARC
8
DEFAULT_255_1_388
10
15.654444
20
198.0172142
40
0.1127267
50
67.7849217
51
78.573798
0
ARC
8
DEFAULT_255_1_388
10
15.6666074
20
198.0487374
40
0.0789473
50
63.4805074
51
67.3074739
0
LINE
8
DEFAULT_255_1_388
10
16.03708
20
198.1139567
11
16.03708
21
197.1363
0
LINE
8
DEFAULT_255_1_388
10
16.03708
20
197.1363
11
15.8699206
21
197.1363
0
LINE
8
DEFAULT_255_1_388
10
15.8699206
20
197.1363
11
15.8699206
21
198.1139567
0
LINE
8
DEFAULT_255_1_388
10
15.8699206
20
198.1139567
11
16.03708
21
198.1139567
0
ARC
8
DEFAULT_255_1_388
10
15.9664568
20
198.3743428
40
0.1100948
50
161.4148232
51
180.5532607
0
ARC
8
DEFAULT_255_1_388
10
15.9524878
20
198.3781875
40
0.0956324
50
138.1830164
51
160.9307633
0
ARC
8
DEFAULT_255_1_388
10
15.9401065
20
198.3889313
40
0.0792417
50
104.6371663
51
138.0036136
0
ARC
8
DEFAULT_255_1_388
10
15.9521604
20
198.3476963
40
0.1221906
50
92.0601206
51
105.2198859
0
ARC
8
DEFAULT_255_1_388
10
15.9547968
20
198.3088583
40
0.161103
50
89.9790681
51
92.5006086
0
ARC
8
DEFAULT_255_1_388
10
15.9559144
20
198.3344998
40
0.1354654
50
78.0234649
51
90.4478111
0
ARC
8
DEFAULT_255_1_388
10
15.9662729
20
198.3810203
40
0.0878096
50
55.0521508
51
78.336297
0
ARC
8
DEFAULT_255_1_388
10
15.9719263
20
198.3905168
40
0.0767913
50
42.0506198
51
54.4508489
0
ARC
8
DEFAULT_255_1_388
10
15.9567296
20
198.3765821
40
0.0974091
50
1.7493657
51
42.1498724
0
ARC
8
DEFAULT_255_1_388
10
15.9281202
20
198.3733166
40
0.1261276
50
359.9832635
51
2.8353994
0
ARC
8
DEFAULT_255_1_388
10
15.9467611
20
198.3722412
40
0.1074916
50
342.1062453
51
0.5535864
0
ARC
8
DEFAULT_255_1_388
10
15.9628036
20
198.3678197
40
0.0908695
50
316.7110111
51
341.6513114
0
ARC
8
DEFAULT_255_1_388
10
15.9703467
20
198.3610607
40
0.0807447
50
285.4398289
51
316.5320129
0
ARC
8
DEFAULT_255_1_388
10
15.9579638
20
198.4022023
40
0.1237022
50
272.3543902
51
285.8951677
0
ARC
8
DEFAULT_255_1_388
10
15.9549348
20
198.4437742
40
0.1653687
50
269.9725761
51
272.8112722
0
ARC
8
DEFAULT_255_1_388
10
15.95384
20
198.4186727
40
0.1402709
50
258.8433431
51
270.4148607
0
ARC
8
DEFAULT_255_1_388
10
15.943718
20
198.3696739
40
0.0902407
50
238.54281
51
259.1289544
0
ARC
8
DEFAULT_255_1_388
10
15.9360502
20
198.3557694
40
0.0743817
50
222.5056676
51
237.9918132
0
ARC
8
DEFAULT_255_1_388
10
15.9504095
20
198.3688295
40
0.0937918
50
184.1070774
51
222.4604165
0
ARC
8
DEFAULT_255_1_388
10
15.9806509
20
198.3731538
40
0.1242838
50
179.9419581
51
185.0970785
0
LINE
8
DEFAULT_255_1_388
10
16.2620676
20
197.5980214
11
16.2620676
21
197.6287426
0
LINE
8
DEFAULT_255_1_388
10
17.0915397
20
197.6468139
11
17.0915397
21
197.5772395
0
LINE
8
DEFAULT_255_1_388
10
17.0915397
20
197.5772395
11
16.429227
21
197.5772395
0
LINE
8
DEFAULT_255_1_388
10
16.9767871
20
197.3865874
11
17.0788898
21
197.3070737
0
LINE
8
DEFAULT_255_1_388
10
16.4346484
20
197.7145813
11
16.9243803
21
197.7145813
0
LINE
8
DEFAULT_255_1_388
10
16.9243803
20
197.7145813
11
16.9243803
21
197.7272312
0
ARC
8
DEFAULT_255_1_388
10
16.7052437
20
197.610521
40
0.4923176
50
252.326534
51
270.5809615
0
ARC
8
DEFAULT_255_1_388
10
16.6821901
20
197.527194
40
0.4059384
50
223.3000488
51
251.8562489
0
ARC
8
DEFAULT_255_1_388
10
16.7059681
20
197.5502898
40
0.4390832
50
190.9374369
51
223.3654369
0
ARC
8
DEFAULT_255_1_388
10
16.9000359
20
197.5941598
40
0.63798
50
179.6531919
51
191.4988561
0
ARC
8
DEFAULT_255_1_388
10
16.9137386
20
197.6323571
40
0.6516811
50
167.4005523
51
180.3177836
0
ARC
8
DEFAULT_255_1_388
10
16.7954057
20
197.6573853
40
0.5307402
50
154.1835149
51
167.2508278
0
ARC
8
DEFAULT_255_1_388
10
16.7243648
20
197.6947925
40
0.4505076
50
134.3150225
51
154.5315008
0
ARC
8
DEFAULT_255_1_388
10
16.6998983
20
197.716255
40
0.4180662
50
122.8617482
51
133.9707159
0
ARC
8
DEFAULT_255_1_388
10
16.6882591
20
197.7412882
40
0.3907416
50
89.8248474
51
123.4199325
0
ARC
8
DEFAULT_255_1_388
10
16.6938889
20
197.6685352
40
0.4635141
50
74.7874349
51
90.5482648
0
ARC
8
DEFAULT_255_1_388
10
16.7269353
20
197.7905987
40
0.3370565
50
39.8178888
51
74.7634383
0
ARC
8
DEFAULT_255_1_388
10
16.6692595
20
197.7456356
40
0.4101553
50
16.8990848
51
39.4830125
0
ARC
8
DEFAULT_255_1_388
10
16.4561209
20
197.6773711
40
0.6339427
50
4.9634768
51
17.2027767
0
ARC
8
DEFAULT_255_1_388
10
16.1840614
20
197.64866
40
0.9074803
50
359.8834402
51
5.2832409
0
ARC
8
DEFAULT_255_1_388
10
16.8632972
20
197.5846981
40
0.4341343
50
180.9844233
51
194.9402766
0
ARC
8
DEFAULT_255_1_388
10
16.7452137
20
197.552417
40
0.3117211
50
194.8030557
51
222.0412897
0
ARC
8
DEFAULT_255_1_388
10
16.711001
20
197.5184715
40
0.2635903
50
221.541578
51
268.8616004
0
ARC
8
DEFAULT_255_1_388
10
16.719213
20
197.594528
40
0.3398611
50
267.7321071
51
270.009808
0
ARC
8
DEFAULT_255_1_388
10
16.7212194
20
197.6172178
40
0.3625561
50
269.6921218
51
280.4122297
0
ARC
8
DEFAULT_255_1_388
10
16.7410605
20
197.5138767
40
0.2573323
50
280.2257165
51
298.633539
0
ARC
8
DEFAULT_255_1_388
10
16.7536019
20
197.4874578
40
0.2281403
50
299.0485543
51
300.4624141
0
ARC
8
DEFAULT_255_1_388
10
16.6776999
20
197.6139796
40
0.3756797
50
300.6578578
51
322.037749
0
ARC
8
DEFAULT_255_1_388
10
16.6406521
20
197.6463266
40
0.4247956
50
321.671786
51
322.3059078
0
ARC
8
DEFAULT_255_1_388
10
16.7430084
20
197.5169267
40
0.3960488
50
276.9729088
51
328.0035579
0
ARC
8
DEFAULT_255_1_388
10
16.7118554
20
197.6834609
40
0.5652345
50
269.8358003
51
278.0581296
0
ARC
8
DEFAULT_255_1_388
10
16.6862853
20
197.767282
40
0.2274263
50
89.2017936
51
117.2852353
0
ARC
8
DEFAULT_255_1_388
10
16.6922604
20
197.7625637
40
0.2343798
50
118.0546404
51
137.4544511
0
ARC
8
DEFAULT_255_1_388
10
16.7344247
20
197.7242556
40
0.2913471
50
137.5109688
51
158.8516701
0
ARC
8
DEFAULT_255_1_388
10
16.8624348
20
197.6725902
40
0.4293804
50
158.5845496
51
170.1719753
0
ARC
8
DEFAULT_255_1_388
10
16.9940684
20
197.6464519
40
0.5635533
50
169.8378964
51
173.0563877
0
ARC
8
DEFAULT_255_1_388
10
16.4655967
20
197.7039187
40
0.4593755
50
2.9089079
51
12.88469
0
ARC
8
DEFAULT_255_1_388
10
16.6197887
20
197.7402082
40
0.3009753
50
12.6957404
51
28.6405841
0
ARC
8
DEFAULT_255_1_388
10
16.6807384
20
197.7717577
40
0.232366
50
29.016559
51
41.1492981
0
ARC
8
DEFAULT_255_1_388
10
16.7035363
20
197.791608
40
0.2021373
50
41.1646967
51
85.001362
0
ARC
8
DEFAULT_255_1_388
10
16.6899367
20
197.7089775
40
0.2857091
50
83.728216
51
90.0968824
0
LINE
8
DEFAULT_255_1_388
10
18.0122719
20
197.8266232
11
17.8442089
21
197.8266232
0
LINE
8
DEFAULT_255_1_388
10
17.2442421
20
197.437187
11
17.4114016
21
197.437187
0
ARC
8
DEFAULT_255_1_388
10
17.710538
20
197.3972935
40
0.1436198
50
359.3335374
51
18.5869869
0
ARC
8
DEFAULT_255_1_388
10
17.734012
20
197.4035015
40
0.1194022
50
19.3538149
51
54.6486387
0
ARC
8
DEFAULT_255_1_388
10
17.6773107
20
197.3253077
40
0.2159877
50
54.3821575
51
65.0627557
0
ARC
8
DEFAULT_255_1_388
10
17.5908454
20
197.1434032
40
0.4173927
50
64.8282172
51
71.4204388
0
ARC
8
DEFAULT_255_1_388
10
17.489335
20
196.8455782
40
0.7320403
50
71.3166092
51
75.8005927
0
ARC
8
DEFAULT_255_1_388
10
17.3947235
20
196.4810881
40
1.108605
50
75.6810806
51
78.0063886
0
ARC
8
DEFAULT_255_1_388
10
17.8951824
20
198.841253
40
1.3040363
50
254.69024
51
258.0465557
0
ARC
8
DEFAULT_255_1_388
10
17.7783693
20
198.4182742
40
0.8652254
50
249.9010634
51
254.7555005
0
ARC
8
DEFAULT_255_1_388
10
17.6654745
20
198.111668
40
0.5384962
50
243.3097375
51
249.970939
0
ARC
8
DEFAULT_255_1_388
10
17.5947159
20
197.9705721
40
0.380652
50
234.4047808
51
243.2861752
0
ARC
8
DEFAULT_255_1_388
10
17.5246795
20
197.8738645
40
0.2612502
50
220.8665526
51
234.5497192
0
ARC
8
DEFAULT_255_1_388
10
17.4861794
20
197.8388203
40
0.2092097
50
214.3063391
51
220.5075055
0
ARC
8
DEFAULT_255_1_388
10
17.4832908
20
197.8353577
40
0.2048755
50
186.9131438
51
213.9617385
0
ARC
8
DEFAULT_255_1_388
10
17.5431298
20
197.8450431
40
0.2654563
50
179.8802037
51
187.4338578
0
ARC
8
DEFAULT_255_1_388
10
17.5257262
20
197.8473049
40
0.2480581
50
132.0053393
51
180.3942351
0
ARC
8
DEFAULT_255_1_388
10
17.5996175
20
197.7790997
40
0.3483116
50
129.2317021
51
133.5294826
0
ARC
8
DEFAULT_255_1_388
10
17.6056144
20
197.7685383
40
0.360291
50
100.440976
51
128.9081567
0
ARC
8
DEFAULT_255_1_388
10
17.6364262
20
197.6239357
40
0.5080996
50
89.6985063
51
100.9029043
0
ARC
8
DEFAULT_255_1_388
10
17.6428416
20
197.6058739
40
0.5261675
50
77.6967144
51
90.4074623
0
ARC
8
DEFAULT_255_1_388
10
17.6800769
20
197.7664503
40
0.3613511
50
50.7278431
51
78.0397473
0
ARC
8
DEFAULT_255_1_388
10
17.7300812
20
197.8247173
40
0.2845966
50
25.754382
51
51.0957456
0
ARC
8
DEFAULT_255_1_388
10
17.7302179
20
197.8303311
40
0.2820785
50
359.2468358
51
24.7393861
0
ARC
8
DEFAULT_255_1_388
10
17.6982066
20
197.8271204
40
0.1460032
50
359.8048924
51
45.1543866
0
ARC
8
DEFAULT_255_1_388
10
17.65238
20
197.7879291
40
0.2061641
50
43.8053172
51
49.625485
0
ARC
8
DEFAULT_255_1_388
10
17.6533242
20
197.7880849
40
0.2054344
50
49.7979696
51
82.121802
0
ARC
8
DEFAULT_255_1_388
10
17.6399325
20
197.7153473
40
0.2793404
50
81.4458692
51
90.1707936
0
ARC
8
DEFAULT_255_1_388
10
17.6371902
20
197.6561478
40
0.3385438
50
89.6768097
51
99.1267111
0
ARC
8
DEFAULT_255_1_388
10
17.6178884
20
197.7724405
40
0.2206627
50
98.9679878
51
113.4573418
0
ARC
8
DEFAULT_255_1_388
10
17.5958564
20
197.8251193
40
0.1635691
50
113.7230234
51
127.4758155
0
ARC
8
DEFAULT_255_1_388
10
17.5769147
20
197.8476433
40
0.1341757
50
126.9086647
51
150.3160891
0
ARC
8
DEFAULT_255_1_388
10
17.5715477
20
197.853368
40
0.1266992
50
151.363328
51
180.0701537
0
ARC
8
DEFAULT_255_1_388
10
17.6025698
20
197.851023
40
0.1577364
50
179.2045432
51
180.0012892
0
ARC
8
DEFAULT_255_1_388
10
17.5656809
20
197.8495515
40
0.1208564
50
179.3040542
51
198.4225767
0
ARC
8
DEFAULT_255_1_388
10
17.5440951
20
197.8439337
40
0.0986126
50
199.2893055
51
238.6036855
0
ARC
8
DEFAULT_255_1_388
10
17.6119044
20
197.9503752
40
0.2248082
50
237.9844191
51
246.8751643
0
ARC
8
DEFAULT_255_1_388
10
17.7083904
20
198.1710861
40
0.4656832
50
246.6226408
51
251.8174794
0
ARC
8
DEFAULT_255_1_388
10
17.8244371
20
198.5195909
40
0.8329993
50
251.7140983
51
255.0775146
0
ARC
8
DEFAULT_255_1_388
10
17.9593896
20
199.0222708
40
1.3534786
50
255.0370864
51
257.4701577
0
ARC
8
DEFAULT_255_1_388
10
17.3846441
20
196.4328535
40
1.298957
50
73.6835762
51
77.5015749
0
ARC
8
DEFAULT_255_1_388
10
17.5071355
20
196.8490699
40
0.8650912
50
68.7042835
51
73.7249997
0
ARC
8
DEFAULT_255_1_388
10
17.6086919
20
197.1107853
40
0.584363
50
63.5907059
51
68.6622978
0
ARC
8
DEFAULT_255_1_388
10
17.695466
20
197.2838157
40
0.3907955
50
54.7106507
51
63.7018033
0
ARC
8
DEFAULT_255_1_388
10
17.7657048
20
197.3819287
40
0.2701345
50
41.0624597
51
54.8488532
0
ARC
8
DEFAULT_255_1_388
10
17.8040826
20
197.4171439
40
0.2180695
50
34.4952722
51
40.7097584
0
ARC
8
DEFAULT_255_1_388
10
17.8093791
20
197.4226204
40
0.2106083
50
9.3761233
51
34.0834046
0
ARC
8
DEFAULT_255_1_388
10
17.735892
20
197.4085174
40
0.2854177
50
359.7695264
51
9.7660556
0
ARC
8
DEFAULT_255_1_388
10
17.7581213
20
197.4036841
40
0.2632121
50
335.8653103
51
0.8022272
0
ARC
8
DEFAULT_255_1_388
10
17.7665618
20
197.4051951
40
0.2561728
50
307.7357819
51
334.7849324
0
ARC
8
DEFAULT_255_1_388
10
17.7220259
20
197.4551553
40
0.3229737
50
307.0217048
51
308.5596894
0
ARC
8
DEFAULT_255_1_388
10
17.6924844
20
197.4993063
40
0.3760237
50
282.9361285
51
306.5649033
0
ARC
8
DEFAULT_255_1_388
10
17.6517905
20
197.6643871
40
0.5460314
50
271.1026197
51
283.2199962
0
ARC
8
DEFAULT_255_1_388
10
17.6446094
20
197.8044744
40
0.6862456
50
269.9926344
51
271.4770056
0
ARC
8
DEFAULT_255_1_388
10
17.6416664
20
197.6827633
40
0.5645418
50
259.0723633
51
270.2897324
0
ARC
8
DEFAULT_255_1_388
10
17.6177889
20
197.5570887
40
0.4366198
50
245.4965026
51
259.0225745
0
ARC
8
DEFAULT_255_1_388
10
17.5865106
20
197.4916491
40
0.3641037
50
228.9686619
51
245.7042678
0
ARC
8
DEFAULT_255_1_388
10
17.556638
20
197.4548573
40
0.3167435
50
214.4015391
51
228.6759028
0
ARC
8
DEFAULT_255_1_388
10
17.5240877
20
197.4370429
40
0.2798456
50
179.9704983
51
215.1574389
0
ARC
8
DEFAULT_255_1_388
10
17.602909
20
197.4453148
40
0.1916798
50
182.430239
51
203.0329751
0
ARC
8
DEFAULT_255_1_388
10
17.5821686
20
197.4389675
40
0.1701248
50
203.7987464
51
232.5483345
0
ARC
8
DEFAULT_255_1_388
10
17.613277
20
197.4785049
40
0.2204299
50
232.3784541
51
256.3934343
0
ARC
8
DEFAULT_255_1_388
10
17.6391917
20
197.5786359
40
0.3238512
50
256.1048329
51
268.4627478
0
ARC
8
DEFAULT_255_1_388
10
17.6444337
20
197.6690297
40
0.4143627
50
268.0734924
51
270.0121004
0
ARC
8
DEFAULT_255_1_388
10
17.6465055
20
197.6376191
40
0.3829573
50
269.7031202
51
278.8338867
0
ARC
8
DEFAULT_255_1_388
10
17.6669919
20
197.5104553
40
0.2541568
50
278.6727378
51
292.82331
0
ARC
8
DEFAULT_255_1_388
10
17.6895466
20
197.4540546
40
0.1934264
50
293.1457581
51
303.6656964
0
ARC
8
DEFAULT_255_1_388
10
17.7193539
20
197.4117159
40
0.1416713
50
303.1245849
51
321.7434683
0
ARC
8
DEFAULT_255_1_388
10
17.740262
20
197.393378
40
0.1139081
50
322.4747616
51
1.1293039
0
LINE
8
DEFAULT_255_1_388
10
4.8840318
20
195.2883382
11
4.8840318
21
195.1519
0
LINE
8
DEFAULT_255_1_388
10
4.8840318
20
195.1519
11
4.0220313
21
195.1519
0
LINE
8
DEFAULT_255_1_388
10
4.0220313
20
195.1519
11
4.0220313
21
195.2720741
0
LINE
8
DEFAULT_255_1_388
10
4.0220313
20
195.2720741
11
4.4774278
21
195.7780702
0
LINE
8
DEFAULT_255_1_388
10
4.1638909
20
196.0798607
11
3.9967315
21
196.0798607
0
LINE
8
DEFAULT_255_1_388
10
4.5759163
20
195.670546
11
4.2235262
21
195.2883382
0
LINE
8
DEFAULT_255_1_388
10
4.2235262
20
195.2883382
11
4.8840318
21
195.2883382
0
ARC
8
DEFAULT_255_1_388
10
2.9598337
20
197.1200983
40
2.0258655
50
318.5132526
51
320.7829045
0
ARC
8
DEFAULT_255_1_388
10
3.5546294
20
196.6359929
40
1.2589638
50
320.7372878
51
323.9739031
0
ARC
8
DEFAULT_255_1_388
10
3.9955226
20
196.3165554
40
0.7145141
50
323.8962701
51
328.64194
0
ARC
8
DEFAULT_255_1_388
10
4.2257484
20
196.1745545
40
0.4440242
50
328.8294576
51
331.7891185
0
ARC
8
DEFAULT_255_1_388
10
4.3379804
20
196.1166374
40
0.3177517
50
331.4254512
51
352.9365785
0
ARC
8
DEFAULT_255_1_388
10
4.3532804
20
196.113205
40
0.3021496
50
353.2257659
51
0.0166158
0
ARC
8
DEFAULT_255_1_388
10
4.3769564
20
196.1157894
40
0.2784847
50
359.486299
51
15.9343185
0
ARC
8
DEFAULT_255_1_388
10
4.4339831
20
196.1311269
40
0.2194403
50
16.1712913
51
43.5286088
0
ARC
8
DEFAULT_255_1_388
10
4.4426776
20
196.1398191
40
0.2071504
50
43.4417391
51
83.1661095
0
ARC
8
DEFAULT_255_1_388
10
4.4275937
20
196.0569316
40
0.2912888
50
82.160179
51
90.1505708
0
ARC
8
DEFAULT_255_1_388
10
4.4240418
20
195.9965279
40
0.3517025
50
89.5460741
51
102.5418361
0
ARC
8
DEFAULT_255_1_388
10
4.3967138
20
196.1124933
40
0.2325748
50
102.1738499
51
129.206123
0
ARC
8
DEFAULT_255_1_388
10
4.3878592
20
196.1264664
40
0.2161591
50
129.72865
51
135.753947
0
ARC
8
DEFAULT_255_1_388
10
4.4015074
20
196.1155728
40
0.2335433
50
136.1757367
51
166.3673339
0
ARC
8
DEFAULT_255_1_388
10
4.5147762
20
196.0852148
40
0.3507873
50
165.9090694
51
178.8684636
0
ARC
8
DEFAULT_255_1_388
10
4.6123534
20
196.0799263
40
0.4484624
50
178.4391136
51
180.0083808
0
ARC
8
DEFAULT_255_1_388
10
4.4544235
20
196.0843197
40
0.4577138
50
163.2878482
51
180.5581842
0
ARC
8
DEFAULT_255_1_388
10
4.3642276
20
196.1091393
40
0.3641968
50
133.4540601
51
162.947111
0
ARC
8
DEFAULT_255_1_388
10
4.3843158
20
196.0877789
40
0.3935189
50
100.7869829
51
133.4382499
0
ARC
8
DEFAULT_255_1_388
10
4.4234403
20
195.9135399
40
0.5720313
50
89.660664
51
101.3702276
0
ARC
8
DEFAULT_255_1_388
10
4.4309012
20
195.9204263
40
0.5651495
50
78.2172678
51
90.412935
0
ARC
8
DEFAULT_255_1_388
10
4.4708478
20
196.1031511
40
0.378122
50
55.9269121
51
78.4888449
0
ARC
8
DEFAULT_255_1_388
10
4.4929193
20
196.1412187
40
0.3342379
50
47.929771
51
55.4049217
0
ARC
8
DEFAULT_255_1_388
10
4.5043723
20
196.1528618
40
0.3179217
50
4.334829
51
48.0560205
0
ARC
8
DEFAULT_255_1_388
10
4.3811525
20
196.1337487
40
0.442341
50
359.9251713
51
5.5971671
0
ARC
8
DEFAULT_255_1_388
10
4.429368
20
196.1400728
40
0.3941854
50
337.8914027
51
358.9967534
0
ARC
8
DEFAULT_255_1_388
10
4.124125
20
196.2578295
40
0.7213271
50
326.9132501
51
338.3508308
0
ARC
8
DEFAULT_255_1_388
10
3.6757362
20
196.5452105
40
1.2538973
50
319.6471833
51
327.0959558
0
ARC
8
DEFAULT_255_1_388
10
3.244402
20
196.901005
40
1.8129975
50
317.2588228
51
319.9045804
0
LINE
8
DEFAULT_255_1_388
10
5.7668143
20
196.4674898
11
5.7668143
21
195.593743
0
LINE
8
DEFAULT_255_1_388
10
5.7668143
20
195.593743
11
5.9493343
21
195.593743
0
LINE
8
DEFAULT_255_1_388
10
5.9493343
20
195.593743
11
5.9493343
21
195.4573048
0
LINE
8
DEFAULT_255_1_388
10
5.9493343
20
195.4573048
11
5.7668143
21
195.4573048
0
LINE
8
DEFAULT_255_1_388
10
5.7668143
20
195.4573048
11
5.7668143
21
195.1519
0
LINE
8
DEFAULT_255_1_388
10
5.7668143
20
195.1519
11
5.5987513
21
195.1519
0
LINE
8
DEFAULT_255_1_388
10
5.5987513
20
195.1519
11
5.5987513
21
195.4573048
0
LINE
8
DEFAULT_255_1_388
10
5.5987513
20
195.4573048
11
4.999688
21
195.4573048
0
LINE
8
DEFAULT_255_1_388
10
4.999688
20
195.4573048
11
4.999688
21
195.5557933
0
LINE
8
DEFAULT_255_1_388
10
4.999688
20
195.5557933
11
5.5888121
21
196.4674898
0
LINE
8
DEFAULT_255_1_388
10
5.5888121
20
196.4674898
11
5.7668143
21
196.4674898
0
LINE
8
DEFAULT_255_1_388
10
5.5788729
20
196.2027455
11
5.1894366
21
195.593743
0
LINE
8
DEFAULT_255_1_388
10
5.1894366
20
195.593743
11
5.5987513
21
195.593743
0
LINE
8
DEFAULT_255_1_388
10
5.5987513
20
195.593743
11
5.5987513
21
196.238888
0
LINE
8
DEFAULT_255_1_388
10
5.5987513
20
196.238888
11
5.5788729
21
196.2027455
0
LINE
8
DEFAULT_255_1_388
10
6.205043
20
196.4674898
11
6.5791187
21
195.3823089
0
LINE
8
DEFAULT_255_1_388
10
6.5791187
20
195.3823089
11
6.9550015
21
196.4674898
0
LINE
8
DEFAULT_255_1_388
10
6.9550015
20
196.4674898
11
7.14475
21
196.4674898
0
LINE
8
DEFAULT_255_1_388
10
7.14475
20
196.4674898
11
6.6568252
21
195.1519
0
LINE
8
DEFAULT_255_1_388
10
6.6568252
20
195.1519
11
6.5032193
21
195.1519
0
LINE
8
DEFAULT_255_1_388
10
6.5032193
20
195.1519
11
6.016198
21
196.4674898
0
LINE
8
DEFAULT_255_1_388
10
6.016198
20
196.4674898
11
6.205043
21
196.4674898
0
ARC
8
DEFAULT_255_1_388
10
4.4370818
20
5.621272
40
0.3175098
50
338.8762533
51
0.5167111
0
ARC
8
DEFAULT_255_1_388
10
4.4560412
20
5.61616
40
0.2979894
50
325.8415285
51
338.4793574
0
ARC
8
DEFAULT_255_1_388
10
4.4121046
20
5.6466242
40
0.351452
50
296.7587686
51
325.7536481
0
ARC
8
DEFAULT_255_1_388
10
4.3792673
20
5.7020363
40
0.4157374
50
296.0927901
51
297.3613472
0
ARC
8
DEFAULT_255_1_388
10
4.4086869
20
4.9637593
40
0.395855
50
47.9007294
51
67.1948823
0
ARC
8
DEFAULT_255_1_388
10
4.4307511
20
4.9914599
40
0.360516
50
35.2363914
51
47.551141
0
ARC
8
DEFAULT_255_1_388
10
4.4601915
20
5.0111093
40
0.3251343
50
359.2759765
51
35.4014143
0
ARC
8
DEFAULT_255_1_388
10
4.3763841
20
5.0028787
40
0.4089365
50
343.1293083
51
0.5775513
0
ARC
8
DEFAULT_255_1_388
10
4.4578955
20
4.9804336
40
0.3244269
50
310.8496669
51
342.7449331
0
ARC
8
DEFAULT_255_1_388
10
4.4108829
20
5.0340913
40
0.3957651
50
281.5472888
51
310.9170406
0
ARC
8
DEFAULT_255_1_388
10
4.3707704
20
5.2087814
40
0.5749654
50
269.619248
51
281.9789564
0
ARC
8
DEFAULT_255_1_388
10
4.3626482
20
5.2088776
40
0.5750649
50
257.4585678
51
270.4285689
0
ARC
8
DEFAULT_255_1_388
10
4.3198002
20
5.0284741
40
0.389671
50
228.7554326
51
257.8484789
0
ARC
8
DEFAULT_255_1_388
10
4.2849487
20
4.9865228
40
0.335154
50
184.0104975
51
228.5071184
0
ARC
8
DEFAULT_255_1_388
10
4.415788
20
5.006443
40
0.4671891
50
179.9315832
51
185.3253753
0
ARC
8
DEFAULT_255_1_388
10
4.2834392
20
5.0106592
40
0.33486
50
145.6796023
51
180.6259786
0
ARC
8
DEFAULT_255_1_388
10
4.3018158
20
4.9978271
40
0.3572723
50
115.5537685
51
145.6415986
0
ARC
8
DEFAULT_255_1_388
10
4.3401202
20
4.9292087
40
0.4357296
50
113.243307
51
116.2057839
0
ARC
8
DEFAULT_255_1_388
10
4.3229854
20
5.6489379
40
0.3549126
50
222.9549744
51
244.1370481
0
ARC
8
DEFAULT_255_1_388
10
4.3092497
20
5.6335378
40
0.3343711
50
213.3436887
51
222.6274467
0
ARC
8
DEFAULT_255_1_388
10
4.2876566
20
5.6188653
40
0.3082678
50
180.431584
51
213.271499
0
ARC
8
DEFAULT_255_1_388
10
4.3511565
20
5.6241296
40
0.3718363
50
179.9991191
51
181.1690594
0
ARC
8
DEFAULT_255_1_388
10
4.3984021
20
5.6280072
40
0.4190996
50
164.6186169
51
180.529336
0
ARC
8
DEFAULT_255_1_388
10
4.297367
20
5.655178
40
0.3144772
50
132.2455553
51
164.5090724
0
ARC
8
DEFAULT_255_1_388
10
4.3296649
20
5.618607
40
0.3632644
50
100.7053914
51
132.1386381
0
ARC
8
DEFAULT_255_1_388
10
4.363971
20
5.4636118
40
0.5219578
50
89.6730358
51
101.2451698
0
ARC
8
DEFAULT_255_1_388
10
4.3709701
20
5.4832648
40
0.5023124
50
76.287748
51
90.4586006
0
ARC
8
DEFAULT_255_1_388
10
4.4054203
20
5.6207671
40
0.3605639
50
47.8240511
51
76.4266241
0
ARC
8
DEFAULT_255_1_388
10
4.4304587
20
5.6500599
40
0.3220463
50
6.9168387
51
47.6262497
0
ARC
8
DEFAULT_255_1_388
10
4.297004
20
5.6254004
40
0.4575765
50
359.8415968
51
7.9697453
0
ARC
8
DEFAULT_255_1_388
10
4.335431
20
5.0133519
40
0.2827228
50
359.445363
51
16.9256873
0
ARC
8
DEFAULT_255_1_388
10
4.3881744
20
5.0278781
40
0.2280396
50
17.2920767
51
45.4630727
0
ARC
8
DEFAULT_255_1_388
10
4.3820879
20
5.0226324
40
0.2360485
50
45.30305
51
83.1920945
0
ARC
8
DEFAULT_255_1_388
10
4.3659624
20
4.9324473
40
0.3275527
50
82.2612665
51
90.1434275
0
ARC
8
DEFAULT_255_1_388
10
4.36249
20
4.9586869
40
0.3013237
50
89.4956434
51
104.8580688
0
ARC
8
DEFAULT_255_1_388
10
4.342609
20
5.0340455
40
0.2233867
50
104.8856641
51
135.244616
0
ARC
8
DEFAULT_255_1_388
10
4.3482079
20
5.0290352
40
0.2308906
50
135.3399546
51
172.1044062
0
ARC
8
DEFAULT_255_1_388
10
4.4389603
20
5.0116667
40
0.3232034
50
171.2645637
51
180.186429
0
ARC
8
DEFAULT_255_1_388
10
4.4199608
20
5.0080426
40
0.304213
50
179.5154935
51
193.6464289
0
ARC
8
DEFAULT_255_1_388
10
4.3281284
20
4.9846473
40
0.209456
50
193.3540274
51
225.8258581
0
ARC
8
DEFAULT_255_1_388
10
4.3327156
20
4.9926076
40
0.2183738
50
226.4180634
51
255.8552336
0
ARC
8
DEFAULT_255_1_388
10
4.3615623
20
5.0979521
40
0.3275812
50
255.4654104
51
268.7987425
0
ARC
8
DEFAULT_255_1_388
10
4.3668799
20
5.1921545
40
0.4218877
50
268.3449238
51
270.0094605
0
ARC
8
DEFAULT_255_1_388
10
4.3695032
20
5.1153094
40
0.3450519
50
269.5759586
51
282.0820163
0
ARC
8
DEFAULT_255_1_388
10
4.3948069
20
5.0034363
40
0.2303642
50
281.752014
51
306.6056188
0
ARC
8
DEFAULT_255_1_388
10
4.4058877
20
4.9852802
40
0.2091906
50
307.1346085
51
314.027845
0
ARC
8
DEFAULT_255_1_388
10
4.4018389
20
4.9882459
40
0.2141385
50
314.2552483
51
350.1694025
0
ARC
8
DEFAULT_255_1_388
10
4.3060626
20
5.0090175
40
0.312082
50
349.4140529
51
0.2933014
0
ARC
8
DEFAULT_255_1_388
10
4.3645903
20
5.5893924
40
0.2588377
50
89.477747
51
105.729729
0
ARC
8
DEFAULT_255_1_388
10
4.3492823
20
5.6462367
40
0.1999733
50
105.9233417
51
135.1660906
0
ARC
8
DEFAULT_255_1_388
10
4.3515854
20
5.6446412
40
0.2027322
50
135.3052302
51
168.9883645
0
ARC
8
DEFAULT_255_1_388
10
4.444687
20
5.6232996
40
0.2982129
50
168.3801673
51
180.3602268
0
ARC
8
DEFAULT_255_1_388
10
4.4189987
20
5.6190622
40
0.2725291
50
179.5033122
51
194.9125571
0
ARC
8
DEFAULT_255_1_388
10
4.3531394
20
5.6017427
40
0.204431
50
194.9720816
51
224.194444
0
ARC
8
DEFAULT_255_1_388
10
4.3499759
20
5.5991635
40
0.2003651
50
224.2962453
51
262.015664
0
ARC
8
DEFAULT_255_1_388
10
4.3659763
20
5.6814315
40
0.2840925
50
261.1245923
51
270.1962896
0
ARC
8
DEFAULT_255_1_388
10
4.3693244
20
5.6603859
40
0.2630559
50
269.4827276
51
285.0987215
0
ARC
8
DEFAULT_255_1_388
10
4.386668
20
5.5953175
40
0.1957162
50
285.1585357
51
315.9484501
0
ARC
8
DEFAULT_255_1_388
10
4.3766554
20
5.6045315
40
0.2093195
50
316.0413965
51
351.916092
0
ARC
8
DEFAULT_255_1_388
10
4.2941928
20
5.6204323
40
0.2932279
50
351.105835
51
0.1939062
0
ARC
8
DEFAULT_255_1_388
10
4.3237562
20
5.6238224
40
0.2636739
50
359.4789618
51
16.0678224
0
ARC
8
DEFAULT_255_1_388
10
4.3773034
20
5.6382721
40
0.2082215
50
16.3252067
51
44.7913869
0
ARC
8
DEFAULT_255_1_388
10
4.3753096
20
5.638332
40
0.2095992
50
44.3957814
51
88.2499162
0
ARC
8
DEFAULT_255_1_388
10
4.3670431
20
5.5695006
40
0.2787189
50
86.9833854
51
90.0192215
0
LINE
8
DEFAULT_255_1_388
10
5.8406632
20
5.1443426
11
5.8406632
21
5.1298856
0
LINE
8
DEFAULT_255_1_388
10
5.1747362
20
4.7648456
11
5.1666041
21
4.6519
0
LINE
8
DEFAULT_255_1_388
10
5.1666041
20
4.6519
11
5.0129981
21
4.6519
0
LINE
8
DEFAULT_255_1_388
10
5.0129981
20
4.6519
11
5.0129981
21
6.039775
0
LINE
8
DEFAULT_255_1_388
10
5.0129981
20
6.039775
11
5.1801576
21
6.039775
0
LINE
8
DEFAULT_255_1_388
10
5.1801576
20
6.039775
11
5.1801576
21
5.5220326
0
LINE
8
DEFAULT_255_1_388
10
5.1801576
20
5.3521625
11
5.1801576
21
4.9292943
0
ARC
8
DEFAULT_255_1_388
10
5.0479084
20
5.1249101
40
0.7927704
50
349.4826431
51
0.3595958
0
ARC
8
DEFAULT_255_1_388
10
5.3040994
20
5.0755754
40
0.531881
50
331.8601729
51
349.6703499
0
ARC
8
DEFAULT_255_1_388
10
5.3865286
20
5.0354295
40
0.440275
50
322.8939675
51
331.4079366
0
ARC
8
DEFAULT_255_1_388
10
5.4647654
20
4.9702419
40
0.3385862
50
296.725075
51
323.7043525
0
ARC
8
DEFAULT_255_1_388
10
5.4681301
20
4.9780416
40
0.3441011
50
270.6344013
51
295.6405661
0
ARC
8
DEFAULT_255_1_388
10
5.4611997
20
5.0682096
40
0.4343809
50
269.9955642
51
271.4168155
0
ARC
8
DEFAULT_255_1_388
10
5.456878
20
5.0531485
40
0.4193418
50
253.6575074
51
270.5859134
0
ARC
8
DEFAULT_255_1_388
10
5.4309027
20
4.9582616
40
0.3209845
50
217.0542732
51
253.3409544
0
ARC
8
DEFAULT_255_1_388
10
5.4384024
20
5.3164393
40
0.3300893
50
93.1931057
51
141.4760886
0
ARC
8
DEFAULT_255_1_388
10
5.4589017
20
5.1778127
40
0.4698157
50
89.9442329
51
94.747695
0
ARC
8
DEFAULT_255_1_388
10
5.463824
20
5.2703571
40
0.3772974
50
70.6102966
51
90.6780641
0
ARC
8
DEFAULT_255_1_388
10
5.4766835
20
5.3215969
40
0.3247312
50
36.1152061
51
69.7490455
0
ARC
8
DEFAULT_255_1_388
10
5.3656931
20
5.2368642
40
0.4643452
50
15.4648073
51
36.4892008
0
ARC
8
DEFAULT_255_1_388
10
5.1341327
20
5.1694548
40
0.7055035
50
3.9221328
51
15.7266383
0
ARC
8
DEFAULT_255_1_388
10
4.8688446
20
5.1455859
40
0.9718194
50
359.9267025
51
4.2562571
0
ARC
8
DEFAULT_255_1_388
10
4.9602923
20
5.1523052
40
0.7132198
50
359.7232654
51
7.7112388
0
ARC
8
DEFAULT_255_1_388
10
5.214776
20
5.1878662
40
0.4562671
50
7.5740305
51
19.4153133
0
ARC
8
DEFAULT_255_1_388
10
5.3573773
20
5.2380795
40
0.3050836
50
19.4237113
51
34.9159184
0
ARC
8
DEFAULT_255_1_388
10
5.4328366
20
5.2928279
40
0.2118777
50
34.4555697
51
84.4656773
0
ARC
8
DEFAULT_255_1_388
10
5.4183742
20
5.2078992
40
0.2978698
50
83.2721807
51
90.1114043
0
ARC
8
DEFAULT_255_1_388
10
5.4136325
20
5.2302068
40
0.275593
50
89.1345761
51
111.409063
0
ARC
8
DEFAULT_255_1_388
10
5.4046947
20
5.2671005
40
0.2380381
50
112.6478022
51
148.9262646
0
ARC
8
DEFAULT_255_1_388
10
5.4922201
20
5.2061711
40
0.3445235
50
147.7602672
51
154.9285352
0
ARC
8
DEFAULT_255_1_388
10
5.4629458
20
5.0661592
40
0.3141675
50
205.8262295
51
224.5304491
0
ARC
8
DEFAULT_255_1_388
10
5.4092137
20
5.0181875
40
0.2422463
50
225.3544419
51
269.2437751
0
ARC
8
DEFAULT_255_1_388
10
5.4195331
20
5.1089679
40
0.3332798
50
267.6756581
51
270.0118705
0
ARC
8
DEFAULT_255_1_388
10
5.4225996
20
5.0235943
40
0.2479241
50
269.3072706
51
289.4988605
0
ARC
8
DEFAULT_255_1_388
10
5.4307071
20
4.9902296
40
0.2137951
50
290.4353105
51
325.3765722
0
ARC
8
DEFAULT_255_1_388
10
5.359973
20
5.04133
40
0.3010425
50
325.022387
51
342.6926192
0
ARC
8
DEFAULT_255_1_388
10
5.1690532
20
5.1034493
40
0.5018047
50
342.4062017
51
352.8669894
0
ARC
8
DEFAULT_255_1_388
10
4.8629869
20
5.1436328
40
0.810494
50
352.7349871
51
359.855599
0
ARC
8
DEFAULT_255_1_388
10
4.6461893
20
5.1488426
40
1.0273146
50
359.5955109
51
0.0009972
0
ARC
8
DEFAULT_255_1_388
10
4.5114818
20
13.558772
40
0.3175098
50
338.8762533
51
0.5167111
0
ARC
8
DEFAULT_255_1_388
10
4.5304412
20
13.55366
40
0.2979894
50
325.8415285
51
338.4793574
0
ARC
8
DEFAULT_255_1_388
10
4.4865046
20
13.5841242
40
0.351452
50
296.7587686
51
325.7536481
0
ARC
8
DEFAULT_255_1_388
10
4.4536673
20
13.6395363
40
0.4157374
50
296.0927901
51
297.3613472
0
ARC
8
DEFAULT_255_1_388
10
4.4830869
20
12.9012593
40
0.395855
50
47.9007294
51
67.1948823
0
ARC
8
DEFAULT_255_1_388
10
4.5051511
20
12.9289599
40
0.360516
50
35.2363914
51
47.551141
0
ARC
8
DEFAULT_255_1_388
10
4.5345915
20
12.9486093
40
0.3251343
50
359.2759765
51
35.4014143
0
ARC
8
DEFAULT_255_1_388
10
4.4507841
20
12.9403787
40
0.4089365
50
343.1293083
51
0.5775513
0
ARC
8
DEFAULT_255_1_388
10
4.5322955
20
12.9179336
40
0.3244269
50
310.8496669
51
342.7449331
0
ARC
8
DEFAULT_255_1_388
10
4.4852829
20
12.9715913
40
0.3957651
50
281.5472888
51
310.9170406
0
ARC
8
DEFAULT_255_1_388
10
4.4451704
20
13.1462814
40
0.5749654
50
269.619248
51
281.9789564
0
ARC
8
DEFAULT_255_1_388
10
4.4370482
20
13.1463776
40
0.5750649
50
257.4585678
51
270.4285689
0
ARC
8
DEFAULT_255_1_388
10
4.3942002
20
12.9659741
40
0.389671
50
228.7554326
51
257.8484789
0
ARC
8
DEFAULT_255_1_388
10
4.3593487
20
12.9240228
40
0.335154
50
184.0104975
51
228.5071184
0
ARC
8
DEFAULT_255_1_388
10
4.490188
20
12.943943
40
0.4671891
50
179.9315832
51
185.3253753
0
ARC
8
DEFAULT_255_1_388
10
4.3578392
20
12.9481592
40
0.33486
50
145.6796023
51
180.6259786
0
ARC
8
DEFAULT_255_1_388
10
4.3762158
20
12.9353271
40
0.3572723
50
115.5537685
51
145.6415986
0
ARC
8
DEFAULT_255_1_388
10
4.4145202
20
12.8667087
40
0.4357296
50
113.243307
51
116.2057839
0
ARC
8
DEFAULT_255_1_388
10
4.3973854
20
13.5864379
40
0.3549126
50
222.9549744
51
244.1370481
0
ARC
8
DEFAULT_255_1_388
10
4.3836497
20
13.5710378
40
0.3343711
50
213.3436887
51
222.6274467
0
ARC
8
DEFAULT_255_1_388
10
4.3620566
20
13.5563653
40
0.3082678
50
180.431584
51
213.271499
0
ARC
8
DEFAULT_255_1_388
10
4.4255565
20
13.5616296
40
0.3718363
50
179.9991191
51
181.1690594
0
ARC
8
DEFAULT_255_1_388
10
4.4728021
20
13.5655072
40
0.4190996
50
164.6186169
51
180.529336
0
ARC
8
DEFAULT_255_1_388
10
4.371767
20
13.592678
40
0.3144772
50
132.2455553
51
164.5090724
0
ARC
8
DEFAULT_255_1_388
10
4.4040649
20
13.556107
40
0.3632644
50
100.7053914
51
132.1386381
0
ARC
8
DEFAULT_255_1_388
10
4.438371
20
13.4011118
40
0.5219578
50
89.6730358
51
101.2451698
0
ARC
8
DEFAULT_255_1_388
10
4.4453701
20
13.4207648
40
0.5023124
50
76.287748
51
90.4586006
0
ARC
8
DEFAULT_255_1_388
10
4.4798203
20
13.5582671
40
0.3605639
50
47.8240511
51
76.4266241
0
ARC
8
DEFAULT_255_1_388
10
4.5048587
20
13.5875599
40
0.3220463
50
6.9168387
51
47.6262497
0
ARC
8
DEFAULT_255_1_388
10
4.371404
20
13.5629004
40
0.4575765
50
359.8415968
51
7.9697453
0
ARC
8
DEFAULT_255_1_388
10
4.409831
20
12.9508519
40
0.2827228
50
359.445363
51
16.9256873
0
ARC
8
DEFAULT_255_1_388
10
4.4625744
20
12.9653781
40
0.2280396
50
17.2920767
51
45.4630727
0
ARC
8
DEFAULT_255_1_388
10
4.4564879
20
12.9601324
40
0.2360485
50
45.30305
51
83.1920945
0
ARC
8
DEFAULT_255_1_388
10
4.4403624
20
12.8699473
40
0.3275527
50
82.2612665
51
90.1434275
0
ARC
8
DEFAULT_255_1_388
10
4.43689
20
12.8961869
40
0.3013237
50
89.4956434
51
104.8580688
0
ARC
8
DEFAULT_255_1_388
10
4.417009
20
12.9715455
40
0.2233867
50
104.8856641
51
135.244616
0
ARC
8
DEFAULT_255_1_388
10
4.4226079
20
12.9665352
40
0.2308906
50
135.3399546
51
172.1044062
0
ARC
8
DEFAULT_255_1_388
10
4.5133603
20
12.9491667
40
0.3232034
50
171.2645637
51
180.186429
0
ARC
8
DEFAULT_255_1_388
10
4.4943608
20
12.9455426
40
0.304213
50
179.5154935
51
193.6464289
0
ARC
8
DEFAULT_255_1_388
10
4.4025284
20
12.9221473
40
0.209456
50
193.3540274
51
225.8258581
0
ARC
8
DEFAULT_255_1_388
10
4.4071156
20
12.9301076
40
0.2183738
50
226.4180634
51
255.8552336
0
ARC
8
DEFAULT_255_1_388
10
4.4359623
20
13.0354521
40
0.3275812
50
255.4654104
51
268.7987425
0
ARC
8
DEFAULT_255_1_388
10
4.4412799
20
13.1296545
40
0.4218877
50
268.3449238
51
270.0094605
0
ARC
8
DEFAULT_255_1_388
10
4.4439032
20
13.0528094
40
0.3450519
50
269.5759586
51
282.0820163
0
ARC
8
DEFAULT_255_1_388
10
4.4692069
20
12.9409363
40
0.2303642
50
281.752014
51
306.6056188
0
ARC
8
DEFAULT_255_1_388
10
4.4802877
20
12.9227802
40
0.2091906
50
307.1346085
51
314.027845
0
ARC
8
DEFAULT_255_1_388
10
4.4762389
20
12.9257459
40
0.2141385
50
314.2552483
51
350.1694025
0
ARC
8
DEFAULT_255_1_388
10
4.3804626
20
12.9465175
40
0.312082
50
349.4140529
51
0.2933014
0
ARC
8
DEFAULT_255_1_388
10
4.4389903
20
13.5268924
40
0.2588377
50
89.477747
51
105.729729
0
ARC
8
DEFAULT_255_1_388
10
4.4236823
20
13.5837367
40
0.1999733
50
105.9233417
51
135.1660906
0
ARC
8
DEFAULT_255_1_388
10
4.4259854
20
13.5821412
40
0.2027322
50
135.3052302
51
168.9883645
0
ARC
8
DEFAULT_255_1_388
10
4.519087
20
13.5607996
40
0.2982129
50
168.3801673
51
180.3602268
0
ARC
8
DEFAULT_255_1_388
10
4.4933987
20
13.5565622
40
0.2725291
50
179.5033122
51
194.9125571
0
ARC
8
DEFAULT_255_1_388
10
4.4275394
20
13.5392427
40
0.204431
50
194.9720816
51
224.194444
0
ARC
8
DEFAULT_255_1_388
10
4.4243759
20
13.5366635
40
0.2003651
50
224.2962453
51
262.015664
0
ARC
8
DEFAULT_255_1_388
10
4.4403763
20
13.6189315
40
0.2840925
50
261.1245923
51
270.1962896
0
ARC
8
DEFAULT_255_1_388
10
4.4437244
20
13.5978859
40
0.2630559
50
269.4827276
51
285.0987215
0
ARC
8
DEFAULT_255_1_388
10
4.461068
20
13.5328175
40
0.1957162
50
285.1585357
51
315.9484501
0
ARC
8
DEFAULT_255_1_388
10
4.4510554
20
13.5420315
40
0.2093195
50
316.0413965
51
351.916092
0
ARC
8
DEFAULT_255_1_388
10
4.3685928
20
13.5579323
40
0.2932279
50
351.105835
51
0.1939062
0
ARC
8
DEFAULT_255_1_388
10
4.3981562
20
13.5613224
40
0.2636739
50
359.4789618
51
16.0678224
0
ARC
8
DEFAULT_255_1_388
10
4.4517034
20
13.5757721
40
0.2082215
50
16.3252067
51
44.7913869
0
ARC
8
DEFAULT_255_1_388
10
4.4497096
20
13.575832
40
0.2095992
50
44.3957814
51
88.2499162
0
ARC
8
DEFAULT_255_1_388
10
4.4414431
20
13.5070006
40
0.2787189
50
86.9833854
51
90.0192215
0
LINE
8
DEFAULT_255_1_388
10
5.5699016
20
12.5894
11
5.1136015
21
12.5894
0
LINE
8
DEFAULT_255_1_388
10
5.1136015
20
12.5894
11
5.1136015
21
13.9049898
0
LINE
8
DEFAULT_255_1_388
10
5.1136015
20
13.9049898
11
5.5436982
21
13.9049898
0
LINE
8
DEFAULT_255_1_388
10
5.5762265
20
13.2047274
11
5.2870859
21
13.2047274
0
LINE
8
DEFAULT_255_1_388
10
5.2870859
20
13.2047274
11
5.2870859
21
12.7312596
0
LINE
8
DEFAULT_255_1_388
10
5.2870859
20
12.7312596
11
5.5735158
21
12.7312596
0
LINE
8
DEFAULT_255_1_388
10
5.2870859
20
13.7622267
11
5.2870859
21
13.3438763
0
LINE
8
DEFAULT_255_1_388
10
5.2870859
20
13.3438763
11
5.5491196
21
13.3438763
0
LINE
8
DEFAULT_255_1_388
10
5.5436982
20
13.7622267
11
5.2870859
21
13.7622267
0
ARC
8
DEFAULT_255_1_388
10
5.5479402
20
13.0761824
40
0.8288183
50
82.1256322
51
90.2932506
0
ARC
8
DEFAULT_255_1_388
10
5.5916977
20
13.381959
40
0.5199321
50
69.9044202
51
82.2857574
0
ARC
8
DEFAULT_255_1_388
10
5.655897
20
13.5554993
40
0.3348993
50
51.1840204
51
70.018125
0
ARC
8
DEFAULT_255_1_388
10
5.6845802
20
13.5971945
40
0.2844579
50
12.1018086
51
50.421322
0
ARC
8
DEFAULT_255_1_388
10
5.5288674
20
13.5580937
40
0.4449429
50
359.5252354
51
12.8212369
0
ARC
8
DEFAULT_255_1_388
10
5.7066104
20
13.5502943
40
0.2672162
50
323.4907456
51
0.8818258
0
ARC
8
DEFAULT_255_1_388
10
5.6595516
20
13.5866523
40
0.3266736
50
298.6824053
51
323.2758285
0
ARC
8
DEFAULT_255_1_388
10
5.6188808
20
13.6542509
40
0.4055105
50
293.1994739
51
299.139634
0
ARC
8
DEFAULT_255_1_388
10
5.6945757
20
12.9696651
40
0.3229926
50
54.0009997
51
74.9168635
0
ARC
8
DEFAULT_255_1_388
10
5.7076684
20
12.9918511
40
0.2973581
50
36.3578854
51
53.5293172
0
ARC
8
DEFAULT_255_1_388
10
5.6934052
20
12.981685
40
0.3148715
50
4.8189348
51
36.3090187
0
ARC
8
DEFAULT_255_1_388
10
5.6057076
20
12.9693383
40
0.4033265
50
359.9373213
51
5.5201284
0
ARC
8
DEFAULT_255_1_388
10
5.5692406
20
12.9647733
40
0.4398126
50
344.7479357
51
0.5372278
0
ARC
8
DEFAULT_255_1_388
10
5.6807305
20
12.9347205
40
0.3243441
50
311.1785587
51
344.6887681
0
ARC
8
DEFAULT_255_1_388
10
5.6478848
20
12.9756084
40
0.3767511
50
286.0417804
51
310.8440924
0
ARC
8
DEFAULT_255_1_388
10
5.5908258
20
13.1608885
40
0.5705957
50
274.1044074
51
286.4070149
0
ARC
8
DEFAULT_255_1_388
10
5.5709473
20
13.3726901
40
0.7832907
50
269.9235077
51
274.4458593
0
ARC
8
DEFAULT_255_1_388
10
5.5761191
20
13.1095462
40
0.3782955
50
269.6057074
51
281.3740795
0
ARC
8
DEFAULT_255_1_388
10
5.602069
20
12.9865569
40
0.2526069
50
281.105298
51
302.5134029
0
ARC
8
DEFAULT_255_1_388
10
5.6186077
20
12.9568944
40
0.2187131
50
303.0365425
51
311.8818034
0
ARC
8
DEFAULT_255_1_388
10
5.6266254
20
12.9473602
40
0.2062624
50
311.9916937
51
351.7143773
0
ARC
8
DEFAULT_255_1_388
10
5.5347279
20
12.9659271
40
0.2999202
50
350.7343295
51
0.2221526
0
ARC
8
DEFAULT_255_1_388
10
5.5226367
20
12.972287
40
0.3120525
50
359.045729
51
17.2295312
0
ARC
8
DEFAULT_255_1_388
10
5.6395398
20
13.0070155
40
0.1901144
50
17.6685208
51
78.9940245
0
ARC
8
DEFAULT_255_1_388
10
5.5813758
20
12.7982011
40
0.4065575
50
76.565218
51
90.7103392
0
LINE
8
DEFAULT_255_1_388
10
5.5763356
20
13.2047274
11
5.5762265
21
13.2047274
0
ARC
8
DEFAULT_255_1_388
10
5.5516584
20
13.7134949
40
0.3696273
50
269.6064514
51
281.4533785
0
ARC
8
DEFAULT_255_1_388
10
5.5767225
20
13.5952283
40
0.2487412
50
281.2044438
51
302.5143998
0
ARC
8
DEFAULT_255_1_388
10
5.5921479
20
13.5674576
40
0.2170405
50
303.0211308
51
309.8378766
0
ARC
8
DEFAULT_255_1_388
10
5.6127596
20
13.5443486
40
0.1860946
50
309.5229446
51
356.9509628
0
ARC
8
DEFAULT_255_1_388
10
5.5381722
20
13.5550831
40
0.2612347
50
355.4699226
51
0.0498632
0
ARC
8
DEFAULT_255_1_388
10
5.5067396
20
13.5575789
40
0.2926762
50
359.5558955
51
11.2092924
0
ARC
8
DEFAULT_255_1_388
10
5.6144363
20
13.5798667
40
0.1827036
50
10.9185717
51
31.322519
0
ARC
8
DEFAULT_255_1_388
10
5.6465911
20
13.5977571
40
0.1459418
50
31.8850633
51
52.1415586
0
ARC
8
DEFAULT_255_1_388
10
5.6157341
20
13.5541674
40
0.1993088
50
52.8283418
51
71.9850132
0
ARC
8
DEFAULT_255_1_388
10
5.5734501
20
13.4297158
40
0.3307407
50
71.686634
51
82.8453416
0
ARC
8
DEFAULT_255_1_388
10
5.5465148
20
13.2261892
40
0.536039
50
82.6981895
51
90.1730083
0
ARC
8
DEFAULT_255_1_388
10
5.543998
20
13.3140836
40
0.4481429
50
89.8851568
51
90.0383283
0
ARC
8
DEFAULT_255_1_388
10
4.4825818
20
21.496272
40
0.3175098
50
338.8762533
51
0.5167111
0
ARC
8
DEFAULT_255_1_388
10
4.5015412
20
21.49116
40
0.2979894
50
325.8415285
51
338.4793574
0
ARC
8
DEFAULT_255_1_388
10
4.4576046
20
21.5216242
40
0.351452
50
296.7587686
51
325.7536481
0
ARC
8
DEFAULT_255_1_388
10
4.4247673
20
21.5770363
40
0.4157374
50
296.0927901
51
297.3613472
0
ARC
8
DEFAULT_255_1_388
10
4.4541869
20
20.8387593
40
0.395855
50
47.9007294
51
67.1948823
0
ARC
8
DEFAULT_255_1_388
10
4.4762511
20
20.8664599
40
0.360516
50
35.2363914
51
47.551141
0
ARC
8
DEFAULT_255_1_388
10
4.5056915
20
20.8861093
40
0.3251343
50
359.2759765
51
35.4014143
0
ARC
8
DEFAULT_255_1_388
10
4.4218841
20
20.8778787
40
0.4089365
50
343.1293083
51
0.5775513
0
ARC
8
DEFAULT_255_1_388
10
4.5033955
20
20.8554336
40
0.3244269
50
310.8496669
51
342.7449331
0
ARC
8
DEFAULT_255_1_388
10
4.4563829
20
20.9090913
40
0.3957651
50
281.5472888
51
310.9170406
0
ARC
8
DEFAULT_255_1_388
10
4.4162704
20
21.0837814
40
0.5749654
50
269.619248
51
281.9789564
0
ARC
8
DEFAULT_255_1_388
10
4.4081482
20
21.0838776
40
0.5750649
50
257.4585678
51
270.4285689
0
ARC
8
DEFAULT_255_1_388
10
4.3653002
20
20.9034741
40
0.389671
50
228.7554326
51
257.8484789
0
ARC
8
DEFAULT_255_1_388
10
4.3304487
20
20.8615228
40
0.335154
50
184.0104975
51
228.5071184
0
ARC
8
DEFAULT_255_1_388
10
4.461288
20
20.881443
40
0.4671891
50
179.9315832
51
185.3253753
0
ARC
8
DEFAULT_255_1_388
10
4.3289392
20
20.8856592
40
0.33486
50
145.6796023
51
180.6259786
0
ARC
8
DEFAULT_255_1_388
10
4.3473158
20
20.8728271
40
0.3572723
50
115.5537685
51
145.6415986
0
ARC
8
DEFAULT_255_1_388
10
4.3856202
20
20.8042087
40
0.4357296
50
113.243307
51
116.2057839
0
ARC
8
DEFAULT_255_1_388
10
4.3684854
20
21.5239379
40
0.3549126
50
222.9549744
51
244.1370481
0
ARC
8
DEFAULT_255_1_388
10
4.3547497
20
21.5085378
40
0.3343711
50
213.3436887
51
222.6274467
0
ARC
8
DEFAULT_255_1_388
10
4.3331566
20
21.4938653
40
0.3082678
50
180.431584
51
213.271499
0
ARC
8
DEFAULT_255_1_388
10
4.3966565
20
21.4991296
40
0.3718363
50
179.9991191
51
181.1690594
0
ARC
8
DEFAULT_255_1_388
10
4.4439021
20
21.5030072
40
0.4190996
50
164.6186169
51
180.529336
0
ARC
8
DEFAULT_255_1_388
10
4.342867
20
21.530178
40
0.3144772
50
132.2455553
51
164.5090724
0
ARC
8
DEFAULT_255_1_388
10
4.3751649
20
21.493607
40
0.3632644
50
100.7053914
51
132.1386381
0
ARC
8
DEFAULT_255_1_388
10
4.409471
20
21.3386118
40
0.5219578
50
89.6730358
51
101.2451698
0
ARC
8
DEFAULT_255_1_388
10
4.4164701
20
21.3582648
40
0.5023124
50
76.287748
51
90.4586006
0
ARC
8
DEFAULT_255_1_388
10
4.4509203
20
21.4957671
40
0.3605639
50
47.8240511
51
76.4266241
0
ARC
8
DEFAULT_255_1_388
10
4.4759587
20
21.5250599
40
0.3220463
50
6.9168387
51
47.6262497
0
ARC
8
DEFAULT_255_1_388
10
4.342504
20
21.5004004
40
0.4575765
50
359.8415968
51
7.9697453
0
ARC
8
DEFAULT_255_1_388
10
4.380931
20
20.8883519
40
0.2827228
50
359.445363
51
16.9256873
0
ARC
8
DEFAULT_255_1_388
10
4.4336744
20
20.9028781
40
0.2280396
50
17.2920767
51
45.4630727
0
ARC
8
DEFAULT_255_1_388
10
4.4275879
20
20.8976324
40
0.2360485
50
45.30305
51
83.1920945
0
ARC
8
DEFAULT_255_1_388
10
4.4114624
20
20.8074473
40
0.3275527
50
82.2612665
51
90.1434275
0
ARC
8
DEFAULT_255_1_388
10
4.40799
20
20.8336869
40
0.3013237
50
89.4956434
51
104.8580688
0
ARC
8
DEFAULT_255_1_388
10
4.388109
20
20.9090455
40
0.2233867
50
104.8856641
51
135.244616
0
ARC
8
DEFAULT_255_1_388
10
4.3937079
20
20.9040352
40
0.2308906
50
135.3399546
51
172.1044062
0
ARC
8
DEFAULT_255_1_388
10
4.4844603
20
20.8866667
40
0.3232034
50
171.2645637
51
180.186429
0
ARC
8
DEFAULT_255_1_388
10
4.4654608
20
20.8830426
40
0.304213
50
179.5154935
51
193.6464289
0
ARC
8
DEFAULT_255_1_388
10
4.3736284
20
20.8596473
40
0.209456
50
193.3540274
51
225.8258581
0
ARC
8
DEFAULT_255_1_388
10
4.3782156
20
20.8676076
40
0.2183738
50
226.4180634
51
255.8552336
0
ARC
8
DEFAULT_255_1_388
10
4.4070623
20
20.9729521
40
0.3275812
50
255.4654104
51
268.7987425
0
ARC
8
DEFAULT_255_1_388
10
4.4123799
20
21.0671545
40
0.4218877
50
268.3449238
51
270.0094605
0
ARC
8
DEFAULT_255_1_388
10
4.4150032
20
20.9903094
40
0.3450519
50
269.5759586
51
282.0820163
0
ARC
8
DEFAULT_255_1_388
10
4.4403069
20
20.8784363
40
0.2303642
50
281.752014
51
306.6056188
0
ARC
8
DEFAULT_255_1_388
10
4.4513877
20
20.8602802
40
0.2091906
50
307.1346085
51
314.027845
0
ARC
8
DEFAULT_255_1_388
10
4.4473389
20
20.8632459
40
0.2141385
50
314.2552483
51
350.1694025
0
ARC
8
DEFAULT_255_1_388
10
4.3515626
20
20.8840175
40
0.312082
50
349.4140529
51
0.2933014
0
ARC
8
DEFAULT_255_1_388
10
4.4100903
20
21.4643924
40
0.2588377
50
89.477747
51
105.729729
0
ARC
8
DEFAULT_255_1_388
10
4.3947823
20
21.5212367
40
0.1999733
50
105.9233417
51
135.1660906
0
ARC
8
DEFAULT_255_1_388
10
4.3970854
20
21.5196412
40
0.2027322
50
135.3052302
51
168.9883645
0
ARC
8
DEFAULT_255_1_388
10
4.490187
20
21.4982996
40
0.2982129
50
168.3801673
51
180.3602268
0
ARC
8
DEFAULT_255_1_388
10
4.4644987
20
21.4940622
40
0.2725291
50
179.5033122
51
194.9125571
0
ARC
8
DEFAULT_255_1_388
10
4.3986394
20
21.4767427
40
0.204431
50
194.9720816
51
224.194444
0
ARC
8
DEFAULT_255_1_388
10
4.3954759
20
21.4741635
40
0.2003651
50
224.2962453
51
262.015664
0
ARC
8
DEFAULT_255_1_388
10
4.4114763
20
21.5564315
40
0.2840925
50
261.1245923
51
270.1962896
0
ARC
8
DEFAULT_255_1_388
10
4.4148244
20
21.5353859
40
0.2630559
50
269.4827276
51
285.0987215
0
ARC
8
DEFAULT_255_1_388
10
4.432168
20
21.4703175
40
0.1957162
50
285.1585357
51
315.9484501
0
ARC
8
DEFAULT_255_1_388
10
4.4221554
20
21.4795315
40
0.2093195
50
316.0413965
51
351.916092
0
ARC
8
DEFAULT_255_1_388
10
4.3396928
20
21.4954323
40
0.2932279
50
351.105835
51
0.1939062
0
ARC
8
DEFAULT_255_1_388
10
4.3692562
20
21.4988224
40
0.2636739
50
359.4789618
51
16.0678224
0
ARC
8
DEFAULT_255_1_388
10
4.4228034
20
21.5132721
40
0.2082215
50
16.3252067
51
44.7913869
0
ARC
8
DEFAULT_255_1_388
10
4.4208096
20
21.513332
40
0.2095992
50
44.3957814
51
88.2499162
0
ARC
8
DEFAULT_255_1_388
10
4.4125431
20
21.4445006
40
0.2787189
50
86.9833854
51
90.0192215
0
LINE
8
DEFAULT_255_1_388
10
5.9367628
20
20.5269
11
5.8111673
21
20.8702545
0
LINE
8
DEFAULT_255_1_388
10
5.8111673
20
20.8702545
11
5.259993
21
20.8702545
0
LINE
8
DEFAULT_255_1_388
10
5.259993
20
20.8702545
11
5.1362047
21
20.5269
0
LINE
8
DEFAULT_255_1_388
10
5.1362047
20
20.5269
11
4.9572989
21
20.5269
0
LINE
8
DEFAULT_255_1_388
10
4.9572989
20
20.5269
11
5.4596808
21
21.8424898
0
LINE
8
DEFAULT_255_1_388
10
5.4596808
20
21.8424898
11
5.6114796
21
21.8424898
0
LINE
8
DEFAULT_255_1_388
10
5.6114796
20
21.8424898
11
6.114765
21
20.5269
0
LINE
8
DEFAULT_255_1_388
10
6.114765
20
20.5269
11
5.9367628
21
20.5269
0
LINE
8
DEFAULT_255_1_388
10
5.5355802
20
21.6283451
11
5.3123998
21
21.0130177
0
LINE
8
DEFAULT_255_1_388
10
5.3123998
20
21.0130177
11
5.7596642
21
21.0130177
0
LINE
8
DEFAULT_255_1_388
10
5.7596642
20
21.0130177
11
5.5355802
21
21.6283451
0
LINE
8
DEFAULT_255_1_388
10
4.8060819
20
29.7799898
11
4.8060819
21
29.6860191
0
LINE
8
DEFAULT_255_1_388
10
4.8060819
20
29.6860191
11
4.2612325
21
28.4644
0
LINE
8
DEFAULT_255_1_388
10
4.2612325
20
28.4644
11
4.085941
21
28.4644
0
LINE
8
DEFAULT_255_1_388
10
4.085941
20
28.4644
11
4.6289833
21
29.642648
0
LINE
8
DEFAULT_255_1_388
10
4.6289833
20
29.642648
11
3.9169745
21
29.642648
0
LINE
8
DEFAULT_255_1_388
10
3.9169745
20
29.642648
11
3.9169745
21
29.7799898
0
LINE
8
DEFAULT_255_1_388
10
3.9169745
20
29.7799898
11
4.8060819
21
29.7799898
0
LINE
8
DEFAULT_255_1_388
10
5.8406632
20
28.9568426
11
5.8406632
21
28.9423856
0
LINE
8
DEFAULT_255_1_388
10
5.1747362
20
28.5773456
11
5.1666041
21
28.4644
0
LINE
8
DEFAULT_255_1_388
10
5.1666041
20
28.4644
11
5.0129981
21
28.4644
0
LINE
8
DEFAULT_255_1_388
10
5.0129981
20
28.4644
11
5.0129981
21
29.852275
0
LINE
8
DEFAULT_255_1_388
10
5.0129981
20
29.852275
11
5.1801576
21
29.852275
0
LINE
8
DEFAULT_255_1_388
10
5.1801576
20
29.852275
11
5.1801576
21
29.3345326
0
LINE
8
DEFAULT_255_1_388
10
5.1801576
20
29.1646625
11
5.1801576
21
28.7417943
0
ARC
8
DEFAULT_255_1_388
10
5.0479084
20
28.9374101
40
0.7927704
50
349.4826431
51
0.3595958
0
ARC
8
DEFAULT_255_1_388
10
5.3040994
20
28.8880754
40
0.531881
50
331.8601729
51
349.6703499
0
ARC
8
DEFAULT_255_1_388
10
5.3865286
20
28.8479295
40
0.440275
50
322.8939675
51
331.4079366
0
ARC
8
DEFAULT_255_1_388
10
5.4647654
20
28.7827419
40
0.3385862
50
296.725075
51
323.7043525
0
ARC
8
DEFAULT_255_1_388
10
5.4681301
20
28.7905416
40
0.3441011
50
270.6344013
51
295.6405661
0
ARC
8
DEFAULT_255_1_388
10
5.4611997
20
28.8807096
40
0.4343809
50
269.9955642
51
271.4168155
0
ARC
8
DEFAULT_255_1_388
10
5.456878
20
28.8656485
40
0.4193418
50
253.6575074
51
270.5859134
0
ARC
8
DEFAULT_255_1_388
10
5.4309027
20
28.7707616
40
0.3209845
50
217.0542732
51
253.3409544
0
ARC
8
DEFAULT_255_1_388
10
5.4384024
20
29.1289393
40
0.3300893
50
93.1931057
51
141.4760886
0
ARC
8
DEFAULT_255_1_388
10
5.4589017
20
28.9903127
40
0.4698157
50
89.9442329
51
94.747695
0
ARC
8
DEFAULT_255_1_388
10
5.463824
20
29.0828571
40
0.3772974
50
70.6102966
51
90.6780641
0
ARC
8
DEFAULT_255_1_388
10
5.4766835
20
29.1340969
40
0.3247312
50
36.1152061
51
69.7490455
0
ARC
8
DEFAULT_255_1_388
10
5.3656931
20
29.0493642
40
0.4643452
50
15.4648073
51
36.4892008
0
ARC
8
DEFAULT_255_1_388
10
5.1341327
20
28.9819548
40
0.7055035
50
3.9221328
51
15.7266383
0
ARC
8
DEFAULT_255_1_388
10
4.8688446
20
28.9580859
40
0.9718194
50
359.9267025
51
4.2562571
0
ARC
8
DEFAULT_255_1_388
10
4.9602923
20
28.9648052
40
0.7132198
50
359.7232654
51
7.7112388
0
ARC
8
DEFAULT_255_1_388
10
5.214776
20
29.0003662
40
0.4562671
50
7.5740305
51
19.4153133
0
ARC
8
DEFAULT_255_1_388
10
5.3573773
20
29.0505795
40
0.3050836
50
19.4237113
51
34.9159184
0
ARC
8
DEFAULT_255_1_388
10
5.4328366
20
29.1053279
40
0.2118777
50
34.4555697
51
84.4656773
0
ARC
8
DEFAULT_255_1_388
10
5.4183742
20
29.0203992
40
0.2978698
50
83.2721807
51
90.1114043
0
ARC
8
DEFAULT_255_1_388
10
5.4136325
20
29.0427068
40
0.275593
50
89.1345761
51
111.409063
0
ARC
8
DEFAULT_255_1_388
10
5.4046947
20
29.0796005
40
0.2380381
50
112.6478022
51
148.9262646
0
ARC
8
DEFAULT_255_1_388
10
5.4922201
20
29.0186711
40
0.3445235
50
147.7602672
51
154.9285352
0
ARC
8
DEFAULT_255_1_388
10
5.4629458
20
28.8786592
40
0.3141675
50
205.8262295
51
224.5304491
0
ARC
8
DEFAULT_255_1_388
10
5.4092137
20
28.8306875
40
0.2422463
50
225.3544419
51
269.2437751
0
ARC
8
DEFAULT_255_1_388
10
5.4195331
20
28.9214679
40
0.3332798
50
267.6756581
51
270.0118705
0
ARC
8
DEFAULT_255_1_388
10
5.4225996
20
28.8360943
40
0.2479241
50
269.3072706
51
289.4988605
0
ARC
8
DEFAULT_255_1_388
10
5.4307071
20
28.8027296
40
0.2137951
50
290.4353105
51
325.3765722
0
ARC
8
DEFAULT_255_1_388
10
5.359973
20
28.85383
40
0.3010425
50
325.022387
51
342.6926192
0
ARC
8
DEFAULT_255_1_388
10
5.1690532
20
28.9159493
40
0.5018047
50
342.4062017
51
352.8669894
0
ARC
8
DEFAULT_255_1_388
10
4.8629869
20
28.9561328
40
0.810494
50
352.7349871
51
359.855599
0
ARC
8
DEFAULT_255_1_388
10
4.6461893
20
28.9613426
40
1.0273146
50
359.5955109
51
0.0009972
0
LINE
8
DEFAULT_255_1_388
10
4.8804819
20
37.7174898
11
4.8804819
21
37.6235191
0
LINE
8
DEFAULT_255_1_388
10
4.8804819
20
37.6235191
11
4.3356325
21
36.4019
0
LINE
8
DEFAULT_255_1_388
10
4.3356325
20
36.4019
11
4.160341
21
36.4019
0
LINE
8
DEFAULT_255_1_388
10
4.160341
20
36.4019
11
4.7033833
21
37.580148
0
LINE
8
DEFAULT_255_1_388
10
4.7033833
20
37.580148
11
3.9913745
21
37.580148
0
LINE
8
DEFAULT_255_1_388
10
3.9913745
20
37.580148
11
3.9913745
21
37.7174898
0
LINE
8
DEFAULT_255_1_388
10
3.9913745
20
37.7174898
11
4.8804819
21
37.7174898
0
LINE
8
DEFAULT_255_1_388
10
5.5699016
20
36.4019
11
5.1136015
21
36.4019
0
LINE
8
DEFAULT_255_1_388
10
5.1136015
20
36.4019
11
5.1136015
21
37.7174898
0
LINE
8
DEFAULT_255_1_388
10
5.1136015
20
37.7174898
11
5.5436982
21
37.7174898
0
LINE
8
DEFAULT_255_1_388
10
5.5762265
20
37.0172274
11
5.2870859
21
37.0172274
0
LINE
8
DEFAULT_255_1_388
10
5.2870859
20
37.0172274
11
5.2870859
21
36.5437596
0
LINE
8
DEFAULT_255_1_388
10
5.2870859
20
36.5437596
11
5.5735158
21
36.5437596
0
LINE
8
DEFAULT_255_1_388
10
5.2870859
20
37.5747267
11
5.2870859
21
37.1563763
0
LINE
8
DEFAULT_255_1_388
10
5.2870859
20
37.1563763
11
5.5491196
21
37.1563763
0
LINE
8
DEFAULT_255_1_388
10
5.5436982
20
37.5747267
11
5.2870859
21
37.5747267
0
ARC
8
DEFAULT_255_1_388
10
5.5479402
20
36.8886824
40
0.8288183
50
82.1256322
51
90.2932506
0
ARC
8
DEFAULT_255_1_388
10
5.5916977
20
37.194459
40
0.5199321
50
69.9044202
51
82.2857574
0
ARC
8
DEFAULT_255_1_388
10
5.655897
20
37.3679993
40
0.3348993
50
51.1840204
51
70.018125
0
ARC
8
DEFAULT_255_1_388
10
5.6845802
20
37.4096945
40
0.2844579
50
12.1018086
51
50.421322
0
ARC
8
DEFAULT_255_1_388
10
5.5288674
20
37.3705937
40
0.4449429
50
359.5252354
51
12.8212369
0
ARC
8
DEFAULT_255_1_388
10
5.7066104
20
37.3627943
40
0.2672162
50
323.4907456
51
0.8818258
0
ARC
8
DEFAULT_255_1_388
10
5.6595516
20
37.3991523
40
0.3266736
50
298.6824053
51
323.2758285
0
ARC
8
DEFAULT_255_1_388
10
5.6188808
20
37.4667509
40
0.4055105
50
293.1994739
51
299.139634
0
ARC
8
DEFAULT_255_1_388
10
5.6945757
20
36.7821651
40
0.3229926
50
54.0009997
51
74.9168635
0
ARC
8
DEFAULT_255_1_388
10
5.7076684
20
36.8043511
40
0.2973581
50
36.3578854
51
53.5293172
0
ARC
8
DEFAULT_255_1_388
10
5.6934052
20
36.794185
40
0.3148715
50
4.8189348
51
36.3090187
0
ARC
8
DEFAULT_255_1_388
10
5.6057076
20
36.7818383
40
0.4033265
50
359.9373213
51
5.5201284
0
ARC
8
DEFAULT_255_1_388
10
5.5692406
20
36.7772733
40
0.4398126
50
344.7479357
51
0.5372278
0
ARC
8
DEFAULT_255_1_388
10
5.6807305
20
36.7472205
40
0.3243441
50
311.1785587
51
344.6887681
0
ARC
8
DEFAULT_255_1_388
10
5.6478848
20
36.7881084
40
0.3767511
50
286.0417804
51
310.8440924
0
ARC
8
DEFAULT_255_1_388
10
5.5908258
20
36.9733885
40
0.5705957
50
274.1044074
51
286.4070149
0
ARC
8
DEFAULT_255_1_388
10
5.5709473
20
37.1851901
40
0.7832907
50
269.9235077
51
274.4458593
0
ARC
8
DEFAULT_255_1_388
10
5.5761191
20
36.9220462
40
0.3782955
50
269.6057074
51
281.3740795
0
ARC
8
DEFAULT_255_1_388
10
5.602069
20
36.7990569
40
0.2526069
50
281.105298
51
302.5134029
0
ARC
8
DEFAULT_255_1_388
10
5.6186077
20
36.7693944
40
0.2187131
50
303.0365425
51
311.8818034
0
ARC
8
DEFAULT_255_1_388
10
5.6266254
20
36.7598602
40
0.2062624
50
311.9916937
51
351.7143773
0
ARC
8
DEFAULT_255_1_388
10
5.5347279
20
36.7784271
40
0.2999202
50
350.7343295
51
0.2221526
0
ARC
8
DEFAULT_255_1_388
10
5.5226367
20
36.784787
40
0.3120525
50
359.045729
51
17.2295312
0
ARC
8
DEFAULT_255_1_388
10
5.6395398
20
36.8195155
40
0.1901144
50
17.6685208
51
78.9940245
0
ARC
8
DEFAULT_255_1_388
10
5.5813758
20
36.6107011
40
0.4065575
50
76.565218
51
90.7103392
0
LINE
8
DEFAULT_255_1_388
10
5.5763356
20
37.0172274
11
5.5762265
21
37.0172274
0
ARC
8
DEFAULT_255_1_388
10
5.5516584
20
37.5259949
40
0.3696273
50
269.6064514
51
281.4533785
0
ARC
8
DEFAULT_255_1_388
10
5.5767225
20
37.4077283
40
0.2487412
50
281.2044438
51
302.5143998
0
ARC
8
DEFAULT_255_1_388
10
5.5921479
20
37.3799576
40
0.2170405
50
303.0211308
51
309.8378766
0
ARC
8
DEFAULT_255_1_388
10
5.6127596
20
37.3568486
40
0.1860946
50
309.5229446
51
356.9509628
0
ARC
8
DEFAULT_255_1_388
10
5.5381722
20
37.3675831
40
0.2612347
50
355.4699226
51
0.0498632
0
ARC
8
DEFAULT_255_1_388
10
5.5067396
20
37.3700789
40
0.2926762
50
359.5558955
51
11.2092924
0
ARC
8
DEFAULT_255_1_388
10
5.6144363
20
37.3923667
40
0.1827036
50
10.9185717
51
31.322519
0
ARC
8
DEFAULT_255_1_388
10
5.6465911
20
37.4102571
40
0.1459418
50
31.8850633
51
52.1415586
0
ARC
8
DEFAULT_255_1_388
10
5.6157341
20
37.3666674
40
0.1993088
50
52.8283418
51
71.9850132
0
ARC
8
DEFAULT_255_1_388
10
5.5734501
20
37.2422158
40
0.3307407
50
71.686634
51
82.8453416
0
ARC
8
DEFAULT_255_1_388
10
5.5465148
20
37.0386892
40
0.536039
50
82.6981895
51
90.1730083
0
ARC
8
DEFAULT_255_1_388
10
5.543998
20
37.1265836
40
0.4481429
50
89.8851568
51
90.0383283
0
LINE
8
DEFAULT_255_1_388
10
4.8515819
20
45.6549898
11
4.8515819
21
45.5610191
0
LINE
8
DEFAULT_255_1_388
10
4.8515819
20
45.5610191
11
4.3067325
21
44.3394
0
LINE
8
DEFAULT_255_1_388
10
4.3067325
20
44.3394
11
4.131441
21
44.3394
0
LINE
8
DEFAULT_255_1_388
10
4.131441
20
44.3394
11
4.6744833
21
45.517648
0
LINE
8
DEFAULT_255_1_388
10
4.6744833
20
45.517648
11
3.9624745
21
45.517648
0
LINE
8
DEFAULT_255_1_388
10
3.9624745
20
45.517648
11
3.9624745
21
45.6549898
0
LINE
8
DEFAULT_255_1_388
10
3.9624745
20
45.6549898
11
4.8515819
21
45.6549898
0
LINE
8
DEFAULT_255_1_388
10
5.9367628
20
44.3394
11
5.8111673
21
44.6827545
0
LINE
8
DEFAULT_255_1_388
10
5.8111673
20
44.6827545
11
5.259993
21
44.6827545
0
LINE
8
DEFAULT_255_1_388
10
5.259993
20
44.6827545
11
5.1362047
21
44.3394
0
LINE
8
DEFAULT_255_1_388
10
5.1362047
20
44.3394
11
4.9572989
21
44.3394
0
LINE
8
DEFAULT_255_1_388
10
4.9572989
20
44.3394
11
5.4596808
21
45.6549898
0
LINE
8
DEFAULT_255_1_388
10
5.4596808
20
45.6549898
11
5.6114796
21
45.6549898
0
LINE
8
DEFAULT_255_1_388
10
5.6114796
20
45.6549898
11
6.114765
21
44.3394
0
LINE
8
DEFAULT_255_1_388
10
6.114765
20
44.3394
11
5.9367628
21
44.3394
0
LINE
8
DEFAULT_255_1_388
10
5.5355802
20
45.4408451
11
5.3123998
21
44.8255177
0
LINE
8
DEFAULT_255_1_388
10
5.3123998
20
44.8255177
11
5.7596642
21
44.8255177
0
LINE
8
DEFAULT_255_1_388
10
5.7596642
20
44.8255177
11
5.5355802
21
45.4408451
0
LINE
8
DEFAULT_255_1_388
10
4.5829015
20
53.5933934
11
4.6127191
21
53.5933934
0
LINE
8
DEFAULT_255_1_388
10
4.6127191
20
53.5933934
11
4.6127191
21
53.4515338
0
LINE
8
DEFAULT_255_1_388
10
4.6127191
20
53.4515338
11
4.5819979
21
53.4515338
0
LINE
8
DEFAULT_255_1_388
10
3.9666705
20
52.7774747
11
3.9666705
21
52.8416278
0
LINE
8
DEFAULT_255_1_388
10
4.1347335
20
52.8199422
11
4.1347335
21
52.7584999
0
ARC
8
DEFAULT_255_1_388
10
4.5878871
20
52.8892826
40
0.562282
50
90.6001079
51
104.5146616
0
ARC
8
DEFAULT_255_1_388
10
4.544183
20
53.05181
40
0.3939917
50
104.2855758
51
133.8630124
0
ARC
8
DEFAULT_255_1_388
10
4.5626083
20
53.0396243
40
0.4155734
50
134.5304124
51
161.6210222
0
ARC
8
DEFAULT_255_1_388
10
4.7486015
20
52.9740421
40
0.6127682
50
161.2850533
51
174.2074364
0
ARC
8
DEFAULT_255_1_388
10
4.9075582
20
52.9521437
40
0.7731446
50
173.7817938
51
174.9251711
0
ARC
8
DEFAULT_255_1_388
10
4.3949775
20
52.796627
40
0.3412588
50
95.8332067
51
138.995412
0
ARC
8
DEFAULT_255_1_388
10
4.4201056
20
52.6527695
40
0.4870358
50
89.8755506
51
97.0540979
0
ARC
8
DEFAULT_255_1_388
10
4.4254445
20
52.7467841
40
0.3930432
50
71.6407016
51
90.6240821
0
ARC
8
DEFAULT_255_1_388
10
4.4423838
20
52.8091433
40
0.3285421
50
39.6368051
51
71.0190743
0
ARC
8
DEFAULT_255_1_388
10
4.3707746
20
52.7472586
40
0.4231706
50
10.6588054
51
39.9044509
0
ARC
8
DEFAULT_255_1_388
10
4.1966291
20
52.7094223
40
0.60133
50
359.6827842
51
11.1326896
0
ARC
8
DEFAULT_255_1_388
10
4.1921627
20
52.7014715
40
0.6058047
50
347.2485908
51
0.4371098
0
ARC
8
DEFAULT_255_1_388
10
4.3797413
20
52.6563379
40
0.4128987
50
318.1408565
51
347.6118497
0
ARC
8
DEFAULT_255_1_388
10
4.4163009
20
52.6262903
40
0.3656244
50
275.6342406
51
317.824739
0
ARC
8
DEFAULT_255_1_388
10
4.391453
20
52.7724827
40
0.513655
50
269.8872513
51
276.7916069
0
ARC
8
DEFAULT_255_1_388
10
4.3852723
20
52.6571181
40
0.398323
50
246.9139443
51
270.7436787
0
ARC
8
DEFAULT_255_1_388
10
4.3859919
20
52.6411044
40
0.3839368
50
218.1665534
51
245.8780431
0
ARC
8
DEFAULT_255_1_388
10
4.4849291
20
52.7238903
40
0.5128958
50
191.4115343
51
218.6077624
0
ARC
8
DEFAULT_255_1_388
10
4.7029607
20
52.7727777
40
0.7363054
50
179.6344971
51
191.7836758
0
ARC
8
DEFAULT_255_1_388
10
5.3309482
20
52.8491495
40
1.3642984
50
171.4523743
51
180.3158856
0
ARC
8
DEFAULT_255_1_388
10
4.8365209
20
52.9260895
40
0.8639311
50
157.9802296
51
171.6246761
0
ARC
8
DEFAULT_255_1_388
10
4.5874559
20
53.0254038
40
0.5958004
50
141.4299236
51
157.8541251
0
ARC
8
DEFAULT_255_1_388
10
4.5152643
20
53.0764746
40
0.5075416
50
102.871586
51
140.8564533
0
ARC
8
DEFAULT_255_1_388
10
4.5881195
20
52.8019943
40
0.7914163
50
90.377773
51
103.5868422
0
ARC
8
DEFAULT_255_1_388
10
4.3925717
20
52.7339543
40
0.2667015
50
89.8751238
51
126.2072139
0
ARC
8
DEFAULT_255_1_388
10
4.3977188
20
52.7165847
40
0.2838229
50
124.9742447
51
144.8960197
0
ARC
8
DEFAULT_255_1_388
10
4.3779433
20
52.7326981
40
0.2583845
50
145.2974778
51
160.2660922
0
ARC
8
DEFAULT_255_1_388
10
4.7235921
20
52.7549151
40
0.5888695
50
179.6512124
51
190.285571
0
ARC
8
DEFAULT_255_1_388
10
4.5330401
20
52.7189968
40
0.3949683
50
190.0944895
51
207.5099647
0
ARC
8
DEFAULT_255_1_388
10
4.4693982
20
52.6887177
40
0.3245464
50
207.9585471
51
216.325377
0
ARC
8
DEFAULT_255_1_388
10
4.4311619
20
52.6572712
40
0.2751259
50
215.7661336
51
232.5457193
0
ARC
8
DEFAULT_255_1_388
10
4.3880735
20
52.6025273
40
0.2054668
50
232.8005815
51
270.6605497
0
ARC
8
DEFAULT_255_1_388
10
4.393216
20
52.6434853
40
0.2464268
50
269.3550767
51
288.474612
0
ARC
8
DEFAULT_255_1_388
10
4.4036667
20
52.6041721
40
0.2058436
50
289.1831976
51
322.9685307
0
ARC
8
DEFAULT_255_1_388
10
4.3348768
20
52.6584279
40
0.2934408
50
322.6007085
51
346.5183319
0
ARC
8
DEFAULT_255_1_388
10
4.2046524
20
52.6916434
40
0.4278249
50
346.2584622
51
358.7739592
0
ARC
8
DEFAULT_255_1_388
10
4.08951
20
52.6978829
40
0.5430876
50
358.3757628
51
0.0082477
0
ARC
8
DEFAULT_255_1_388
10
4.1751918
20
52.7009856
40
0.4574157
50
359.6211417
51
11.28403
0
ARC
8
DEFAULT_255_1_388
10
4.3188524
20
52.7309535
40
0.3106708
50
11.0483152
51
31.8145585
0
ARC
8
DEFAULT_255_1_388
10
4.3536229
20
52.7498045
40
0.2711963
50
32.3028554
51
38.0820598
0
ARC
8
DEFAULT_255_1_388
10
4.4009462
20
52.7926717
40
0.2075566
50
36.8249851
51
85.741667
0
ARC
8
DEFAULT_255_1_388
10
4.3933875
20
52.7363065
40
0.2643487
50
85.0150021
51
90.050843
0
LINE
8
DEFAULT_255_1_388
10
5.8406632
20
52.7693426
11
5.8406632
21
52.7548856
0
LINE
8
DEFAULT_255_1_388
10
5.1747362
20
52.3898456
11
5.1666041
21
52.2769
0
LINE
8
DEFAULT_255_1_388
10
5.1666041
20
52.2769
11
5.0129981
21
52.2769
0
LINE
8
DEFAULT_255_1_388
10
5.0129981
20
52.2769
11
5.0129981
21
53.664775
0
LINE
8
DEFAULT_255_1_388
10
5.0129981
20
53.664775
11
5.1801576
21
53.664775
0
LINE
8
DEFAULT_255_1_388
10
5.1801576
20
53.664775
11
5.1801576
21
53.1470326
0
LINE
8
DEFAULT_255_1_388
10
5.1801576
20
52.9771625
11
5.1801576
21
52.5542943
0
ARC
8
DEFAULT_255_1_388
10
5.0479084
20
52.7499101
40
0.7927704
50
349.4826431
51
0.3595958
0
ARC
8
DEFAULT_255_1_388
10
5.3040994
20
52.7005754
40
0.531881
50
331.8601729
51
349.6703499
0
ARC
8
DEFAULT_255_1_388
10
5.3865286
20
52.6604295
40
0.440275
50
322.8939675
51
331.4079366
0
ARC
8
DEFAULT_255_1_388
10
5.4647654
20
52.5952419
40
0.3385862
50
296.725075
51
323.7043525
0
ARC
8
DEFAULT_255_1_388
10
5.4681301
20
52.6030416
40
0.3441011
50
270.6344013
51
295.6405661
0
ARC
8
DEFAULT_255_1_388
10
5.4611997
20
52.6932096
40
0.4343809
50
269.9955642
51
271.4168155
0
ARC
8
DEFAULT_255_1_388
10
5.456878
20
52.6781485
40
0.4193418
50
253.6575074
51
270.5859134
0
ARC
8
DEFAULT_255_1_388
10
5.4309027
20
52.5832616
40
0.3209845
50
217.0542732
51
253.3409544
0
ARC
8
DEFAULT_255_1_388
10
5.4384024
20
52.9414393
40
0.3300893
50
93.1931057
51
141.4760886
0
ARC
8
DEFAULT_255_1_388
10
5.4589017
20
52.8028127
40
0.4698157
50
89.9442329
51
94.747695
0
ARC
8
DEFAULT_255_1_388
10
5.463824
20
52.8953571
40
0.3772974
50
70.6102966
51
90.6780641
0
ARC
8
DEFAULT_255_1_388
10
5.4766835
20
52.9465969
40
0.3247312
50
36.1152061
51
69.7490455
0
ARC
8
DEFAULT_255_1_388
10
5.3656931
20
52.8618642
40
0.4643452
50
15.4648073
51
36.4892008
0
ARC
8
DEFAULT_255_1_388
10
5.1341327
20
52.7944548
40
0.7055035
50
3.9221328
51
15.7266383
0
ARC
8
DEFAULT_255_1_388
10
4.8688446
20
52.7705859
40
0.9718194
50
359.9267025
51
4.2562571
0
ARC
8
DEFAULT_255_1_388
10
4.9602923
20
52.7773052
40
0.7132198
50
359.7232654
51
7.7112388
0
ARC
8
DEFAULT_255_1_388
10
5.214776
20
52.8128662
40
0.4562671
50
7.5740305
51
19.4153133
0
ARC
8
DEFAULT_255_1_388
10
5.3573773
20
52.8630795
40
0.3050836
50
19.4237113
51
34.9159184
0
ARC
8
DEFAULT_255_1_388
10
5.4328366
20
52.9178279
40
0.2118777
50
34.4555697
51
84.4656773
0
ARC
8
DEFAULT_255_1_388
10
5.4183742
20
52.8328992
40
0.2978698
50
83.2721807
51
90.1114043
0
ARC
8
DEFAULT_255_1_388
10
5.4136325
20
52.8552068
40
0.275593
50
89.1345761
51
111.409063
0
ARC
8
DEFAULT_255_1_388
10
5.4046947
20
52.8921005
40
0.2380381
50
112.6478022
51
148.9262646
0
ARC
8
DEFAULT_255_1_388
10
5.4922201
20
52.8311711
40
0.3445235
50
147.7602672
51
154.9285352
0
ARC
8
DEFAULT_255_1_388
10
5.4629458
20
52.6911592
40
0.3141675
50
205.8262295
51
224.5304491
0
ARC
8
DEFAULT_255_1_388
10
5.4092137
20
52.6431875
40
0.2422463
50
225.3544419
51
269.2437751
0
ARC
8
DEFAULT_255_1_388
10
5.4195331
20
52.7339679
40
0.3332798
50
267.6756581
51
270.0118705
0
ARC
8
DEFAULT_255_1_388
10
5.4225996
20
52.6485943
40
0.2479241
50
269.3072706
51
289.4988605
0
ARC
8
DEFAULT_255_1_388
10
5.4307071
20
52.6152296
40
0.2137951
50
290.4353105
51
325.3765722
0
ARC
8
DEFAULT_255_1_388
10
5.359973
20
52.66633
40
0.3010425
50
325.022387
51
342.6926192
0
ARC
8
DEFAULT_255_1_388
10
5.1690532
20
52.7284493
40
0.5018047
50
342.4062017
51
352.8669894
0
ARC
8
DEFAULT_255_1_388
10
4.8629869
20
52.7686328
40
0.810494
50
352.7349871
51
359.855599
0
ARC
8
DEFAULT_255_1_388
10
4.6461893
20
52.7738426
40
1.0273146
50
359.5955109
51
0.0009972
0
LINE
8
DEFAULT_255_1_388
10
4.6573015
20
61.5308934
11
4.6871191
21
61.5308934
0
LINE
8
DEFAULT_255_1_388
10
4.6871191
20
61.5308934
11
4.6871191
21
61.3890338
0
LINE
8
DEFAULT_255_1_388
10
4.6871191
20
61.3890338
11
4.6563979
21
61.3890338
0
LINE
8
DEFAULT_255_1_388
10
4.0410705
20
60.7149747
11
4.0410705
21
60.7791278
0
LINE
8
DEFAULT_255_1_388
10
4.2091335
20
60.7574422
11
4.2091335
21
60.6959999
0
ARC
8
DEFAULT_255_1_388
10
4.6622871
20
60.8267826
40
0.562282
50
90.6001079
51
104.5146616
0
ARC
8
DEFAULT_255_1_388
10
4.618583
20
60.98931
40
0.3939917
50
104.2855758
51
133.8630124
0
ARC
8
DEFAULT_255_1_388
10
4.6370083
20
60.9771243
40
0.4155734
50
134.5304124
51
161.6210222
0
ARC
8
DEFAULT_255_1_388
10
4.8230015
20
60.9115421
40
0.6127682
50
161.2850533
51
174.2074364
0
ARC
8
DEFAULT_255_1_388
10
4.9819582
20
60.8896437
40
0.7731446
50
173.7817938
51
174.9251711
0
ARC
8
DEFAULT_255_1_388
10
4.4693775
20
60.734127
40
0.3412588
50
95.8332067
51
138.995412
0
ARC
8
DEFAULT_255_1_388
10
4.4945056
20
60.5902695
40
0.4870358
50
89.8755506
51
97.0540979
0
ARC
8
DEFAULT_255_1_388
10
4.4998445
20
60.6842841
40
0.3930432
50
71.6407016
51
90.6240821
0
ARC
8
DEFAULT_255_1_388
10
4.5167838
20
60.7466433
40
0.3285421
50
39.6368051
51
71.0190743
0
ARC
8
DEFAULT_255_1_388
10
4.4451746
20
60.6847586
40
0.4231706
50
10.6588054
51
39.9044509
0
ARC
8
DEFAULT_255_1_388
10
4.2710291
20
60.6469223
40
0.60133
50
359.6827842
51
11.1326896
0
ARC
8
DEFAULT_255_1_388
10
4.2665627
20
60.6389715
40
0.6058047
50
347.2485908
51
0.4371098
0
ARC
8
DEFAULT_255_1_388
10
4.4541413
20
60.5938379
40
0.4128987
50
318.1408565
51
347.6118497
0
ARC
8
DEFAULT_255_1_388
10
4.4907009
20
60.5637903
40
0.3656244
50
275.6342406
51
317.824739
0
ARC
8
DEFAULT_255_1_388
10
4.465853
20
60.7099827
40
0.513655
50
269.8872513
51
276.7916069
0
ARC
8
DEFAULT_255_1_388
10
4.4596723
20
60.5946181
40
0.398323
50
246.9139443
51
270.7436787
0
ARC
8
DEFAULT_255_1_388
10
4.4603919
20
60.5786044
40
0.3839368
50
218.1665534
51
245.8780431
0
ARC
8
DEFAULT_255_1_388
10
4.5593291
20
60.6613903
40
0.5128958
50
191.4115343
51
218.6077624
0
ARC
8
DEFAULT_255_1_388
10
4.7773607
20
60.7102777
40
0.7363054
50
179.6344971
51
191.7836758
0
ARC
8
DEFAULT_255_1_388
10
5.4053482
20
60.7866495
40
1.3642984
50
171.4523743
51
180.3158856
0
ARC
8
DEFAULT_255_1_388
10
4.9109209
20
60.8635895
40
0.8639311
50
157.9802296
51
171.6246761
0
ARC
8
DEFAULT_255_1_388
10
4.6618559
20
60.9629038
40
0.5958004
50
141.4299236
51
157.8541251
0
ARC
8
DEFAULT_255_1_388
10
4.5896643
20
61.0139746
40
0.5075416
50
102.871586
51
140.8564533
0
ARC
8
DEFAULT_255_1_388
10
4.6625195
20
60.7394943
40
0.7914163
50
90.377773
51
103.5868422
0
ARC
8
DEFAULT_255_1_388
10
4.4669717
20
60.6714543
40
0.2667015
50
89.8751238
51
126.2072139
0
ARC
8
DEFAULT_255_1_388
10
4.4721188
20
60.6540847
40
0.2838229
50
124.9742447
51
144.8960197
0
ARC
8
DEFAULT_255_1_388
10
4.4523433
20
60.6701981
40
0.2583845
50
145.2974778
51
160.2660922
0
ARC
8
DEFAULT_255_1_388
10
4.7979921
20
60.6924151
40
0.5888695
50
179.6512124
51
190.285571
0
ARC
8
DEFAULT_255_1_388
10
4.6074401
20
60.6564968
40
0.3949683
50
190.0944895
51
207.5099647
0
ARC
8
DEFAULT_255_1_388
10
4.5437982
20
60.6262177
40
0.3245464
50
207.9585471
51
216.325377
0
ARC
8
DEFAULT_255_1_388
10
4.5055619
20
60.5947712
40
0.2751259
50
215.7661336
51
232.5457193
0
ARC
8
DEFAULT_255_1_388
10
4.4624735
20
60.5400273
40
0.2054668
50
232.8005815
51
270.6605497
0
ARC
8
DEFAULT_255_1_388
10
4.467616
20
60.5809853
40
0.2464268
50
269.3550767
51
288.474612
0
ARC
8
DEFAULT_255_1_388
10
4.4780667
20
60.5416721
40
0.2058436
50
289.1831976
51
322.9685307
0
ARC
8
DEFAULT_255_1_388
10
4.4092768
20
60.5959279
40
0.2934408
50
322.6007085
51
346.5183319
0
ARC
8
DEFAULT_255_1_388
10
4.2790524
20
60.6291434
40
0.4278249
50
346.2584622
51
358.7739592
0
ARC
8
DEFAULT_255_1_388
10
4.16391
20
60.6353829
40
0.5430876
50
358.3757628
51
0.0082477
0
ARC
8
DEFAULT_255_1_388
10
4.2495918
20
60.6384856
40
0.4574157
50
359.6211417
51
11.28403
0
ARC
8
DEFAULT_255_1_388
10
4.3932524
20
60.6684535
40
0.3106708
50
11.0483152
51
31.8145585
0
ARC
8
DEFAULT_255_1_388
10
4.4280229
20
60.6873045
40
0.2711963
50
32.3028554
51
38.0820598
0
ARC
8
DEFAULT_255_1_388
10
4.4753462
20
60.7301717
40
0.2075566
50
36.8249851
51
85.741667
0
ARC
8
DEFAULT_255_1_388
10
4.4677875
20
60.6738065
40
0.2643487
50
85.0150021
51
90.050843
0
LINE
8
DEFAULT_255_1_388
10
5.5699016
20
60.2144
11
5.1136015
21
60.2144
0
LINE
8
DEFAULT_255_1_388
10
5.1136015
20
60.2144
11
5.1136015
21
61.5299898
0
LINE
8
DEFAULT_255_1_388
10
5.1136015
20
61.5299898
11
5.5436982
21
61.5299898
0
LINE
8
DEFAULT_255_1_388
10
5.5762265
20
60.8297274
11
5.2870859
21
60.8297274
0
LINE
8
DEFAULT_255_1_388
10
5.2870859
20
60.8297274
11
5.2870859
21
60.3562596
0
LINE
8
DEFAULT_255_1_388
10
5.2870859
20
60.3562596
11
5.5735158
21
60.3562596
0
LINE
8
DEFAULT_255_1_388
10
5.2870859
20
61.3872267
11
5.2870859
21
60.9688763
0
LINE
8
DEFAULT_255_1_388
10
5.2870859
20
60.9688763
11
5.5491196
21
60.9688763
0
LINE
8
DEFAULT_255_1_388
10
5.5436982
20
61.3872267
11
5.2870859
21
61.3872267
0
ARC
8
DEFAULT_255_1_388
10
5.5479402
20
60.7011824
40
0.8288183
50
82.1256322
51
90.2932506
0
ARC
8
DEFAULT_255_1_388
10
5.5916977
20
61.006959
40
0.5199321
50
69.9044202
51
82.2857574
0
ARC
8
DEFAULT_255_1_388
10
5.655897
20
61.1804993
40
0.3348993
50
51.1840204
51
70.018125
0
ARC
8
DEFAULT_255_1_388
10
5.6845802
20
61.2221945
40
0.2844579
50
12.1018086
51
50.421322
0
ARC
8
DEFAULT_255_1_388
10
5.5288674
20
61.1830937
40
0.4449429
50
359.5252354
51
12.8212369
0
ARC
8
DEFAULT_255_1_388
10
5.7066104
20
61.1752943
40
0.2672162
50
323.4907456
51
0.8818258
0
ARC
8
DEFAULT_255_1_388
10
5.6595516
20
61.2116523
40
0.3266736
50
298.6824053
51
323.2758285
0
ARC
8
DEFAULT_255_1_388
10
5.6188808
20
61.2792509
40
0.4055105
50
293.1994739
51
299.139634
0
ARC
8
DEFAULT_255_1_388
10
5.6945757
20
60.5946651
40
0.3229926
50
54.0009997
51
74.9168635
0
ARC
8
DEFAULT_255_1_388
10
5.7076684
20
60.6168511
40
0.2973581
50
36.3578854
51
53.5293172
0
ARC
8
DEFAULT_255_1_388
10
5.6934052
20
60.606685
40
0.3148715
50
4.8189348
51
36.3090187
0
ARC
8
DEFAULT_255_1_388
10
5.6057076
20
60.5943383
40
0.4033265
50
359.9373213
51
5.5201284
0
ARC
8
DEFAULT_255_1_388
10
5.5692406
20
60.5897733
40
0.4398126
50
344.7479357
51
0.5372278
0
ARC
8
DEFAULT_255_1_388
10
5.6807305
20
60.5597205
40
0.3243441
50
311.1785587
51
344.6887681
0
ARC
8
DEFAULT_255_1_388
10
5.6478848
20
60.6006084
40
0.3767511
50
286.0417804
51
310.8440924
0
ARC
8
DEFAULT_255_1_388
10
5.5908258
20
60.7858885
40
0.5705957
50
274.1044074
51
286.4070149
0
ARC
8
DEFAULT_255_1_388
10
5.5709473
20
60.9976901
40
0.7832907
50
269.9235077
51
274.4458593
0
ARC
8
DEFAULT_255_1_388
10
5.5761191
20
60.7345462
40
0.3782955
50
269.6057074
51
281.3740795
0
ARC
8
DEFAULT_255_1_388
10
5.602069
20
60.6115569
40
0.2526069
50
281.105298
51
302.5134029
0
ARC
8
DEFAULT_255_1_388
10
5.6186077
20
60.5818944
40
0.2187131
50
303.0365425
51
311.8818034
0
ARC
8
DEFAULT_255_1_388
10
5.6266254
20
60.5723602
40
0.2062624
50
311.9916937
51
351.7143773
0
ARC
8
DEFAULT_255_1_388
10
5.5347279
20
60.5909271
40
0.2999202
50
350.7343295
51
0.2221526
0
ARC
8
DEFAULT_255_1_388
10
5.5226367
20
60.597287
40
0.3120525
50
359.045729
51
17.2295312
0
ARC
8
DEFAULT_255_1_388
10
5.6395398
20
60.6320155
40
0.1901144
50
17.6685208
51
78.9940245
0
ARC
8
DEFAULT_255_1_388
10
5.5813758
20
60.4232011
40
0.4065575
50
76.565218
51
90.7103392
0
LINE
8
DEFAULT_255_1_388
10
5.5763356
20
60.8297274
11
5.5762265
21
60.8297274
0
ARC
8
DEFAULT_255_1_388
10
5.5516584
20
61.3384949
40
0.3696273
50
269.6064514
51
281.4533785
0
ARC
8
DEFAULT_255_1_388
10
5.5767225
20
61.2202283
40
0.2487412
50
281.2044438
51
302.5143998
0
ARC
8
DEFAULT_255_1_388
10
5.5921479
20
61.1924576
40
0.2170405
50
303.0211308
51
309.8378766
0
ARC
8
DEFAULT_255_1_388
10
5.6127596
20
61.1693486
40
0.1860946
50
309.5229446
51
356.9509628
0
ARC
8
DEFAULT_255_1_388
10
5.5381722
20
61.1800831
40
0.2612347
50
355.4699226
51
0.0498632
0
ARC
8
DEFAULT_255_1_388
10
5.5067396
20
61.1825789
40
0.2926762
50
359.5558955
51
11.2092924
0
ARC
8
DEFAULT_255_1_388
10
5.6144363
20
61.2048667
40
0.1827036
50
10.9185717
51
31.322519
0
ARC
8
DEFAULT_255_1_388
10
5.6465911
20
61.2227571
40
0.1459418
50
31.8850633
51
52.1415586
0
ARC
8
DEFAULT_255_1_388
10
5.6157341
20
61.1791674
40
0.1993088
50
52.8283418
51
71.9850132
0
ARC
8
DEFAULT_255_1_388
10
5.5734501
20
61.0547158
40
0.3307407
50
71.686634
51
82.8453416
0
ARC
8
DEFAULT_255_1_388
10
5.5465148
20
60.8511892
40
0.536039
50
82.6981895
51
90.1730083
0
ARC
8
DEFAULT_255_1_388
10
5.543998
20
60.9390836
40
0.4481429
50
89.8851568
51
90.0383283
0
LINE
8
DEFAULT_255_1_388
10
4.6284015
20
69.4683934
11
4.6582191
21
69.4683934
0
LINE
8
DEFAULT_255_1_388
10
4.6582191
20
69.4683934
11
4.6582191
21
69.3265338
0
LINE
8
DEFAULT_255_1_388
10
4.6582191
20
69.3265338
11
4.6274979
21
69.3265338
0
LINE
8
DEFAULT_255_1_388
10
4.0121705
20
68.6524747
11
4.0121705
21
68.7166278
0
LINE
8
DEFAULT_255_1_388
10
4.1802335
20
68.6949422
11
4.1802335
21
68.6334999
0
ARC
8
DEFAULT_255_1_388
10
4.6333871
20
68.7642826
40
0.562282
50
90.6001079
51
104.5146616
0
ARC
8
DEFAULT_255_1_388
10
4.589683
20
68.92681
40
0.3939917
50
104.2855758
51
133.8630124
0
ARC
8
DEFAULT_255_1_388
10
4.6081083
20
68.9146243
40
0.4155734
50
134.5304124
51
161.6210222
0
ARC
8
DEFAULT_255_1_388
10
4.7941015
20
68.8490421
40
0.6127682
50
161.2850533
51
174.2074364
0
ARC
8
DEFAULT_255_1_388
10
4.9530582
20
68.8271437
40
0.7731446
50
173.7817938
51
174.9251711
0
ARC
8
DEFAULT_255_1_388
10
4.4404775
20
68.671627
40
0.3412588
50
95.8332067
51
138.995412
0
ARC
8
DEFAULT_255_1_388
10
4.4656056
20
68.5277695
40
0.4870358
50
89.8755506
51
97.0540979
0
ARC
8
DEFAULT_255_1_388
10
4.4709445
20
68.6217841
40
0.3930432
50
71.6407016
51
90.6240821
0
ARC
8
DEFAULT_255_1_388
10
4.4878838
20
68.6841433
40
0.3285421
50
39.6368051
51
71.0190743
0
ARC
8
DEFAULT_255_1_388
10
4.4162746
20
68.6222586
40
0.4231706
50
10.6588054
51
39.9044509
0
ARC
8
DEFAULT_255_1_388
10
4.2421291
20
68.5844223
40
0.60133
50
359.6827842
51
11.1326896
0
ARC
8
DEFAULT_255_1_388
10
4.2376627
20
68.5764715
40
0.6058047
50
347.2485908
51
0.4371098
0
ARC
8
DEFAULT_255_1_388
10
4.4252413
20
68.5313379
40
0.4128987
50
318.1408565
51
347.6118497
0
ARC
8
DEFAULT_255_1_388
10
4.4618009
20
68.5012903
40
0.3656244
50
275.6342406
51
317.824739
0
ARC
8
DEFAULT_255_1_388
10
4.436953
20
68.6474827
40
0.513655
50
269.8872513
51
276.7916069
0
ARC
8
DEFAULT_255_1_388
10
4.4307723
20
68.5321181
40
0.398323
50
246.9139443
51
270.7436787
0
ARC
8
DEFAULT_255_1_388
10
4.4314919
20
68.5161044
40
0.3839368
50
218.1665534
51
245.8780431
0
ARC
8
DEFAULT_255_1_388
10
4.5304291
20
68.5988903
40
0.5128958
50
191.4115343
51
218.6077624
0
ARC
8
DEFAULT_255_1_388
10
4.7484607
20
68.6477777
40
0.7363054
50
179.6344971
51
191.7836758
0
ARC
8
DEFAULT_255_1_388
10
5.3764482
20
68.7241495
40
1.3642984
50
171.4523743
51
180.3158856
0
ARC
8
DEFAULT_255_1_388
10
4.8820209
20
68.8010895
40
0.8639311
50
157.9802296
51
171.6246761
0
ARC
8
DEFAULT_255_1_388
10
4.6329559
20
68.9004038
40
0.5958004
50
141.4299236
51
157.8541251
0
ARC
8
DEFAULT_255_1_388
10
4.5607643
20
68.9514746
40
0.5075416
50
102.871586
51
140.8564533
0
ARC
8
DEFAULT_255_1_388
10
4.6336195
20
68.6769943
40
0.7914163
50
90.377773
51
103.5868422
0
ARC
8
DEFAULT_255_1_388
10
4.4380717
20
68.6089543
40
0.2667015
50
89.8751238
51
126.2072139
0
ARC
8
DEFAULT_255_1_388
10
4.4432188
20
68.5915847
40
0.2838229
50
124.9742447
51
144.8960197
0
ARC
8
DEFAULT_255_1_388
10
4.4234433
20
68.6076981
40
0.2583845
50
145.2974778
51
160.2660922
0
ARC
8
DEFAULT_255_1_388
10
4.7690921
20
68.6299151
40
0.5888695
50
179.6512124
51
190.285571
0
ARC
8
DEFAULT_255_1_388
10
4.5785401
20
68.5939968
40
0.3949683
50
190.0944895
51
207.5099647
0
ARC
8
DEFAULT_255_1_388
10
4.5148982
20
68.5637177
40
0.3245464
50
207.9585471
51
216.325377
0
ARC
8
DEFAULT_255_1_388
10
4.4766619
20
68.5322712
40
0.2751259
50
215.7661336
51
232.5457193
0
ARC
8
DEFAULT_255_1_388
10
4.4335735
20
68.4775273
40
0.2054668
50
232.8005815
51
270.6605497
0
ARC
8
DEFAULT_255_1_388
10
4.438716
20
68.5184853
40
0.2464268
50
269.3550767
51
288.474612
0
ARC
8
DEFAULT_255_1_388
10
4.4491667
20
68.4791721
40
0.2058436
50
289.1831976
51
322.9685307
0
ARC
8
DEFAULT_255_1_388
10
4.3803768
20
68.5334279
40
0.2934408
50
322.6007085
51
346.5183319
0
ARC
8
DEFAULT_255_1_388
10
4.2501524
20
68.5666434
40
0.4278249
50
346.2584622
51
358.7739592
0
ARC
8
DEFAULT_255_1_388
10
4.13501
20
68.5728829
40
0.5430876
50
358.3757628
51
0.0082477
0
ARC
8
DEFAULT_255_1_388
10
4.2206918
20
68.5759856
40
0.4574157
50
359.6211417
51
11.28403
0
ARC
8
DEFAULT_255_1_388
10
4.3643524
20
68.6059535
40
0.3106708
50
11.0483152
51
31.8145585
0
ARC
8
DEFAULT_255_1_388
10
4.3991229
20
68.6248045
40
0.2711963
50
32.3028554
51
38.0820598
0
ARC
8
DEFAULT_255_1_388
10
4.4464462
20
68.6676717
40
0.2075566
50
36.8249851
51
85.741667
0
ARC
8
DEFAULT_255_1_388
10
4.4388875
20
68.6113065
40
0.2643487
50
85.0150021
51
90.050843
0
LINE
8
DEFAULT_255_1_388
10
5.9367628
20
68.1519
11
5.8111673
21
68.4952545
0
LINE
8
DEFAULT_255_1_388
10
5.8111673
20
68.4952545
11
5.259993
21
68.4952545
0
LINE
8
DEFAULT_255_1_388
10
5.259993
20
68.4952545
11
5.1362047
21
68.1519
0
LINE
8
DEFAULT_255_1_388
10
5.1362047
20
68.1519
11
4.9572989
21
68.1519
0
LINE
8
DEFAULT_255_1_388
10
4.9572989
20
68.1519
11
5.4596808
21
69.4674898
0
LINE
8
DEFAULT_255_1_388
10
5.4596808
20
69.4674898
11
5.6114796
21
69.4674898
0
LINE
8
DEFAULT_255_1_388
10
5.6114796
20
69.4674898
11
6.114765
21
68.1519
0
LINE
8
DEFAULT_255_1_388
10
6.114765
20
68.1519
11
5.9367628
21
68.1519
0
LINE
8
DEFAULT_255_1_388
10
5.5355802
20
69.2533451
11
5.3123998
21
68.6380177
0
LINE
8
DEFAULT_255_1_388
10
5.3123998
20
68.6380177
11
5.7596642
21
68.6380177
0
LINE
8
DEFAULT_255_1_388
10
5.7596642
20
68.6380177
11
5.5355802
21
69.2533451
0
LINE
8
DEFAULT_255_1_388
10
4.1672618
20
76.7146666
11
4.0335343
21
76.7490021
0
LINE
8
DEFAULT_255_1_388
10
4.0335343
20
76.7490021
11
4.100398
21
77.4049898
0
LINE
8
DEFAULT_255_1_388
10
4.100398
20
77.4049898
11
4.7744571
21
77.4049898
0
LINE
8
DEFAULT_255_1_388
10
4.7744571
20
77.4049898
11
4.7744571
21
77.2504803
0
LINE
8
DEFAULT_255_1_388
10
4.7744571
20
77.2504803
11
4.2422577
21
77.2504803
0
LINE
8
DEFAULT_255_1_388
10
4.2422577
20
77.2504803
11
4.2025008
21
76.8917652
0
LINE
8
DEFAULT_255_1_388
10
3.9865489
20
76.4354652
11
4.1446727
21
76.4354652
0
LINE
8
DEFAULT_255_1_388
10
4.2115365
20
76.7508092
11
4.1672618
21
76.7146666
0
ARC
8
DEFAULT_255_1_388
10
4.4111622
20
76.5340241
40
0.4141476
50
93.7181681
51
120.253934
0
ARC
8
DEFAULT_255_1_388
10
4.4217674
20
76.4431284
40
0.5055616
50
89.9660471
51
94.2495185
0
ARC
8
DEFAULT_255_1_388
10
4.4263496
20
76.5094154
40
0.4392953
50
73.8045384
51
90.5585736
0
ARC
8
DEFAULT_255_1_388
10
4.4527754
20
76.605952
40
0.3392225
50
41.3071072
51
73.543002
0
ARC
8
DEFAULT_255_1_388
10
4.4059574
20
76.5656461
40
0.4009977
50
13.5075837
51
41.2174839
0
ARC
8
DEFAULT_255_1_388
10
4.2212671
20
76.5172907
40
0.5918864
50
1.1330171
51
13.8830737
0
ARC
8
DEFAULT_255_1_388
10
4.0616317
20
76.5087522
40
0.7516787
50
359.9925091
51
1.5431298
0
ARC
8
DEFAULT_255_1_388
10
4.2060932
20
76.5041027
40
0.6072343
50
347.8572712
51
0.4294349
0
ARC
8
DEFAULT_255_1_388
10
4.4030066
20
76.4594898
40
0.4053482
50
323.6727442
51
348.1674594
0
ARC
8
DEFAULT_255_1_388
10
4.4361031
20
76.4393175
40
0.3667495
50
316.8171818
51
323.1486802
0
ARC
8
DEFAULT_255_1_388
10
4.4430155
20
76.4351612
40
0.358869
50
281.839603
51
316.5458142
0
ARC
8
DEFAULT_255_1_388
10
4.4007442
20
76.6101363
40
0.5388223
50
269.5770964
51
282.4214641
0
ARC
8
DEFAULT_255_1_388
10
4.3927363
20
76.586093
40
0.5147801
50
256.2425863
51
270.4486481
0
ARC
8
DEFAULT_255_1_388
10
4.3590891
20
76.4511124
40
0.3756708
50
228.9024379
51
256.33135
0
ARC
8
DEFAULT_255_1_388
10
4.3507871
20
76.4380054
40
0.360344
50
193.7536029
51
228.5272638
0
ARC
8
DEFAULT_255_1_388
10
4.4900436
20
76.4788463
40
0.5053599
50
184.9244437
51
194.4976052
0
ARC
8
DEFAULT_255_1_388
10
4.5117077
20
76.4828722
40
0.3700839
50
187.3596909
51
198.6733728
0
ARC
8
DEFAULT_255_1_388
10
4.3936321
20
76.4419373
40
0.2451195
50
198.4453795
51
217.7945479
0
ARC
8
DEFAULT_255_1_388
10
4.3603493
20
76.4183563
40
0.2043754
50
218.2887146
51
228.5613203
0
ARC
8
DEFAULT_255_1_388
10
4.37135
20
76.4331902
40
0.2227819
50
228.9652423
51
258.1237049
0
ARC
8
DEFAULT_255_1_388
10
4.3944937
20
76.5322964
40
0.3245374
50
257.7260585
51
270.4013717
0
ARC
8
DEFAULT_255_1_388
10
4.3995435
20
76.4822255
40
0.2744726
50
269.4204315
51
286.420998
0
ARC
8
DEFAULT_255_1_388
10
4.4162491
20
76.4215705
40
0.2115721
50
286.7250065
51
320.6004665
0
ARC
8
DEFAULT_255_1_388
10
4.3731407
20
76.4565527
40
0.2670878
50
320.6712228
51
344.5440474
0
ARC
8
DEFAULT_255_1_388
10
4.243012
20
76.4947394
40
0.4026927
50
344.241448
51
356.735803
0
ARC
8
DEFAULT_255_1_388
10
4.1026428
20
76.5063656
40
0.5435085
50
356.3547471
51
0.0507222
0
ARC
8
DEFAULT_255_1_388
10
4.2528693
20
76.5098812
40
0.3932934
50
359.5579289
51
12.9534322
0
ARC
8
DEFAULT_255_1_388
10
4.3715533
20
76.5386586
40
0.2711827
50
12.6489751
51
41.608121
0
ARC
8
DEFAULT_255_1_388
10
4.3974693
20
76.5606946
40
0.2371737
50
41.7851122
51
85.9892156
0
ARC
8
DEFAULT_255_1_388
10
4.3836003
20
76.4691738
40
0.3295244
50
84.6965848
51
90.0672125
0
ARC
8
DEFAULT_255_1_388
10
4.380957
20
76.3940118
40
0.4046926
50
89.6804991
51
99.161352
0
ARC
8
DEFAULT_255_1_388
10
4.3578579
20
76.5320848
40
0.2647044
50
98.9836248
51
113.8905702
0
ARC
8
DEFAULT_255_1_388
10
4.3320254
20
76.5930118
40
0.1985386
50
114.195234
51
127.3641866
0
LINE
8
DEFAULT_255_1_388
10
5.8406632
20
76.5818426
11
5.8406632
21
76.5673856
0
LINE
8
DEFAULT_255_1_388
10
5.1747362
20
76.2023456
11
5.1666041
21
76.0894
0
LINE
8
DEFAULT_255_1_388
10
5.1666041
20
76.0894
11
5.0129981
21
76.0894
0
LINE
8
DEFAULT_255_1_388
10
5.0129981
20
76.0894
11
5.0129981
21
77.477275
0
LINE
8
DEFAULT_255_1_388
10
5.0129981
20
77.477275
11
5.1801576
21
77.477275
0
LINE
8
DEFAULT_255_1_388
10
5.1801576
20
77.477275
11
5.1801576
21
76.9595326
0
LINE
8
DEFAULT_255_1_388
10
5.1801576
20
76.7896625
11
5.1801576
21
76.3667943
0
ARC
8
DEFAULT_255_1_388
10
5.0479084
20
76.5624101
40
0.7927704
50
349.4826431
51
0.3595958
0
ARC
8
DEFAULT_255_1_388
10
5.3040994
20
76.5130754
40
0.531881
50
331.8601729
51
349.6703499
0
ARC
8
DEFAULT_255_1_388
10
5.3865286
20
76.4729295
40
0.440275
50
322.8939675
51
331.4079366
0
ARC
8
DEFAULT_255_1_388
10
5.4647654
20
76.4077419
40
0.3385862
50
296.725075
51
323.7043525
0
ARC
8
DEFAULT_255_1_388
10
5.4681301
20
76.4155416
40
0.3441011
50
270.6344013
51
295.6405661
0
ARC
8
DEFAULT_255_1_388
10
5.4611997
20
76.5057096
40
0.4343809
50
269.9955642
51
271.4168155
0
ARC
8
DEFAULT_255_1_388
10
5.456878
20
76.4906485
40
0.4193418
50
253.6575074
51
270.5859134
0
ARC
8
DEFAULT_255_1_388
10
5.4309027
20
76.3957616
40
0.3209845
50
217.0542732
51
253.3409544
0
ARC
8
DEFAULT_255_1_388
10
5.4384024
20
76.7539393
40
0.3300893
50
93.1931057
51
141.4760886
0
ARC
8
DEFAULT_255_1_388
10
5.4589017
20
76.6153127
40
0.4698157
50
89.9442329
51
94.747695
0
ARC
8
DEFAULT_255_1_388
10
5.463824
20
76.7078571
40
0.3772974
50
70.6102966
51
90.6780641
0
ARC
8
DEFAULT_255_1_388
10
5.4766835
20
76.7590969
40
0.3247312
50
36.1152061
51
69.7490455
0
ARC
8
DEFAULT_255_1_388
10
5.3656931
20
76.6743642
40
0.4643452
50
15.4648073
51
36.4892008
0
ARC
8
DEFAULT_255_1_388
10
5.1341327
20
76.6069548
40
0.7055035
50
3.9221328
51
15.7266383
0
ARC
8
DEFAULT_255_1_388
10
4.8688446
20
76.5830859
40
0.9718194
50
359.9267025
51
4.2562571
0
ARC
8
DEFAULT_255_1_388
10
4.9602923
20
76.5898052
40
0.7132198
50
359.7232654
51
7.7112388
0
ARC
8
DEFAULT_255_1_388
10
5.214776
20
76.6253662
40
0.4562671
50
7.5740305
51
19.4153133
0
ARC
8
DEFAULT_255_1_388
10
5.3573773
20
76.6755795
40
0.3050836
50
19.4237113
51
34.9159184
0
ARC
8
DEFAULT_255_1_388
10
5.4328366
20
76.7303279
40
0.2118777
50
34.4555697
51
84.4656773
0
ARC
8
DEFAULT_255_1_388
10
5.4183742
20
76.6453992
40
0.2978698
50
83.2721807
51
90.1114043
0
ARC
8
DEFAULT_255_1_388
10
5.4136325
20
76.6677068
40
0.275593
50
89.1345761
51
111.409063
0
ARC
8
DEFAULT_255_1_388
10
5.4046947
20
76.7046005
40
0.2380381
50
112.6478022
51
148.9262646
0
ARC
8
DEFAULT_255_1_388
10
5.4922201
20
76.6436711
40
0.3445235
50
147.7602672
51
154.9285352
0
ARC
8
DEFAULT_255_1_388
10
5.4629458
20
76.5036592
40
0.3141675
50
205.8262295
51
224.5304491
0
ARC
8
DEFAULT_255_1_388
10
5.4092137
20
76.4556875
40
0.2422463
50
225.3544419
51
269.2437751
0
ARC
8
DEFAULT_255_1_388
10
5.4195331
20
76.5464679
40
0.3332798
50
267.6756581
51
270.0118705
0
ARC
8
DEFAULT_255_1_388
10
5.4225996
20
76.4610943
40
0.2479241
50
269.3072706
51
289.4988605
0
ARC
8
DEFAULT_255_1_388
10
5.4307071
20
76.4277296
40
0.2137951
50
290.4353105
51
325.3765722
0
ARC
8
DEFAULT_255_1_388
10
5.359973
20
76.47883
40
0.3010425
50
325.022387
51
342.6926192
0
ARC
8
DEFAULT_255_1_388
10
5.1690532
20
76.5409493
40
0.5018047
50
342.4062017
51
352.8669894
0
ARC
8
DEFAULT_255_1_388
10
4.8629869
20
76.5811328
40
0.810494
50
352.7349871
51
359.855599
0
ARC
8
DEFAULT_255_1_388
10
4.6461893
20
76.5863426
40
1.0273146
50
359.5955109
51
0.0009972
0
LINE
8
DEFAULT_255_1_388
10
4.2416618
20
84.6521666
11
4.1079343
21
84.6865021
0
LINE
8
DEFAULT_255_1_388
10
4.1079343
20
84.6865021
11
4.174798
21
85.3424898
0
LINE
8
DEFAULT_255_1_388
10
4.174798
20
85.3424898
11
4.8488571
21
85.3424898
0
LINE
8
DEFAULT_255_1_388
10
4.8488571
20
85.3424898
11
4.8488571
21
85.1879803
0
LINE
8
DEFAULT_255_1_388
10
4.8488571
20
85.1879803
11
4.3166577
21
85.1879803
0
LINE
8
DEFAULT_255_1_388
10
4.3166577
20
85.1879803
11
4.2769008
21
84.8292652
0
LINE
8
DEFAULT_255_1_388
10
4.0609489
20
84.3729652
11
4.2190727
21
84.3729652
0
LINE
8
DEFAULT_255_1_388
10
4.2859365
20
84.6883092
11
4.2416618
21
84.6521666
0
ARC
8
DEFAULT_255_1_388
10
4.4855622
20
84.4715241
40
0.4141476
50
93.7181681
51
120.253934
0
ARC
8
DEFAULT_255_1_388
10
4.4961674
20
84.3806284
40
0.5055616
50
89.9660471
51
94.2495185
0
ARC
8
DEFAULT_255_1_388
10
4.5007496
20
84.4469154
40
0.4392953
50
73.8045384
51
90.5585736
0
ARC
8
DEFAULT_255_1_388
10
4.5271754
20
84.543452
40
0.3392225
50
41.3071072
51
73.543002
0
ARC
8
DEFAULT_255_1_388
10
4.4803574
20
84.5031461
40
0.4009977
50
13.5075837
51
41.2174839
0
ARC
8
DEFAULT_255_1_388
10
4.2956671
20
84.4547907
40
0.5918864
50
1.1330171
51
13.8830737
0
ARC
8
DEFAULT_255_1_388
10
4.1360317
20
84.4462522
40
0.7516787
50
359.9925091
51
1.5431298
0
ARC
8
DEFAULT_255_1_388
10
4.2804932
20
84.4416027
40
0.6072343
50
347.8572712
51
0.4294349
0
ARC
8
DEFAULT_255_1_388
10
4.4774066
20
84.3969898
40
0.4053482
50
323.6727442
51
348.1674594
0
ARC
8
DEFAULT_255_1_388
10
4.5105031
20
84.3768175
40
0.3667495
50
316.8171818
51
323.1486802
0
ARC
8
DEFAULT_255_1_388
10
4.5174155
20
84.3726612
40
0.358869
50
281.839603
51
316.5458142
0
ARC
8
DEFAULT_255_1_388
10
4.4751442
20
84.5476363
40
0.5388223
50
269.5770964
51
282.4214641
0
ARC
8
DEFAULT_255_1_388
10
4.4671363
20
84.523593
40
0.5147801
50
256.2425863
51
270.4486481
0
ARC
8
DEFAULT_255_1_388
10
4.4334891
20
84.3886124
40
0.3756708
50
228.9024379
51
256.33135
0
ARC
8
DEFAULT_255_1_388
10
4.4251871
20
84.3755054
40
0.360344
50
193.7536029
51
228.5272638
0
ARC
8
DEFAULT_255_1_388
10
4.5644436
20
84.4163463
40
0.5053599
50
184.9244437
51
194.4976052
0
ARC
8
DEFAULT_255_1_388
10
4.5861077
20
84.4203722
40
0.3700839
50
187.3596909
51
198.6733728
0
ARC
8
DEFAULT_255_1_388
10
4.4680321
20
84.3794373
40
0.2451195
50
198.4453795
51
217.7945479
0
ARC
8
DEFAULT_255_1_388
10
4.4347493
20
84.3558563
40
0.2043754
50
218.2887146
51
228.5613203
0
ARC
8
DEFAULT_255_1_388
10
4.44575
20
84.3706902
40
0.2227819
50
228.9652423
51
258.1237049
0
ARC
8
DEFAULT_255_1_388
10
4.4688937
20
84.4697964
40
0.3245374
50
257.7260585
51
270.4013717
0
ARC
8
DEFAULT_255_1_388
10
4.4739435
20
84.4197255
40
0.2744726
50
269.4204315
51
286.420998
0
ARC
8
DEFAULT_255_1_388
10
4.4906491
20
84.3590705
40
0.2115721
50
286.7250065
51
320.6004665
0
ARC
8
DEFAULT_255_1_388
10
4.4475407
20
84.3940527
40
0.2670878
50
320.6712228
51
344.5440474
0
ARC
8
DEFAULT_255_1_388
10
4.317412
20
84.4322394
40
0.4026927
50
344.241448
51
356.735803
0
ARC
8
DEFAULT_255_1_388
10
4.1770428
20
84.4438656
40
0.5435085
50
356.3547471
51
0.0507222
0
ARC
8
DEFAULT_255_1_388
10
4.3272693
20
84.4473812
40
0.3932934
50
359.5579289
51
12.9534322
0
ARC
8
DEFAULT_255_1_388
10
4.4459533
20
84.4761586
40
0.2711827
50
12.6489751
51
41.608121
0
ARC
8
DEFAULT_255_1_388
10
4.4718693
20
84.4981946
40
0.2371737
50
41.7851122
51
85.9892156
0
ARC
8
DEFAULT_255_1_388
10
4.4580003
20
84.4066738
40
0.3295244
50
84.6965848
51
90.0672125
0
ARC
8
DEFAULT_255_1_388
10
4.455357
20
84.3315118
40
0.4046926
50
89.6804991
51
99.161352
0
ARC
8
DEFAULT_255_1_388
10
4.4322579
20
84.4695848
40
0.2647044
50
98.9836248
51
113.8905702
0
ARC
8
DEFAULT_255_1_388
10
4.4064254
20
84.5305118
40
0.1985386
50
114.195234
51
127.3641866
0
LINE
8
DEFAULT_255_1_388
10
5.5699016
20
84.0269
11
5.1136015
21
84.0269
0
LINE
8
DEFAULT_255_1_388
10
5.1136015
20
84.0269
11
5.1136015
21
85.3424898
0
LINE
8
DEFAULT_255_1_388
10
5.1136015
20
85.3424898
11
5.5436982
21
85.3424898
0
LINE
8
DEFAULT_255_1_388
10
5.5762265
20
84.6422274
11
5.2870859
21
84.6422274
0
LINE
8
DEFAULT_255_1_388
10
5.2870859
20
84.6422274
11
5.2870859
21
84.1687596
0
LINE
8
DEFAULT_255_1_388
10
5.2870859
20
84.1687596
11
5.5735158
21
84.1687596
0
LINE
8
DEFAULT_255_1_388
10
5.2870859
20
85.1997267
11
5.2870859
21
84.7813763
0
LINE
8
DEFAULT_255_1_388
10
5.2870859
20
84.7813763
11
5.5491196
21
84.7813763
0
LINE
8
DEFAULT_255_1_388
10
5.5436982
20
85.1997267
11
5.2870859
21
85.1997267
0
ARC
8
DEFAULT_255_1_388
10
5.5479402
20
84.5136824
40
0.8288183
50
82.1256322
51
90.2932506
0
ARC
8
DEFAULT_255_1_388
10
5.5916977
20
84.819459
40
0.5199321
50
69.9044202
51
82.2857574
0
ARC
8
DEFAULT_255_1_388
10
5.655897
20
84.9929993
40
0.3348993
50
51.1840204
51
70.018125
0
ARC
8
DEFAULT_255_1_388
10
5.6845802
20
85.0346945
40
0.2844579
50
12.1018086
51
50.421322
0
ARC
8
DEFAULT_255_1_388
10
5.5288674
20
84.9955937
40
0.4449429
50
359.5252354
51
12.8212369
0
ARC
8
DEFAULT_255_1_388
10
5.7066104
20
84.9877943
40
0.2672162
50
323.4907456
51
0.8818258
0
ARC
8
DEFAULT_255_1_388
10
5.6595516
20
85.0241523
40
0.3266736
50
298.6824053
51
323.2758285
0
ARC
8
DEFAULT_255_1_388
10
5.6188808
20
85.0917509
40
0.4055105
50
293.1994739
51
299.139634
0
ARC
8
DEFAULT_255_1_388
10
5.6945757
20
84.4071651
40
0.3229926
50
54.0009997
51
74.9168635
0
ARC
8
DEFAULT_255_1_388
10
5.7076684
20
84.4293511
40
0.2973581
50
36.3578854
51
53.5293172
0
ARC
8
DEFAULT_255_1_388
10
5.6934052
20
84.419185
40
0.3148715
50
4.8189348
51
36.3090187
0
ARC
8
DEFAULT_255_1_388
10
5.6057076
20
84.4068383
40
0.4033265
50
359.9373213
51
5.5201284
0
ARC
8
DEFAULT_255_1_388
10
5.5692406
20
84.4022733
40
0.4398126
50
344.7479357
51
0.5372278
0
ARC
8
DEFAULT_255_1_388
10
5.6807305
20
84.3722205
40
0.3243441
50
311.1785587
51
344.6887681
0
ARC
8
DEFAULT_255_1_388
10
5.6478848
20
84.4131084
40
0.3767511
50
286.0417804
51
310.8440924
0
ARC
8
DEFAULT_255_1_388
10
5.5908258
20
84.5983885
40
0.5705957
50
274.1044074
51
286.4070149
0
ARC
8
DEFAULT_255_1_388
10
5.5709473
20
84.8101901
40
0.7832907
50
269.9235077
51
274.4458593
0
ARC
8
DEFAULT_255_1_388
10
5.5761191
20
84.5470462
40
0.3782955
50
269.6057074
51
281.3740795
0
ARC
8
DEFAULT_255_1_388
10
5.602069
20
84.4240569
40
0.2526069
50
281.105298
51
302.5134029
0
ARC
8
DEFAULT_255_1_388
10
5.6186077
20
84.3943944
40
0.2187131
50
303.0365425
51
311.8818034
0
ARC
8
DEFAULT_255_1_388
10
5.6266254
20
84.3848602
40
0.2062624
50
311.9916937
51
351.7143773
0
ARC
8
DEFAULT_255_1_388
10
5.5347279
20
84.4034271
40
0.2999202
50
350.7343295
51
0.2221526
0
ARC
8
DEFAULT_255_1_388
10
5.5226367
20
84.409787
40
0.3120525
50
359.045729
51
17.2295312
0
ARC
8
DEFAULT_255_1_388
10
5.6395398
20
84.4445155
40
0.1901144
50
17.6685208
51
78.9940245
0
ARC
8
DEFAULT_255_1_388
10
5.5813758
20
84.2357011
40
0.4065575
50
76.565218
51
90.7103392
0
LINE
8
DEFAULT_255_1_388
10
5.5763356
20
84.6422274
11
5.5762265
21
84.6422274
0
ARC
8
DEFAULT_255_1_388
10
5.5516584
20
85.1509949
40
0.3696273
50
269.6064514
51
281.4533785
0
ARC
8
DEFAULT_255_1_388
10
5.5767225
20
85.0327283
40
0.2487412
50
281.2044438
51
302.5143998
0
ARC
8
DEFAULT_255_1_388
10
5.5921479
20
85.0049576
40
0.2170405
50
303.0211308
51
309.8378766
0
ARC
8
DEFAULT_255_1_388
10
5.6127596
20
84.9818486
40
0.1860946
50
309.5229446
51
356.9509628
0
ARC
8
DEFAULT_255_1_388
10
5.5381722
20
84.9925831
40
0.2612347
50
355.4699226
51
0.0498632
0
ARC
8
DEFAULT_255_1_388
10
5.5067396
20
84.9950789
40
0.2926762
50
359.5558955
51
11.2092924
0
ARC
8
DEFAULT_255_1_388
10
5.6144363
20
85.0173667
40
0.1827036
50
10.9185717
51
31.322519
0
ARC
8
DEFAULT_255_1_388
10
5.6465911
20
85.0352571
40
0.1459418
50
31.8850633
51
52.1415586
0
ARC
8
DEFAULT_255_1_388
10
5.6157341
20
84.9916674
40
0.1993088
50
52.8283418
51
71.9850132
0
ARC
8
DEFAULT_255_1_388
10
5.5734501
20
84.8672158
40
0.3307407
50
71.686634
51
82.8453416
0
ARC
8
DEFAULT_255_1_388
10
5.5465148
20
84.6636892
40
0.536039
50
82.6981895
51
90.1730083
0
ARC
8
DEFAULT_255_1_388
10
5.543998
20
84.7515836
40
0.4481429
50
89.8851568
51
90.0383283
0
LINE
8
DEFAULT_255_1_388
10
4.2127618
20
92.5896666
11
4.0790343
21
92.6240021
0
LINE
8
DEFAULT_255_1_388
10
4.0790343
20
92.6240021
11
4.145898
21
93.2799898
0
LINE
8
DEFAULT_255_1_388
10
4.145898
20
93.2799898
11
4.8199571
21
93.2799898
0
LINE
8
DEFAULT_255_1_388
10
4.8199571
20
93.2799898
11
4.8199571
21
93.1254803
0
LINE
8
DEFAULT_255_1_388
10
4.8199571
20
93.1254803
11
4.2877577
21
93.1254803
0
LINE
8
DEFAULT_255_1_388
10
4.2877577
20
93.1254803
11
4.2480008
21
92.7667652
0
LINE
8
DEFAULT_255_1_388
10
4.0320489
20
92.3104652
11
4.1901727
21
92.3104652
0
LINE
8
DEFAULT_255_1_388
10
4.2570365
20
92.6258092
11
4.2127618
21
92.5896666
0
ARC
8
DEFAULT_255_1_388
10
4.4566622
20
92.4090241
40
0.4141476
50
93.7181681
51
120.253934
0
ARC
8
DEFAULT_255_1_388
10
4.4672674
20
92.3181284
40
0.5055616
50
89.9660471
51
94.2495185
0
ARC
8
DEFAULT_255_1_388
10
4.4718496
20
92.3844154
40
0.4392953
50
73.8045384
51
90.5585736
0
ARC
8
DEFAULT_255_1_388
10
4.4982754
20
92.480952
40
0.3392225
50
41.3071072
51
73.543002
0
ARC
8
DEFAULT_255_1_388
10
4.4514574
20
92.4406461
40
0.4009977
50
13.5075837
51
41.2174839
0
ARC
8
DEFAULT_255_1_388
10
4.2667671
20
92.3922907
40
0.5918864
50
1.1330171
51
13.8830737
0
ARC
8
DEFAULT_255_1_388
10
4.1071317
20
92.3837522
40
0.7516787
50
359.9925091
51
1.5431298
0
ARC
8
DEFAULT_255_1_388
10
4.2515932
20
92.3791027
40
0.6072343
50
347.8572712
51
0.4294349
0
ARC
8
DEFAULT_255_1_388
10
4.4485066
20
92.3344898
40
0.4053482
50
323.6727442
51
348.1674594
0
ARC
8
DEFAULT_255_1_388
10
4.4816031
20
92.3143175
40
0.3667495
50
316.8171818
51
323.1486802
0
ARC
8
DEFAULT_255_1_388
10
4.4885155
20
92.3101612
40
0.358869
50
281.839603
51
316.5458142
0
ARC
8
DEFAULT_255_1_388
10
4.4462442
20
92.4851363
40
0.5388223
50
269.5770964
51
282.4214641
0
ARC
8
DEFAULT_255_1_388
10
4.4382363
20
92.461093
40
0.5147801
50
256.2425863
51
270.4486481
0
ARC
8
DEFAULT_255_1_388
10
4.4045891
20
92.3261124
40
0.3756708
50
228.9024379
51
256.33135
0
ARC
8
DEFAULT_255_1_388
10
4.3962871
20
92.3130054
40
0.360344
50
193.7536029
51
228.5272638
0
ARC
8
DEFAULT_255_1_388
10
4.5355436
20
92.3538463
40
0.5053599
50
184.9244437
51
194.4976052
0
ARC
8
DEFAULT_255_1_388
10
4.5572077
20
92.3578722
40
0.3700839
50
187.3596909
51
198.6733728
0
ARC
8
DEFAULT_255_1_388
10
4.4391321
20
92.3169373
40
0.2451195
50
198.4453795
51
217.7945479
0
ARC
8
DEFAULT_255_1_388
10
4.4058493
20
92.2933563
40
0.2043754
50
218.2887146
51
228.5613203
0
ARC
8
DEFAULT_255_1_388
10
4.41685
20
92.3081902
40
0.2227819
50
228.9652423
51
258.1237049
0
ARC
8
DEFAULT_255_1_388
10
4.4399937
20
92.4072964
40
0.3245374
50
257.7260585
51
270.4013717
0
ARC
8
DEFAULT_255_1_388
10
4.4450435
20
92.3572255
40
0.2744726
50
269.4204315
51
286.420998
0
ARC
8
DEFAULT_255_1_388
10
4.4617491
20
92.2965705
40
0.2115721
50
286.7250065
51
320.6004665
0
ARC
8
DEFAULT_255_1_388
10
4.4186407
20
92.3315527
40
0.2670878
50
320.6712228
51
344.5440474
0
ARC
8
DEFAULT_255_1_388
10
4.288512
20
92.3697394
40
0.4026927
50
344.241448
51
356.735803
0
ARC
8
DEFAULT_255_1_388
10
4.1481428
20
92.3813656
40
0.5435085
50
356.3547471
51
0.0507222
0
ARC
8
DEFAULT_255_1_388
10
4.2983693
20
92.3848812
40
0.3932934
50
359.5579289
51
12.9534322
0
ARC
8
DEFAULT_255_1_388
10
4.4170533
20
92.4136586
40
0.2711827
50
12.6489751
51
41.608121
0
ARC
8
DEFAULT_255_1_388
10
4.4429693
20
92.4356946
40
0.2371737
50
41.7851122
51
85.9892156
0
ARC
8
DEFAULT_255_1_388
10
4.4291003
20
92.3441738
40
0.3295244
50
84.6965848
51
90.0672125
0
ARC
8
DEFAULT_255_1_388
10
4.426457
20
92.2690118
40
0.4046926
50
89.6804991
51
99.161352
0
ARC
8
DEFAULT_255_1_388
10
4.4033579
20
92.4070848
40
0.2647044
50
98.9836248
51
113.8905702
0
ARC
8
DEFAULT_255_1_388
10
4.3775254
20
92.4680118
40
0.1985386
50
114.195234
51
127.3641866
0
LINE
8
DEFAULT_255_1_388
10
5.9367628
20
91.9644
11
5.8111673
21
92.3077545
0
LINE
8
DEFAULT_255_1_388
10
5.8111673
20
92.3077545
11
5.259993
21
92.3077545
0
LINE
8
DEFAULT_255_1_388
10
5.259993
20
92.3077545
11
5.1362047
21
91.9644
0
LINE
8
DEFAULT_255_1_388
10
5.1362047
20
91.9644
11
4.9572989
21
91.9644
0
LINE
8
DEFAULT_255_1_388
10
4.9572989
20
91.9644
11
5.4596808
21
93.2799898
0
LINE
8
DEFAULT_255_1_388
10
5.4596808
20
93.2799898
11
5.6114796
21
93.2799898
0
LINE
8
DEFAULT_255_1_388
10
5.6114796
20
93.2799898
11
6.114765
21
91.9644
0
LINE
8
DEFAULT_255_1_388
10
6.114765
20
91.9644
11
5.9367628
21
91.9644
0
LINE
8
DEFAULT_255_1_388
10
5.5355802
20
93.0658451
11
5.3123998
21
92.4505177
0
LINE
8
DEFAULT_255_1_388
10
5.3123998
20
92.4505177
11
5.7596642
21
92.4505177
0
LINE
8
DEFAULT_255_1_388
10
5.7596642
20
92.4505177
11
5.5355802
21
93.0658451
0
LINE
8
DEFAULT_255_1_388
10
4.7947151
20
101.2174898
11
4.7947151
21
100.343743
0
LINE
8
DEFAULT_255_1_388
10
4.7947151
20
100.343743
11
4.9772352
21
100.343743
0
LINE
8
DEFAULT_255_1_388
10
4.9772352
20
100.343743
11
4.9772352
21
100.2073048
0
LINE
8
DEFAULT_255_1_388
10
4.9772352
20
100.2073048
11
4.7947151
21
100.2073048
0
LINE
8
DEFAULT_255_1_388
10
4.7947151
20
100.2073048
11
4.7947151
21
99.9019
0
LINE
8
DEFAULT_255_1_388
10
4.7947151
20
99.9019
11
4.6266521
21
99.9019
0
LINE
8
DEFAULT_255_1_388
10
4.6266521
20
99.9019
11
4.6266521
21
100.2073048
0
LINE
8
DEFAULT_255_1_388
10
4.6266521
20
100.2073048
11
4.0275889
21
100.2073048
0
LINE
8
DEFAULT_255_1_388
10
4.0275889
20
100.2073048
11
4.0275889
21
100.3057933
0
LINE
8
DEFAULT_255_1_388
10
4.0275889
20
100.3057933
11
4.6167129
21
101.2174898
0
LINE
8
DEFAULT_255_1_388
10
4.6167129
20
101.2174898
11
4.7947151
21
101.2174898
0
LINE
8
DEFAULT_255_1_388
10
4.6067737
20
100.9527455
11
4.2173375
21
100.343743
0
LINE
8
DEFAULT_255_1_388
10
4.2173375
20
100.343743
11
4.6266521
21
100.343743
0
LINE
8
DEFAULT_255_1_388
10
4.6266521
20
100.343743
11
4.6266521
21
100.988888
0
LINE
8
DEFAULT_255_1_388
10
4.6266521
20
100.988888
11
4.6067737
21
100.9527455
0
LINE
8
DEFAULT_255_1_388
10
5.9729632
20
100.3943426
11
5.9729632
21
100.3798856
0
LINE
8
DEFAULT_255_1_388
10
5.3070362
20
100.0148456
11
5.2989041
21
99.9019
0
LINE
8
DEFAULT_255_1_388
10
5.2989041
20
99.9019
11
5.1452981
21
99.9019
0
LINE
8
DEFAULT_255_1_388
10
5.1452981
20
99.9019
11
5.1452981
21
101.289775
0
LINE
8
DEFAULT_255_1_388
10
5.1452981
20
101.289775
11
5.3124576
21
101.289775
0
LINE
8
DEFAULT_255_1_388
10
5.3124576
20
101.289775
11
5.3124576
21
100.7720326
0
LINE
8
DEFAULT_255_1_388
10
5.3124576
20
100.6021625
11
5.3124576
21
100.1792943
0
ARC
8
DEFAULT_255_1_388
10
5.1802084
20
100.3749101
40
0.7927704
50
349.4826431
51
0.3595958
0
ARC
8
DEFAULT_255_1_388
10
5.4363994
20
100.3255754
40
0.531881
50
331.8601729
51
349.6703499
0
ARC
8
DEFAULT_255_1_388
10
5.5188286
20
100.2854295
40
0.440275
50
322.8939675
51
331.4079366
0
ARC
8
DEFAULT_255_1_388
10
5.5970654
20
100.2202419
40
0.3385862
50
296.725075
51
323.7043525
0
ARC
8
DEFAULT_255_1_388
10
5.6004301
20
100.2280416
40
0.3441011
50
270.6344013
51
295.6405661
0
ARC
8
DEFAULT_255_1_388
10
5.5934997
20
100.3182096
40
0.4343809
50
269.9955642
51
271.4168155
0
ARC
8
DEFAULT_255_1_388
10
5.589178
20
100.3031485
40
0.4193418
50
253.6575074
51
270.5859134
0
ARC
8
DEFAULT_255_1_388
10
5.5632027
20
100.2082616
40
0.3209845
50
217.0542732
51
253.3409544
0
ARC
8
DEFAULT_255_1_388
10
5.5707024
20
100.5664393
40
0.3300893
50
93.1931057
51
141.4760886
0
ARC
8
DEFAULT_255_1_388
10
5.5912017
20
100.4278127
40
0.4698157
50
89.9442329
51
94.747695
0
ARC
8
DEFAULT_255_1_388
10
5.596124
20
100.5203571
40
0.3772974
50
70.6102966
51
90.6780641
0
ARC
8
DEFAULT_255_1_388
10
5.6089835
20
100.5715969
40
0.3247312
50
36.1152061
51
69.7490455
0
ARC
8
DEFAULT_255_1_388
10
5.4979931
20
100.4868642
40
0.4643452
50
15.4648073
51
36.4892008
0
ARC
8
DEFAULT_255_1_388
10
5.2664327
20
100.4194548
40
0.7055035
50
3.9221328
51
15.7266383
0
ARC
8
DEFAULT_255_1_388
10
5.0011446
20
100.3955859
40
0.9718194
50
359.9267025
51
4.2562571
0
ARC
8
DEFAULT_255_1_388
10
5.0925923
20
100.4023052
40
0.7132198
50
359.7232654
51
7.7112388
0
ARC
8
DEFAULT_255_1_388
10
5.347076
20
100.4378662
40
0.4562671
50
7.5740305
51
19.4153133
0
ARC
8
DEFAULT_255_1_388
10
5.4896773
20
100.4880795
40
0.3050836
50
19.4237113
51
34.9159184
0
ARC
8
DEFAULT_255_1_388
10
5.5651366
20
100.5428279
40
0.2118777
50
34.4555697
51
84.4656773
0
ARC
8
DEFAULT_255_1_388
10
5.5506742
20
100.4578992
40
0.2978698
50
83.2721807
51
90.1114043
0
ARC
8
DEFAULT_255_1_388
10
5.5459325
20
100.4802068
40
0.275593
50
89.1345761
51
111.409063
0
ARC
8
DEFAULT_255_1_388
10
5.5369947
20
100.5171005
40
0.2380381
50
112.6478022
51
148.9262646
0
ARC
8
DEFAULT_255_1_388
10
5.6245201
20
100.4561711
40
0.3445235
50
147.7602672
51
154.9285352
0
ARC
8
DEFAULT_255_1_388
10
5.5952458
20
100.3161592
40
0.3141675
50
205.8262295
51
224.5304491
0
ARC
8
DEFAULT_255_1_388
10
5.5415137
20
100.2681875
40
0.2422463
50
225.3544419
51
269.2437751
0
ARC
8
DEFAULT_255_1_388
10
5.5518331
20
100.3589679
40
0.3332798
50
267.6756581
51
270.0118705
0
ARC
8
DEFAULT_255_1_388
10
5.5548996
20
100.2735943
40
0.2479241
50
269.3072706
51
289.4988605
0
ARC
8
DEFAULT_255_1_388
10
5.5630071
20
100.2402296
40
0.2137951
50
290.4353105
51
325.3765722
0
ARC
8
DEFAULT_255_1_388
10
5.492273
20
100.29133
40
0.3010425
50
325.022387
51
342.6926192
0
ARC
8
DEFAULT_255_1_388
10
5.3013532
20
100.3534493
40
0.5018047
50
342.4062017
51
352.8669894
0
ARC
8
DEFAULT_255_1_388
10
4.9952869
20
100.3936328
40
0.810494
50
352.7349871
51
359.855599
0
ARC
8
DEFAULT_255_1_388
10
4.7784893
20
100.3988426
40
1.0273146
50
359.5955109
51
0.0009972
0
LINE
8
DEFAULT_255_1_388
10
4.8691151
20
109.1549898
11
4.8691151
21
108.281243
0
LINE
8
DEFAULT_255_1_388
10
4.8691151
20
108.281243
11
5.0516352
21
108.281243
0
LINE
8
DEFAULT_255_1_388
10
5.0516352
20
108.281243
11
5.0516352
21
108.1448048
0
LINE
8
DEFAULT_255_1_388
10
5.0516352
20
108.1448048
11
4.8691151
21
108.1448048
0
LINE
8
DEFAULT_255_1_388
10
4.8691151
20
108.1448048
11
4.8691151
21
107.8394
0
LINE
8
DEFAULT_255_1_388
10
4.8691151
20
107.8394
11
4.7010521
21
107.8394
0
LINE
8
DEFAULT_255_1_388
10
4.7010521
20
107.8394
11
4.7010521
21
108.1448048
0
LINE
8
DEFAULT_255_1_388
10
4.7010521
20
108.1448048
11
4.1019889
21
108.1448048
0
LINE
8
DEFAULT_255_1_388
10
4.1019889
20
108.1448048
11
4.1019889
21
108.2432933
0
LINE
8
DEFAULT_255_1_388
10
4.1019889
20
108.2432933
11
4.6911129
21
109.1549898
0
LINE
8
DEFAULT_255_1_388
10
4.6911129
20
109.1549898
11
4.8691151
21
109.1549898
0
LINE
8
DEFAULT_255_1_388
10
4.6811737
20
108.8902455
11
4.2917375
21
108.281243
0
LINE
8
DEFAULT_255_1_388
10
4.2917375
20
108.281243
11
4.7010521
21
108.281243
0
LINE
8
DEFAULT_255_1_388
10
4.7010521
20
108.281243
11
4.7010521
21
108.926388
0
LINE
8
DEFAULT_255_1_388
10
4.7010521
20
108.926388
11
4.6811737
21
108.8902455
0
LINE
8
DEFAULT_255_1_388
10
5.7022016
20
107.8394
11
5.2459015
21
107.8394
0
LINE
8
DEFAULT_255_1_388
10
5.2459015
20
107.8394
11
5.2459015
21
109.1549898
0
LINE
8
DEFAULT_255_1_388
10
5.2459015
20
109.1549898
11
5.6759982
21
109.1549898
0
LINE
8
DEFAULT_255_1_388
10
5.7085265
20
108.4547274
11
5.4193859
21
108.4547274
0
LINE
8
DEFAULT_255_1_388
10
5.4193859
20
108.4547274
11
5.4193859
21
107.9812596
0
LINE
8
DEFAULT_255_1_388
10
5.4193859
20
107.9812596
11
5.7058158
21
107.9812596
0
LINE
8
DEFAULT_255_1_388
10
5.4193859
20
109.0122267
11
5.4193859
21
108.5938763
0
LINE
8
DEFAULT_255_1_388
10
5.4193859
20
108.5938763
11
5.6814196
21
108.5938763
0
LINE
8
DEFAULT_255_1_388
10
5.6759982
20
109.0122267
11
5.4193859
21
109.0122267
0
ARC
8
DEFAULT_255_1_388
10
5.6802402
20
108.3261824
40
0.8288183
50
82.1256322
51
90.2932506
0
ARC
8
DEFAULT_255_1_388
10
5.7239977
20
108.631959
40
0.5199321
50
69.9044202
51
82.2857574
0
ARC
8
DEFAULT_255_1_388
10
5.788197
20
108.8054993
40
0.3348993
50
51.1840204
51
70.018125
0
ARC
8
DEFAULT_255_1_388
10
5.8168802
20
108.8471945
40
0.2844579
50
12.1018086
51
50.421322
0
ARC
8
DEFAULT_255_1_388
10
5.6611674
20
108.8080937
40
0.4449429
50
359.5252354
51
12.8212369
0
ARC
8
DEFAULT_255_1_388
10
5.8389104
20
108.8002943
40
0.2672162
50
323.4907456
51
0.8818258
0
ARC
8
DEFAULT_255_1_388
10
5.7918516
20
108.8366523
40
0.3266736
50
298.6824053
51
323.2758285
0
ARC
8
DEFAULT_255_1_388
10
5.7511808
20
108.9042509
40
0.4055105
50
293.1994739
51
299.139634
0
ARC
8
DEFAULT_255_1_388
10
5.8268757
20
108.2196651
40
0.3229926
50
54.0009997
51
74.9168635
0
ARC
8
DEFAULT_255_1_388
10
5.8399684
20
108.2418511
40
0.2973581
50
36.3578854
51
53.5293172
0
ARC
8
DEFAULT_255_1_388
10
5.8257052
20
108.231685
40
0.3148715
50
4.8189348
51
36.3090187
0
ARC
8
DEFAULT_255_1_388
10
5.7380076
20
108.2193383
40
0.4033265
50
359.9373213
51
5.5201284
0
ARC
8
DEFAULT_255_1_388
10
5.7015406
20
108.2147733
40
0.4398126
50
344.7479357
51
0.5372278
0
ARC
8
DEFAULT_255_1_388
10
5.8130305
20
108.1847205
40
0.3243441
50
311.1785587
51
344.6887681
0
ARC
8
DEFAULT_255_1_388
10
5.7801848
20
108.2256084
40
0.3767511
50
286.0417804
51
310.8440924
0
ARC
8
DEFAULT_255_1_388
10
5.7231258
20
108.4108885
40
0.5705957
50
274.1044074
51
286.4070149
0
ARC
8
DEFAULT_255_1_388
10
5.7032473
20
108.6226901
40
0.7832907
50
269.9235077
51
274.4458593
0
ARC
8
DEFAULT_255_1_388
10
5.7084191
20
108.3595462
40
0.3782955
50
269.6057074
51
281.3740795
0
ARC
8
DEFAULT_255_1_388
10
5.734369
20
108.2365569
40
0.2526069
50
281.105298
51
302.5134029
0
ARC
8
DEFAULT_255_1_388
10
5.7509077
20
108.2068944
40
0.2187131
50
303.0365425
51
311.8818034
0
ARC
8
DEFAULT_255_1_388
10
5.7589254
20
108.1973602
40
0.2062624
50
311.9916937
51
351.7143773
0
ARC
8
DEFAULT_255_1_388
10
5.6670279
20
108.2159271
40
0.2999202
50
350.7343295
51
0.2221526
0
ARC
8
DEFAULT_255_1_388
10
5.6549367
20
108.222287
40
0.3120525
50
359.045729
51
17.2295312
0
ARC
8
DEFAULT_255_1_388
10
5.7718398
20
108.2570155
40
0.1901144
50
17.6685208
51
78.9940245
0
ARC
8
DEFAULT_255_1_388
10
5.7136758
20
108.0482011
40
0.4065575
50
76.565218
51
90.7103392
0
LINE
8
DEFAULT_255_1_388
10
5.7086356
20
108.4547274
11
5.7085265
21
108.4547274
0
ARC
8
DEFAULT_255_1_388
10
5.6839584
20
108.9634949
40
0.3696273
50
269.6064514
51
281.4533785
0
ARC
8
DEFAULT_255_1_388
10
5.7090225
20
108.8452283
40
0.2487412
50
281.2044438
51
302.5143998
0
ARC
8
DEFAULT_255_1_388
10
5.7244479
20
108.8174576
40
0.2170405
50
303.0211308
51
309.8378766
0
ARC
8
DEFAULT_255_1_388
10
5.7450596
20
108.7943486
40
0.1860946
50
309.5229446
51
356.9509628
0
ARC
8
DEFAULT_255_1_388
10
5.6704722
20
108.8050831
40
0.2612347
50
355.4699226
51
0.0498632
0
ARC
8
DEFAULT_255_1_388
10
5.6390396
20
108.8075789
40
0.2926762
50
359.5558955
51
11.2092924
0
ARC
8
DEFAULT_255_1_388
10
5.7467363
20
108.8298667
40
0.1827036
50
10.9185717
51
31.322519
0
ARC
8
DEFAULT_255_1_388
10
5.7788911
20
108.8477571
40
0.1459418
50
31.8850633
51
52.1415586
0
ARC
8
DEFAULT_255_1_388
10
5.7480341
20
108.8041674
40
0.1993088
50
52.8283418
51
71.9850132
0
ARC
8
DEFAULT_255_1_388
10
5.7057501
20
108.6797158
40
0.3307407
50
71.686634
51
82.8453416
0
ARC
8
DEFAULT_255_1_388
10
5.6788148
20
108.4761892
40
0.536039
50
82.6981895
51
90.1730083
0
ARC
8
DEFAULT_255_1_388
10
5.676298
20
108.5640836
40
0.4481429
50
89.8851568
51
90.0383283
0
LINE
8
DEFAULT_255_1_388
10
4.8402151
20
117.0924898
11
4.8402151
21
116.218743
0
LINE
8
DEFAULT_255_1_388
10
4.8402151
20
116.218743
11
5.0227352
21
116.218743
0
LINE
8
DEFAULT_255_1_388
10
5.0227352
20
116.218743
11
5.0227352
21
116.0823048
0
LINE
8
DEFAULT_255_1_388
10
5.0227352
20
116.0823048
11
4.8402151
21
116.0823048
0
LINE
8
DEFAULT_255_1_388
10
4.8402151
20
116.0823048
11
4.8402151
21
115.7769
0
LINE
8
DEFAULT_255_1_388
10
4.8402151
20
115.7769
11
4.6721521
21
115.7769
0
LINE
8
DEFAULT_255_1_388
10
4.6721521
20
115.7769
11
4.6721521
21
116.0823048
0
LINE
8
DEFAULT_255_1_388
10
4.6721521
20
116.0823048
11
4.0730889
21
116.0823048
0
LINE
8
DEFAULT_255_1_388
10
4.0730889
20
116.0823048
11
4.0730889
21
116.1807933
0
LINE
8
DEFAULT_255_1_388
10
4.0730889
20
116.1807933
11
4.6622129
21
117.0924898
0
LINE
8
DEFAULT_255_1_388
10
4.6622129
20
117.0924898
11
4.8402151
21
117.0924898
0
LINE
8
DEFAULT_255_1_388
10
4.6522737
20
116.8277455
11
4.2628375
21
116.218743
0
LINE
8
DEFAULT_255_1_388
10
4.2628375
20
116.218743
11
4.6721521
21
116.218743
0
LINE
8
DEFAULT_255_1_388
10
4.6721521
20
116.218743
11
4.6721521
21
116.863888
0
LINE
8
DEFAULT_255_1_388
10
4.6721521
20
116.863888
11
4.6522737
21
116.8277455
0
LINE
8
DEFAULT_255_1_388
10
6.0690628
20
115.7769
11
5.9434673
21
116.1202545
0
LINE
8
DEFAULT_255_1_388
10
5.9434673
20
116.1202545
11
5.392293
21
116.1202545
0
LINE
8
DEFAULT_255_1_388
10
5.392293
20
116.1202545
11
5.2685047
21
115.7769
0
LINE
8
DEFAULT_255_1_388
10
5.2685047
20
115.7769
11
5.0895989
21
115.7769
0
LINE
8
DEFAULT_255_1_388
10
5.0895989
20
115.7769
11
5.5919808
21
117.0924898
0
LINE
8
DEFAULT_255_1_388
10
5.5919808
20
117.0924898
11
5.7437796
21
117.0924898
0
LINE
8
DEFAULT_255_1_388
10
5.7437796
20
117.0924898
11
6.247065
21
115.7769
0
LINE
8
DEFAULT_255_1_388
10
6.247065
20
115.7769
11
6.0690628
21
115.7769
0
LINE
8
DEFAULT_255_1_388
10
5.6678802
20
116.8783451
11
5.4446998
21
116.2630177
0
LINE
8
DEFAULT_255_1_388
10
5.4446998
20
116.2630177
11
5.8919642
21
116.2630177
0
LINE
8
DEFAULT_255_1_388
10
5.8919642
20
116.2630177
11
5.6678802
21
116.8783451
0
LINE
8
DEFAULT_255_1_388
10
4.1997901
20
124.3170775
11
4.1997901
21
124.4535157
0
LINE
8
DEFAULT_255_1_388
10
4.1997901
20
124.4535157
11
4.3253856
21
124.4535157
0
LINE
8
DEFAULT_255_1_388
10
4.1112408
20
124.6848282
11
3.9440814
21
124.6848282
0
LINE
8
DEFAULT_255_1_388
10
3.9323351
20
124.0613688
11
4.100398
21
124.0613688
0
LINE
8
DEFAULT_255_1_388
10
4.3253856
20
124.3170775
11
4.1997901
21
124.3170775
0
ARC
8
DEFAULT_255_1_388
10
4.3221082
20
124.8351922
40
0.3816905
50
270.491971
51
281.8953028
0
ARC
8
DEFAULT_255_1_388
10
4.3492509
20
124.7112199
40
0.2547877
50
281.6690378
51
301.2943765
0
ARC
8
DEFAULT_255_1_388
10
4.3683961
20
124.6761926
40
0.2149197
50
301.7834992
51
311.754567
0
ARC
8
DEFAULT_255_1_388
10
4.3787002
20
124.664765
40
0.1995326
50
311.7325027
51
354.2803031
0
ARC
8
DEFAULT_255_1_388
10
4.2969418
20
124.678828
40
0.2823461
50
353.0941646
51
0.1174696
0
ARC
8
DEFAULT_255_1_388
10
4.2450976
20
124.6841874
40
0.3342238
50
359.1804452
51
15.0452323
0
ARC
8
DEFAULT_255_1_388
10
4.3965034
20
124.7283546
40
0.1765747
50
13.957816
51
77.6713812
0
ARC
8
DEFAULT_255_1_388
10
4.353027
20
124.5725464
40
0.3381982
50
76.111571
51
90.7028736
0
ARC
8
DEFAULT_255_1_388
10
4.3463682
20
124.603325
40
0.3074046
50
89.5321574
51
103.5319393
0
ARC
8
DEFAULT_255_1_388
10
4.3238066
20
124.6932443
40
0.2147041
50
103.2930114
51
133.5619756
0
ARC
8
DEFAULT_255_1_388
10
4.3188007
20
124.6999351
40
0.2064084
50
133.8349761
51
173.5343225
0
ARC
8
DEFAULT_255_1_388
10
4.4001665
20
124.6855144
40
0.2889266
50
172.5097183
51
180.1360699
0
ARC
8
DEFAULT_255_1_388
10
4.2931429
20
124.689388
40
0.3490913
50
155.3483706
51
180.7484035
0
ARC
8
DEFAULT_255_1_388
10
4.2876404
20
124.6861519
40
0.3454798
50
131.5745177
51
154.4799474
0
ARC
8
DEFAULT_255_1_388
10
4.3228687
20
124.6505422
40
0.3955058
50
96.9874487
51
131.9690874
0
ARC
8
DEFAULT_255_1_388
10
4.347558
20
124.5104407
40
0.537622
50
89.8592909
51
97.7827481
0
ARC
8
DEFAULT_255_1_388
10
4.3529689
20
124.480936
40
0.5671399
50
78.3654493
51
90.4132586
0
ARC
8
DEFAULT_255_1_388
10
4.393233
20
124.6675918
40
0.3762034
50
56.6229818
51
78.6387103
0
ARC
8
DEFAULT_255_1_388
10
4.4174159
20
124.7098846
40
0.3275964
50
47.0254604
51
56.085558
0
ARC
8
DEFAULT_255_1_388
10
4.419641
20
124.7143189
40
0.3228382
50
10.9207523
51
46.777927
0
ARC
8
DEFAULT_255_1_388
10
4.2662004
20
124.6788401
40
0.4802559
50
359.6364235
51
11.6087615
0
ARC
8
DEFAULT_255_1_388
10
4.472617
20
124.6771404
40
0.273833
50
332.3549969
51
359.7179765
0
ARC
8
DEFAULT_255_1_388
10
4.399457
20
124.7118285
40
0.3547505
50
325.2332381
51
332.8746682
0
ARC
8
DEFAULT_255_1_388
10
4.4166153
20
124.6998763
40
0.3338396
50
292.9803892
51
325.2391113
0
ARC
8
DEFAULT_255_1_388
10
4.3855349
20
124.7603679
40
0.4016959
50
292.542178
51
293.6931461
0
ARC
8
DEFAULT_255_1_388
10
4.4298921
20
124.0338036
40
0.372079
50
57.643292
51
72.8626085
0
ARC
8
DEFAULT_255_1_388
10
4.4697755
20
124.0984273
40
0.2961455
50
36.7246661
51
57.4701329
0
ARC
8
DEFAULT_255_1_388
10
4.4684912
20
124.099847
40
0.2963321
50
8.054535
51
36.3561529
0
ARC
8
DEFAULT_255_1_388
10
4.3714585
20
124.0824073
40
0.3948682
50
359.8316595
51
8.5873361
0
ARC
8
DEFAULT_255_1_388
10
4.3292059
20
124.076997
40
0.4371398
50
343.9831631
51
0.557075
0
ARC
8
DEFAULT_255_1_388
10
4.4289108
20
124.0496963
40
0.3337749
50
311.6358204
51
343.7652116
0
ARC
8
DEFAULT_255_1_388
10
4.3863362
20
124.0976955
40
0.3979351
50
279.7829743
51
311.625622
0
ARC
8
DEFAULT_255_1_388
10
4.3524497
20
124.2593642
40
0.5630417
50
269.7285092
51
280.3857694
0
ARC
8
DEFAULT_255_1_388
10
4.345481
20
124.2547241
40
0.5584119
50
256.6827433
51
270.4412869
0
ARC
8
DEFAULT_255_1_388
10
4.3073797
20
124.0989698
40
0.3980715
50
229.4223821
51
256.8554507
0
ARC
8
DEFAULT_255_1_388
10
4.260735
20
124.0464683
40
0.3278564
50
181.8183354
51
229.6455015
0
ARC
8
DEFAULT_255_1_388
10
4.377696
20
124.0611825
40
0.4453611
50
179.9760419
51
183.2330638
0
ARC
8
DEFAULT_255_1_388
10
4.3583512
20
124.0588781
40
0.2579652
50
179.4467996
51
196.2871626
0
ARC
8
DEFAULT_255_1_388
10
4.3034966
20
124.0438709
40
0.2011057
50
196.5661293
51
227.7059371
0
ARC
8
DEFAULT_255_1_388
10
4.3219573
20
124.0645155
40
0.2287994
50
227.7653015
51
257.8763321
0
ARC
8
DEFAULT_255_1_388
10
4.3472656
20
124.1705961
40
0.3378385
50
257.4583525
51
270.4267406
0
ARC
8
DEFAULT_255_1_388
10
4.3523906
20
124.203223
40
0.3704652
50
269.5965319
51
280.8788143
0
ARC
8
DEFAULT_255_1_388
10
4.3782134
20
124.0742529
40
0.2389415
50
280.6347277
51
299.8594068
0
ARC
8
DEFAULT_255_1_388
10
4.3996903
20
124.0334736
40
0.19289
50
300.3575552
51
314.5515667
0
ARC
8
DEFAULT_255_1_388
10
4.3903579
20
124.0403025
40
0.204312
50
315.0730962
51
345.0429362
0
ARC
8
DEFAULT_255_1_388
10
4.2865087
20
124.0705539
40
0.31246
50
344.598526
51
357.9270698
0
ARC
8
DEFAULT_255_1_388
10
4.1855391
20
124.0774705
40
0.4136265
50
357.4755098
51
0.0224936
0
ARC
8
DEFAULT_255_1_388
10
4.3008269
20
124.0802099
40
0.2983498
50
359.5051035
51
13.4236939
0
ARC
8
DEFAULT_255_1_388
10
4.3983359
20
124.1051637
40
0.1977186
50
12.9497905
51
48.7550905
0
ARC
8
DEFAULT_255_1_388
10
4.3778281
20
124.0771373
40
0.2323321
50
49.509109
51
72.1832965
0
ARC
8
DEFAULT_255_1_388
10
4.3375749
20
123.9576632
40
0.358397
50
71.9008458
51
84.3555134
0
ARC
8
DEFAULT_255_1_388
10
4.3194144
20
123.8044712
40
0.512641
50
84.019632
51
89.3326067
0
LINE
8
DEFAULT_255_1_388
10
5.8406632
20
124.2068426
11
5.8406632
21
124.1923856
0
LINE
8
DEFAULT_255_1_388
10
5.1747362
20
123.8273456
11
5.1666041
21
123.7144
0
LINE
8
DEFAULT_255_1_388
10
5.1666041
20
123.7144
11
5.0129981
21
123.7144
0
LINE
8
DEFAULT_255_1_388
10
5.0129981
20
123.7144
11
5.0129981
21
125.102275
0
LINE
8
DEFAULT_255_1_388
10
5.0129981
20
125.102275
11
5.1801576
21
125.102275
0
LINE
8
DEFAULT_255_1_388
10
5.1801576
20
125.102275
11
5.1801576
21
124.5845326
0
LINE
8
DEFAULT_255_1_388
10
5.1801576
20
124.4146625
11
5.1801576
21
123.9917943
0
ARC
8
DEFAULT_255_1_388
10
5.0479084
20
124.1874101
40
0.7927704
50
349.4826431
51
0.3595958
0
ARC
8
DEFAULT_255_1_388
10
5.3040994
20
124.1380754
40
0.531881
50
331.8601729
51
349.6703499
0
ARC
8
DEFAULT_255_1_388
10
5.3865286
20
124.0979295
40
0.440275
50
322.8939675
51
331.4079366
0
ARC
8
DEFAULT_255_1_388
10
5.4647654
20
124.0327419
40
0.3385862
50
296.725075
51
323.7043525
0
ARC
8
DEFAULT_255_1_388
10
5.4681301
20
124.0405416
40
0.3441011
50
270.6344013
51
295.6405661
0
ARC
8
DEFAULT_255_1_388
10
5.4611997
20
124.1307096
40
0.4343809
50
269.9955642
51
271.4168155
0
ARC
8
DEFAULT_255_1_388
10
5.456878
20
124.1156485
40
0.4193418
50
253.6575074
51
270.5859134
0
ARC
8
DEFAULT_255_1_388
10
5.4309027
20
124.0207616
40
0.3209845
50
217.0542732
51
253.3409544
0
ARC
8
DEFAULT_255_1_388
10
5.4384024
20
124.3789393
40
0.3300893
50
93.1931057
51
141.4760886
0
ARC
8
DEFAULT_255_1_388
10
5.4589017
20
124.2403127
40
0.4698157
50
89.9442329
51
94.747695
0
ARC
8
DEFAULT_255_1_388
10
5.463824
20
124.3328571
40
0.3772974
50
70.6102966
51
90.6780641
0
ARC
8
DEFAULT_255_1_388
10
5.4766835
20
124.3840969
40
0.3247312
50
36.1152061
51
69.7490455
0
ARC
8
DEFAULT_255_1_388
10
5.3656931
20
124.2993642
40
0.4643452
50
15.4648073
51
36.4892008
0
ARC
8
DEFAULT_255_1_388
10
5.1341327
20
124.2319548
40
0.7055035
50
3.9221328
51
15.7266383
0
ARC
8
DEFAULT_255_1_388
10
4.8688446
20
124.2080859
40
0.9718194
50
359.9267025
51
4.2562571
0
ARC
8
DEFAULT_255_1_388
10
4.9602923
20
124.2148052
40
0.7132198
50
359.7232654
51
7.7112388
0
ARC
8
DEFAULT_255_1_388
10
5.214776
20
124.2503662
40
0.4562671
50
7.5740305
51
19.4153133
0
ARC
8
DEFAULT_255_1_388
10
5.3573773
20
124.3005795
40
0.3050836
50
19.4237113
51
34.9159184
0
ARC
8
DEFAULT_255_1_388
10
5.4328366
20
124.3553279
40
0.2118777
50
34.4555697
51
84.4656773
0
ARC
8
DEFAULT_255_1_388
10
5.4183742
20
124.2703992
40
0.2978698
50
83.2721807
51
90.1114043
0
ARC
8
DEFAULT_255_1_388
10
5.4136325
20
124.2927068
40
0.275593
50
89.1345761
51
111.409063
0
ARC
8
DEFAULT_255_1_388
10
5.4046947
20
124.3296005
40
0.2380381
50
112.6478022
51
148.9262646
0
ARC
8
DEFAULT_255_1_388
10
5.4922201
20
124.2686711
40
0.3445235
50
147.7602672
51
154.9285352
0
ARC
8
DEFAULT_255_1_388
10
5.4629458
20
124.1286592
40
0.3141675
50
205.8262295
51
224.5304491
0
ARC
8
DEFAULT_255_1_388
10
5.4092137
20
124.0806875
40
0.2422463
50
225.3544419
51
269.2437751
0
ARC
8
DEFAULT_255_1_388
10
5.4195331
20
124.1714679
40
0.3332798
50
267.6756581
51
270.0118705
0
ARC
8
DEFAULT_255_1_388
10
5.4225996
20
124.0860943
40
0.2479241
50
269.3072706
51
289.4988605
0
ARC
8
DEFAULT_255_1_388
10
5.4307071
20
124.0527296
40
0.2137951
50
290.4353105
51
325.3765722
0
ARC
8
DEFAULT_255_1_388
10
5.359973
20
124.10383
40
0.3010425
50
325.022387
51
342.6926192
0
ARC
8
DEFAULT_255_1_388
10
5.1690532
20
124.1659493
40
0.5018047
50
342.4062017
51
352.8669894
0
ARC
8
DEFAULT_255_1_388
10
4.8629869
20
124.2061328
40
0.810494
50
352.7349871
51
359.855599
0
ARC
8
DEFAULT_255_1_388
10
4.6461893
20
124.2113426
40
1.0273146
50
359.5955109
51
0.0009972
0
LINE
8
DEFAULT_255_1_388
10
4.2741901
20
132.2545775
11
4.2741901
21
132.3910157
0
LINE
8
DEFAULT_255_1_388
10
4.2741901
20
132.3910157
11
4.3997856
21
132.3910157
0
LINE
8
DEFAULT_255_1_388
10
4.1856408
20
132.6223282
11
4.0184814
21
132.6223282
0
LINE
8
DEFAULT_255_1_388
10
4.0067351
20
131.9988688
11
4.174798
21
131.9988688
0
LINE
8
DEFAULT_255_1_388
10
4.3997856
20
132.2545775
11
4.2741901
21
132.2545775
0
ARC
8
DEFAULT_255_1_388
10
4.3965082
20
132.7726922
40
0.3816905
50
270.491971
51
281.8953028
0
ARC
8
DEFAULT_255_1_388
10
4.4236509
20
132.6487199
40
0.2547877
50
281.6690378
51
301.2943765
0
ARC
8
DEFAULT_255_1_388
10
4.4427961
20
132.6136926
40
0.2149197
50
301.7834992
51
311.754567
0
ARC
8
DEFAULT_255_1_388
10
4.4531002
20
132.602265
40
0.1995326
50
311.7325027
51
354.2803031
0
ARC
8
DEFAULT_255_1_388
10
4.3713418
20
132.616328
40
0.2823461
50
353.0941646
51
0.1174696
0
ARC
8
DEFAULT_255_1_388
10
4.3194976
20
132.6216874
40
0.3342238
50
359.1804452
51
15.0452323
0
ARC
8
DEFAULT_255_1_388
10
4.4709034
20
132.6658546
40
0.1765747
50
13.957816
51
77.6713812
0
ARC
8
DEFAULT_255_1_388
10
4.427427
20
132.5100464
40
0.3381982
50
76.111571
51
90.7028736
0
ARC
8
DEFAULT_255_1_388
10
4.4207682
20
132.540825
40
0.3074046
50
89.5321574
51
103.5319393
0
ARC
8
DEFAULT_255_1_388
10
4.3982066
20
132.6307443
40
0.2147041
50
103.2930114
51
133.5619756
0
ARC
8
DEFAULT_255_1_388
10
4.3932007
20
132.6374351
40
0.2064084
50
133.8349761
51
173.5343225
0
ARC
8
DEFAULT_255_1_388
10
4.4745665
20
132.6230144
40
0.2889266
50
172.5097183
51
180.1360699
0
ARC
8
DEFAULT_255_1_388
10
4.3675429
20
132.626888
40
0.3490913
50
155.3483706
51
180.7484035
0
ARC
8
DEFAULT_255_1_388
10
4.3620404
20
132.6236519
40
0.3454798
50
131.5745177
51
154.4799474
0
ARC
8
DEFAULT_255_1_388
10
4.3972687
20
132.5880422
40
0.3955058
50
96.9874487
51
131.9690874
0
ARC
8
DEFAULT_255_1_388
10
4.421958
20
132.4479407
40
0.537622
50
89.8592909
51
97.7827481
0
ARC
8
DEFAULT_255_1_388
10
4.4273689
20
132.418436
40
0.5671399
50
78.3654493
51
90.4132586
0
ARC
8
DEFAULT_255_1_388
10
4.467633
20
132.6050918
40
0.3762034
50
56.6229818
51
78.6387103
0
ARC
8
DEFAULT_255_1_388
10
4.4918159
20
132.6473846
40
0.3275964
50
47.0254604
51
56.085558
0
ARC
8
DEFAULT_255_1_388
10
4.494041
20
132.6518189
40
0.3228382
50
10.9207523
51
46.777927
0
ARC
8
DEFAULT_255_1_388
10
4.3406004
20
132.6163401
40
0.4802559
50
359.6364235
51
11.6087615
0
ARC
8
DEFAULT_255_1_388
10
4.547017
20
132.6146404
40
0.273833
50
332.3549969
51
359.7179765
0
ARC
8
DEFAULT_255_1_388
10
4.473857
20
132.6493285
40
0.3547505
50
325.2332381
51
332.8746682
0
ARC
8
DEFAULT_255_1_388
10
4.4910153
20
132.6373763
40
0.3338396
50
292.9803892
51
325.2391113
0
ARC
8
DEFAULT_255_1_388
10
4.4599349
20
132.6978679
40
0.4016959
50
292.542178
51
293.6931461
0
ARC
8
DEFAULT_255_1_388
10
4.5042921
20
131.9713036
40
0.372079
50
57.643292
51
72.8626085
0
ARC
8
DEFAULT_255_1_388
10
4.5441755
20
132.0359273
40
0.2961455
50
36.7246661
51
57.4701329
0
ARC
8
DEFAULT_255_1_388
10
4.5428912
20
132.037347
40
0.2963321
50
8.054535
51
36.3561529
0
ARC
8
DEFAULT_255_1_388
10
4.4458585
20
132.0199073
40
0.3948682
50
359.8316595
51
8.5873361
0
ARC
8
DEFAULT_255_1_388
10
4.4036059
20
132.014497
40
0.4371398
50
343.9831631
51
0.557075
0
ARC
8
DEFAULT_255_1_388
10
4.5033108
20
131.9871963
40
0.3337749
50
311.6358204
51
343.7652116
0
ARC
8
DEFAULT_255_1_388
10
4.4607362
20
132.0351955
40
0.3979351
50
279.7829743
51
311.625622
0
ARC
8
DEFAULT_255_1_388
10
4.4268497
20
132.1968642
40
0.5630417
50
269.7285092
51
280.3857694
0
ARC
8
DEFAULT_255_1_388
10
4.419881
20
132.1922241
40
0.5584119
50
256.6827433
51
270.4412869
0
ARC
8
DEFAULT_255_1_388
10
4.3817797
20
132.0364698
40
0.3980715
50
229.4223821
51
256.8554507
0
ARC
8
DEFAULT_255_1_388
10
4.335135
20
131.9839683
40
0.3278564
50
181.8183354
51
229.6455015
0
ARC
8
DEFAULT_255_1_388
10
4.452096
20
131.9986825
40
0.4453611
50
179.9760419
51
183.2330638
0
ARC
8
DEFAULT_255_1_388
10
4.4327512
20
131.9963781
40
0.2579652
50
179.4467996
51
196.2871626
0
ARC
8
DEFAULT_255_1_388
10
4.3778966
20
131.9813709
40
0.2011057
50
196.5661293
51
227.7059371
0
ARC
8
DEFAULT_255_1_388
10
4.3963573
20
132.0020155
40
0.2287994
50
227.7653015
51
257.8763321
0
ARC
8
DEFAULT_255_1_388
10
4.4216656
20
132.1080961
40
0.3378385
50
257.4583525
51
270.4267406
0
ARC
8
DEFAULT_255_1_388
10
4.4267906
20
132.140723
40
0.3704652
50
269.5965319
51
280.8788143
0
ARC
8
DEFAULT_255_1_388
10
4.4526134
20
132.0117529
40
0.2389415
50
280.6347277
51
299.8594068
0
ARC
8
DEFAULT_255_1_388
10
4.4740903
20
131.9709736
40
0.19289
50
300.3575552
51
314.5515667
0
ARC
8
DEFAULT_255_1_388
10
4.4647579
20
131.9778025
40
0.204312
50
315.0730962
51
345.0429362
0
ARC
8
DEFAULT_255_1_388
10
4.3609087
20
132.0080539
40
0.31246
50
344.598526
51
357.9270698
0
ARC
8
DEFAULT_255_1_388
10
4.2599391
20
132.0149705
40
0.4136265
50
357.4755098
51
0.0224936
0
ARC
8
DEFAULT_255_1_388
10
4.3752269
20
132.0177099
40
0.2983498
50
359.5051035
51
13.4236939
0
ARC
8
DEFAULT_255_1_388
10
4.4727359
20
132.0426637
40
0.1977186
50
12.9497905
51
48.7550905
0
ARC
8
DEFAULT_255_1_388
10
4.4522281
20
132.0146373
40
0.2323321
50
49.509109
51
72.1832965
0
ARC
8
DEFAULT_255_1_388
10
4.4119749
20
131.8951632
40
0.358397
50
71.9008458
51
84.3555134
0
ARC
8
DEFAULT_255_1_388
10
4.3938144
20
131.7419712
40
0.512641
50
84.019632
51
89.3326067
0
LINE
8
DEFAULT_255_1_388
10
5.5699016
20
131.6519
11
5.1136015
21
131.6519
0
LINE
8
DEFAULT_255_1_388
10
5.1136015
20
131.6519
11
5.1136015
21
132.9674898
0
LINE
8
DEFAULT_255_1_388
10
5.1136015
20
132.9674898
11
5.5436982
21
132.9674898
0
LINE
8
DEFAULT_255_1_388
10
5.5762265
20
132.2672274
11
5.2870859
21
132.2672274
0
LINE
8
DEFAULT_255_1_388
10
5.2870859
20
132.2672274
11
5.2870859
21
131.7937596
0
LINE
8
DEFAULT_255_1_388
10
5.2870859
20
131.7937596
11
5.5735158
21
131.7937596
0
LINE
8
DEFAULT_255_1_388
10
5.2870859
20
132.8247267
11
5.2870859
21
132.4063763
0
LINE
8
DEFAULT_255_1_388
10
5.2870859
20
132.4063763
11
5.5491196
21
132.4063763
0
LINE
8
DEFAULT_255_1_388
10
5.5436982
20
132.8247267
11
5.2870859
21
132.8247267
0
ARC
8
DEFAULT_255_1_388
10
5.5479402
20
132.1386824
40
0.8288183
50
82.1256322
51
90.2932506
0
ARC
8
DEFAULT_255_1_388
10
5.5916977
20
132.444459
40
0.5199321
50
69.9044202
51
82.2857574
0
ARC
8
DEFAULT_255_1_388
10
5.655897
20
132.6179993
40
0.3348993
50
51.1840204
51
70.018125
0
ARC
8
DEFAULT_255_1_388
10
5.6845802
20
132.6596945
40
0.2844579
50
12.1018086
51
50.421322
0
ARC
8
DEFAULT_255_1_388
10
5.5288674
20
132.6205937
40
0.4449429
50
359.5252354
51
12.8212369
0
ARC
8
DEFAULT_255_1_388
10
5.7066104
20
132.6127943
40
0.2672162
50
323.4907456
51
0.8818258
0
ARC
8
DEFAULT_255_1_388
10
5.6595516
20
132.6491523
40
0.3266736
50
298.6824053
51
323.2758285
0
ARC
8
DEFAULT_255_1_388
10
5.6188808
20
132.7167509
40
0.4055105
50
293.1994739
51
299.139634
0
ARC
8
DEFAULT_255_1_388
10
5.6945757
20
132.0321651
40
0.3229926
50
54.0009997
51
74.9168635
0
ARC
8
DEFAULT_255_1_388
10
5.7076684
20
132.0543511
40
0.2973581
50
36.3578854
51
53.5293172
0
ARC
8
DEFAULT_255_1_388
10
5.6934052
20
132.044185
40
0.3148715
50
4.8189348
51
36.3090187
0
ARC
8
DEFAULT_255_1_388
10
5.6057076
20
132.0318383
40
0.4033265
50
359.9373213
51
5.5201284
0
ARC
8
DEFAULT_255_1_388
10
5.5692406
20
132.0272733
40
0.4398126
50
344.7479357
51
0.5372278
0
ARC
8
DEFAULT_255_1_388
10
5.6807305
20
131.9972205
40
0.3243441
50
311.1785587
51
344.6887681
0
ARC
8
DEFAULT_255_1_388
10
5.6478848
20
132.0381084
40
0.3767511
50
286.0417804
51
310.8440924
0
ARC
8
DEFAULT_255_1_388
10
5.5908258
20
132.2233885
40
0.5705957
50
274.1044074
51
286.4070149
0
ARC
8
DEFAULT_255_1_388
10
5.5709473
20
132.4351901
40
0.7832907
50
269.9235077
51
274.4458593
0
ARC
8
DEFAULT_255_1_388
10
5.5761191
20
132.1720462
40
0.3782955
50
269.6057074
51
281.3740795
0
ARC
8
DEFAULT_255_1_388
10
5.602069
20
132.0490569
40
0.2526069
50
281.105298
51
302.5134029
0
ARC
8
DEFAULT_255_1_388
10
5.6186077
20
132.0193944
40
0.2187131
50
303.0365425
51
311.8818034
0
ARC
8
DEFAULT_255_1_388
10
5.6266254
20
132.0098602
40
0.2062624
50
311.9916937
51
351.7143773
0
ARC
8
DEFAULT_255_1_388
10
5.5347279
20
132.0284271
40
0.2999202
50
350.7343295
51
0.2221526
0
ARC
8
DEFAULT_255_1_388
10
5.5226367
20
132.034787
40
0.3120525
50
359.045729
51
17.2295312
0
ARC
8
DEFAULT_255_1_388
10
5.6395398
20
132.0695155
40
0.1901144
50
17.6685208
51
78.9940245
0
ARC
8
DEFAULT_255_1_388
10
5.5813758
20
131.8607011
40
0.4065575
50
76.565218
51
90.7103392
0
LINE
8
DEFAULT_255_1_388
10
5.5763356
20
132.2672274
11
5.5762265
21
132.2672274
0
ARC
8
DEFAULT_255_1_388
10
5.5516584
20
132.7759949
40
0.3696273
50
269.6064514
51
281.4533785
0
ARC
8
DEFAULT_255_1_388
10
5.5767225
20
132.6577283
40
0.2487412
50
281.2044438
51
302.5143998
0
ARC
8
DEFAULT_255_1_388
10
5.5921479
20
132.6299576
40
0.2170405
50
303.0211308
51
309.8378766
0
ARC
8
DEFAULT_255_1_388
10
5.6127596
20
132.6068486
40
0.1860946
50
309.5229446
51
356.9509628
0
ARC
8
DEFAULT_255_1_388
10
5.5381722
20
132.6175831
40
0.2612347
50
355.4699226
51
0.0498632
0
ARC
8
DEFAULT_255_1_388
10
5.5067396
20
132.6200789
40
0.2926762
50
359.5558955
51
11.2092924
0
ARC
8
DEFAULT_255_1_388
10
5.6144363
20
132.6423667
40
0.1827036
50
10.9185717
51
31.322519
0
ARC
8
DEFAULT_255_1_388
10
5.6465911
20
132.6602571
40
0.1459418
50
31.8850633
51
52.1415586
0
ARC
8
DEFAULT_255_1_388
10
5.6157341
20
132.6166674
40
0.1993088
50
52.8283418
51
71.9850132
0
ARC
8
DEFAULT_255_1_388
10
5.5734501
20
132.4922158
40
0.3307407
50
71.686634
51
82.8453416
0
ARC
8
DEFAULT_255_1_388
10
5.5465148
20
132.2886892
40
0.536039
50
82.6981895
51
90.1730083
0
ARC
8
DEFAULT_255_1_388
10
5.543998
20
132.3765836
40
0.4481429
50
89.8851568
51
90.0383283
0
LINE
8
DEFAULT_255_1_388
10
4.2452901
20
140.1920775
11
4.2452901
21
140.3285157
0
LINE
8
DEFAULT_255_1_388
10
4.2452901
20
140.3285157
11
4.3708856
21
140.3285157
0
LINE
8
DEFAULT_255_1_388
10
4.1567408
20
140.5598282
11
3.9895814
21
140.5598282
0
LINE
8
DEFAULT_255_1_388
10
3.9778351
20
139.9363688
11
4.145898
21
139.9363688
0
LINE
8
DEFAULT_255_1_388
10
4.3708856
20
140.1920775
11
4.2452901
21
140.1920775
0
ARC
8
DEFAULT_255_1_388
10
4.3676082
20
140.7101922
40
0.3816905
50
270.491971
51
281.8953028
0
ARC
8
DEFAULT_255_1_388
10
4.3947509
20
140.5862199
40
0.2547877
50
281.6690378
51
301.2943765
0
ARC
8
DEFAULT_255_1_388
10
4.4138961
20
140.5511926
40
0.2149197
50
301.7834992
51
311.754567
0
ARC
8
DEFAULT_255_1_388
10
4.4242002
20
140.539765
40
0.1995326
50
311.7325027
51
354.2803031
0
ARC
8
DEFAULT_255_1_388
10
4.3424418
20
140.553828
40
0.2823461
50
353.0941646
51
0.1174696
0
ARC
8
DEFAULT_255_1_388
10
4.2905976
20
140.5591874
40
0.3342238
50
359.1804452
51
15.0452323
0
ARC
8
DEFAULT_255_1_388
10
4.4420034
20
140.6033546
40
0.1765747
50
13.957816
51
77.6713812
0
ARC
8
DEFAULT_255_1_388
10
4.398527
20
140.4475464
40
0.3381982
50
76.111571
51
90.7028736
0
ARC
8
DEFAULT_255_1_388
10
4.3918682
20
140.478325
40
0.3074046
50
89.5321574
51
103.5319393
0
ARC
8
DEFAULT_255_1_388
10
4.3693066
20
140.5682443
40
0.2147041
50
103.2930114
51
133.5619756
0
ARC
8
DEFAULT_255_1_388
10
4.3643007
20
140.5749351
40
0.2064084
50
133.8349761
51
173.5343225
0
ARC
8
DEFAULT_255_1_388
10
4.4456665
20
140.5605144
40
0.2889266
50
172.5097183
51
180.1360699
0
ARC
8
DEFAULT_255_1_388
10
4.3386429
20
140.564388
40
0.3490913
50
155.3483706
51
180.7484035
0
ARC
8
DEFAULT_255_1_388
10
4.3331404
20
140.5611519
40
0.3454798
50
131.5745177
51
154.4799474
0
ARC
8
DEFAULT_255_1_388
10
4.3683687
20
140.5255422
40
0.3955058
50
96.9874487
51
131.9690874
0
ARC
8
DEFAULT_255_1_388
10
4.393058
20
140.3854407
40
0.537622
50
89.8592909
51
97.7827481
0
ARC
8
DEFAULT_255_1_388
10
4.3984689
20
140.355936
40
0.5671399
50
78.3654493
51
90.4132586
0
ARC
8
DEFAULT_255_1_388
10
4.438733
20
140.5425918
40
0.3762034
50
56.6229818
51
78.6387103
0
ARC
8
DEFAULT_255_1_388
10
4.4629159
20
140.5848846
40
0.3275964
50
47.0254604
51
56.085558
0
ARC
8
DEFAULT_255_1_388
10
4.465141
20
140.5893189
40
0.3228382
50
10.9207523
51
46.777927
0
ARC
8
DEFAULT_255_1_388
10
4.3117004
20
140.5538401
40
0.4802559
50
359.6364235
51
11.6087615
0
ARC
8
DEFAULT_255_1_388
10
4.518117
20
140.5521404
40
0.273833
50
332.3549969
51
359.7179765
0
ARC
8
DEFAULT_255_1_388
10
4.444957
20
140.5868285
40
0.3547505
50
325.2332381
51
332.8746682
0
ARC
8
DEFAULT_255_1_388
10
4.4621153
20
140.5748763
40
0.3338396
50
292.9803892
51
325.2391113
0
ARC
8
DEFAULT_255_1_388
10
4.4310349
20
140.6353679
40
0.4016959
50
292.542178
51
293.6931461
0
ARC
8
DEFAULT_255_1_388
10
4.4753921
20
139.9088036
40
0.372079
50
57.643292
51
72.8626085
0
ARC
8
DEFAULT_255_1_388
10
4.5152755
20
139.9734273
40
0.2961455
50
36.7246661
51
57.4701329
0
ARC
8
DEFAULT_255_1_388
10
4.5139912
20
139.974847
40
0.2963321
50
8.054535
51
36.3561529
0
ARC
8
DEFAULT_255_1_388
10
4.4169585
20
139.9574073
40
0.3948682
50
359.8316595
51
8.5873361
0
ARC
8
DEFAULT_255_1_388
10
4.3747059
20
139.951997
40
0.4371398
50
343.9831631
51
0.557075
0
ARC
8
DEFAULT_255_1_388
10
4.4744108
20
139.9246963
40
0.3337749
50
311.6358204
51
343.7652116
0
ARC
8
DEFAULT_255_1_388
10
4.4318362
20
139.9726955
40
0.3979351
50
279.7829743
51
311.625622
0
ARC
8
DEFAULT_255_1_388
10
4.3979497
20
140.1343642
40
0.5630417
50
269.7285092
51
280.3857694
0
ARC
8
DEFAULT_255_1_388
10
4.390981
20
140.1297241
40
0.5584119
50
256.6827433
51
270.4412869
0
ARC
8
DEFAULT_255_1_388
10
4.3528797
20
139.9739698
40
0.3980715
50
229.4223821
51
256.8554507
0
ARC
8
DEFAULT_255_1_388
10
4.306235
20
139.9214683
40
0.3278564
50
181.8183354
51
229.6455015
0
ARC
8
DEFAULT_255_1_388
10
4.423196
20
139.9361825
40
0.4453611
50
179.9760419
51
183.2330638
0
ARC
8
DEFAULT_255_1_388
10
4.4038512
20
139.9338781
40
0.2579652
50
179.4467996
51
196.2871626
0
ARC
8
DEFAULT_255_1_388
10
4.3489966
20
139.9188709
40
0.2011057
50
196.5661293
51
227.7059371
0
ARC
8
DEFAULT_255_1_388
10
4.3674573
20
139.9395155
40
0.2287994
50
227.7653015
51
257.8763321
0
ARC
8
DEFAULT_255_1_388
10
4.3927656
20
140.0455961
40
0.3378385
50
257.4583525
51
270.4267406
0
ARC
8
DEFAULT_255_1_388
10
4.3978906
20
140.078223
40
0.3704652
50
269.5965319
51
280.8788143
0
ARC
8
DEFAULT_255_1_388
10
4.4237134
20
139.9492529
40
0.2389415
50
280.6347277
51
299.8594068
0
ARC
8
DEFAULT_255_1_388
10
4.4451903
20
139.9084736
40
0.19289
50
300.3575552
51
314.5515667
0
ARC
8
DEFAULT_255_1_388
10
4.4358579
20
139.9153025
40
0.204312
50
315.0730962
51
345.0429362
0
ARC
8
DEFAULT_255_1_388
10
4.3320087
20
139.9455539
40
0.31246
50
344.598526
51
357.9270698
0
ARC
8
DEFAULT_255_1_388
10
4.2310391
20
139.9524705
40
0.4136265
50
357.4755098
51
0.0224936
0
ARC
8
DEFAULT_255_1_388
10
4.3463269
20
139.9552099
40
0.2983498
50
359.5051035
51
13.4236939
0
ARC
8
DEFAULT_255_1_388
10
4.4438359
20
139.9801637
40
0.1977186
50
12.9497905
51
48.7550905
0
ARC
8
DEFAULT_255_1_388
10
4.4233281
20
139.9521373
40
0.2323321
50
49.509109
51
72.1832965
0
ARC
8
DEFAULT_255_1_388
10
4.3830749
20
139.8326632
40
0.358397
50
71.9008458
51
84.3555134
0
ARC
8
DEFAULT_255_1_388
10
4.3649144
20
139.6794712
40
0.512641
50
84.019632
51
89.3326067
0
LINE
8
DEFAULT_255_1_388
10
5.9367628
20
139.5894
11
5.8111673
21
139.9327545
0
LINE
8
DEFAULT_255_1_388
10
5.8111673
20
139.9327545
11
5.259993
21
139.9327545
0
LINE
8
DEFAULT_255_1_388
10
5.259993
20
139.9327545
11
5.1362047
21
139.5894
0
LINE
8
DEFAULT_255_1_388
10
5.1362047
20
139.5894
11
4.9572989
21
139.5894
0
LINE
8
DEFAULT_255_1_388
10
4.9572989
20
139.5894
11
5.4596808
21
140.9049898
0
LINE
8
DEFAULT_255_1_388
10
5.4596808
20
140.9049898
11
5.6114796
21
140.9049898
0
LINE
8
DEFAULT_255_1_388
10
5.6114796
20
140.9049898
11
6.114765
21
139.5894
0
LINE
8
DEFAULT_255_1_388
10
6.114765
20
139.5894
11
5.9367628
21
139.5894
0
LINE
8
DEFAULT_255_1_388
10
5.5355802
20
140.6908451
11
5.3123998
21
140.0755177
0
LINE
8
DEFAULT_255_1_388
10
5.3123998
20
140.0755177
11
5.7596642
21
140.0755177
0
LINE
8
DEFAULT_255_1_388
10
5.7596642
20
140.0755177
11
5.5355802
21
140.6908451
0
LINE
8
DEFAULT_255_1_388
10
4.8187318
20
147.6633382
11
4.8187318
21
147.5269
0
LINE
8
DEFAULT_255_1_388
10
4.8187318
20
147.5269
11
3.9567313
21
147.5269
0
LINE
8
DEFAULT_255_1_388
10
3.9567313
20
147.5269
11
3.9567313
21
147.6470741
0
LINE
8
DEFAULT_255_1_388
10
3.9567313
20
147.6470741
11
4.4121278
21
148.1530702
0
LINE
8
DEFAULT_255_1_388
10
4.0985909
20
148.4548607
11
3.9314315
21
148.4548607
0
LINE
8
DEFAULT_255_1_388
10
4.5106163
20
148.045546
11
4.1582262
21
147.6633382
0
LINE
8
DEFAULT_255_1_388
10
4.1582262
20
147.6633382
11
4.8187318
21
147.6633382
0
ARC
8
DEFAULT_255_1_388
10
2.8945337
20
149.4950983
40
2.0258655
50
318.5132526
51
320.7829045
0
ARC
8
DEFAULT_255_1_388
10
3.4893294
20
149.0109929
40
1.2589638
50
320.7372878
51
323.9739031
0
ARC
8
DEFAULT_255_1_388
10
3.9302226
20
148.6915554
40
0.7145141
50
323.8962701
51
328.64194
0
ARC
8
DEFAULT_255_1_388
10
4.1604484
20
148.5495545
40
0.4440242
50
328.8294576
51
331.7891185
0
ARC
8
DEFAULT_255_1_388
10
4.2726804
20
148.4916374
40
0.3177517
50
331.4254512
51
352.9365785
0
ARC
8
DEFAULT_255_1_388
10
4.2879804
20
148.488205
40
0.3021496
50
353.2257659
51
0.0166158
0
ARC
8
DEFAULT_255_1_388
10
4.3116564
20
148.4907894
40
0.2784847
50
359.486299
51
15.9343185
0
ARC
8
DEFAULT_255_1_388
10
4.3686831
20
148.5061269
40
0.2194403
50
16.1712913
51
43.5286088
0
ARC
8
DEFAULT_255_1_388
10
4.3773776
20
148.5148191
40
0.2071504
50
43.4417391
51
83.1661095
0
ARC
8
DEFAULT_255_1_388
10
4.3622937
20
148.4319316
40
0.2912888
50
82.160179
51
90.1505708
0
ARC
8
DEFAULT_255_1_388
10
4.3587418
20
148.3715279
40
0.3517025
50
89.5460741
51
102.5418361
0
ARC
8
DEFAULT_255_1_388
10
4.3314138
20
148.4874933
40
0.2325748
50
102.1738499
51
129.206123
0
ARC
8
DEFAULT_255_1_388
10
4.3225592
20
148.5014664
40
0.2161591
50
129.72865
51
135.753947
0
ARC
8
DEFAULT_255_1_388
10
4.3362074
20
148.4905728
40
0.2335433
50
136.1757367
51
166.3673339
0
ARC
8
DEFAULT_255_1_388
10
4.4494762
20
148.4602148
40
0.3507873
50
165.9090694
51
178.8684636
0
ARC
8
DEFAULT_255_1_388
10
4.5470534
20
148.4549263
40
0.4484624
50
178.4391136
51
180.0083808
0
ARC
8
DEFAULT_255_1_388
10
4.3891235
20
148.4593197
40
0.4577138
50
163.2878482
51
180.5581842
0
ARC
8
DEFAULT_255_1_388
10
4.2989276
20
148.4841393
40
0.3641968
50
133.4540601
51
162.947111
0
ARC
8
DEFAULT_255_1_388
10
4.3190158
20
148.4627789
40
0.3935189
50
100.7869829
51
133.4382499
0
ARC
8
DEFAULT_255_1_388
10
4.3581403
20
148.2885399
40
0.5720313
50
89.660664
51
101.3702276
0
ARC
8
DEFAULT_255_1_388
10
4.3656012
20
148.2954263
40
0.5651495
50
78.2172678
51
90.412935
0
ARC
8
DEFAULT_255_1_388
10
4.4055478
20
148.4781511
40
0.378122
50
55.9269121
51
78.4888449
0
ARC
8
DEFAULT_255_1_388
10
4.4276193
20
148.5162187
40
0.3342379
50
47.929771
51
55.4049217
0
ARC
8
DEFAULT_255_1_388
10
4.4390723
20
148.5278618
40
0.3179217
50
4.334829
51
48.0560205
0
ARC
8
DEFAULT_255_1_388
10
4.3158525
20
148.5087487
40
0.442341
50
359.9251713
51
5.5971671
0
ARC
8
DEFAULT_255_1_388
10
4.364068
20
148.5150728
40
0.3941854
50
337.8914027
51
358.9967534
0
ARC
8
DEFAULT_255_1_388
10
4.058825
20
148.6328295
40
0.7213271
50
326.9132501
51
338.3508308
0
ARC
8
DEFAULT_255_1_388
10
3.6104362
20
148.9202105
40
1.2538973
50
319.6471833
51
327.0959558
0
ARC
8
DEFAULT_255_1_388
10
3.179102
20
149.276005
40
1.8129975
50
317.2588228
51
319.9045804
0
LINE
8
DEFAULT_255_1_388
10
5.8406632
20
148.0193426
11
5.8406632
21
148.0048856
0
LINE
8
DEFAULT_255_1_388
10
5.1747362
20
147.6398456
11
5.1666041
21
147.5269
0
LINE
8
DEFAULT_255_1_388
10
5.1666041
20
147.5269
11
5.0129981
21
147.5269
0
LINE
8
DEFAULT_255_1_388
10
5.0129981
20
147.5269
11
5.0129981
21
148.914775
0
LINE
8
DEFAULT_255_1_388
10
5.0129981
20
148.914775
11
5.1801576
21
148.914775
0
LINE
8
DEFAULT_255_1_388
10
5.1801576
20
148.914775
11
5.1801576
21
148.3970326
0
LINE
8
DEFAULT_255_1_388
10
5.1801576
20
148.2271625
11
5.1801576
21
147.8042943
0
ARC
8
DEFAULT_255_1_388
10
5.0479084
20
147.9999101
40
0.7927704
50
349.4826431
51
0.3595958
0
ARC
8
DEFAULT_255_1_388
10
5.3040994
20
147.9505754
40
0.531881
50
331.8601729
51
349.6703499
0
ARC
8
DEFAULT_255_1_388
10
5.3865286
20
147.9104295
40
0.440275
50
322.8939675
51
331.4079366
0
ARC
8
DEFAULT_255_1_388
10
5.4647654
20
147.8452419
40
0.3385862
50
296.725075
51
323.7043525
0
ARC
8
DEFAULT_255_1_388
10
5.4681301
20
147.8530416
40
0.3441011
50
270.6344013
51
295.6405661
0
ARC
8
DEFAULT_255_1_388
10
5.4611997
20
147.9432096
40
0.4343809
50
269.9955642
51
271.4168155
0
ARC
8
DEFAULT_255_1_388
10
5.456878
20
147.9281485
40
0.4193418
50
253.6575074
51
270.5859134
0
ARC
8
DEFAULT_255_1_388
10
5.4309027
20
147.8332616
40
0.3209845
50
217.0542732
51
253.3409544
0
ARC
8
DEFAULT_255_1_388
10
5.4384024
20
148.1914393
40
0.3300893
50
93.1931057
51
141.4760886
0
ARC
8
DEFAULT_255_1_388
10
5.4589017
20
148.0528127
40
0.4698157
50
89.9442329
51
94.747695
0
ARC
8
DEFAULT_255_1_388
10
5.463824
20
148.1453571
40
0.3772974
50
70.6102966
51
90.6780641
0
ARC
8
DEFAULT_255_1_388
10
5.4766835
20
148.1965969
40
0.3247312
50
36.1152061
51
69.7490455
0
ARC
8
DEFAULT_255_1_388
10
5.3656931
20
148.1118642
40
0.4643452
50
15.4648073
51
36.4892008
0
ARC
8
DEFAULT_255_1_388
10
5.1341327
20
148.0444548
40
0.7055035
50
3.9221328
51
15.7266383
0
ARC
8
DEFAULT_255_1_388
10
4.8688446
20
148.0205859
40
0.9718194
50
359.9267025
51
4.2562571
0
ARC
8
DEFAULT_255_1_388
10
4.9602923
20
148.0273052
40
0.7132198
50
359.7232654
51
7.7112388
0
ARC
8
DEFAULT_255_1_388
10
5.214776
20
148.0628662
40
0.4562671
50
7.5740305
51
19.4153133
0
ARC
8
DEFAULT_255_1_388
10
5.3573773
20
148.1130795
40
0.3050836
50
19.4237113
51
34.9159184
0
ARC
8
DEFAULT_255_1_388
10
5.4328366
20
148.1678279
40
0.2118777
50
34.4555697
51
84.4656773
0
ARC
8
DEFAULT_255_1_388
10
5.4183742
20
148.0828992
40
0.2978698
50
83.2721807
51
90.1114043
0
ARC
8
DEFAULT_255_1_388
10
5.4136325
20
148.1052068
40
0.275593
50
89.1345761
51
111.409063
0
ARC
8
DEFAULT_255_1_388
10
5.4046947
20
148.1421005
40
0.2380381
50
112.6478022
51
148.9262646
0
ARC
8
DEFAULT_255_1_388
10
5.4922201
20
148.0811711
40
0.3445235
50
147.7602672
51
154.9285352
0
ARC
8
DEFAULT_255_1_388
10
5.4629458
20
147.9411592
40
0.3141675
50
205.8262295
51
224.5304491
0
ARC
8
DEFAULT_255_1_388
10
5.4092137
20
147.8931875
40
0.2422463
50
225.3544419
51
269.2437751
0
ARC
8
DEFAULT_255_1_388
10
5.4195331
20
147.9839679
40
0.3332798
50
267.6756581
51
270.0118705
0
ARC
8
DEFAULT_255_1_388
10
5.4225996
20
147.8985943
40
0.2479241
50
269.3072706
51
289.4988605
0
ARC
8
DEFAULT_255_1_388
10
5.4307071
20
147.8652296
40
0.2137951
50
290.4353105
51
325.3765722
0
ARC
8
DEFAULT_255_1_388
10
5.359973
20
147.91633
40
0.3010425
50
325.022387
51
342.6926192
0
ARC
8
DEFAULT_255_1_388
10
5.1690532
20
147.9784493
40
0.5018047
50
342.4062017
51
352.8669894
0
ARC
8
DEFAULT_255_1_388
10
4.8629869
20
148.0186328
40
0.810494
50
352.7349871
51
359.855599
0
ARC
8
DEFAULT_255_1_388
10
4.6461893
20
148.0238426
40
1.0273146
50
359.5955109
51
0.0009972
0
LINE
8
DEFAULT_255_1_388
10
4.8931318
20
155.6008382
11
4.8931318
21
155.4644
0
LINE
8
DEFAULT_255_1_388
10
4.8931318
20
155.4644
11
4.0311313
21
155.4644
0
LINE
8
DEFAULT_255_1_388
10
4.0311313
20
155.4644
11
4.0311313
21
155.5845741
0
LINE
8
DEFAULT_255_1_388
10
4.0311313
20
155.5845741
11
4.4865278
21
156.0905702
0
LINE
8
DEFAULT_255_1_388
10
4.1729909
20
156.3923607
11
4.0058315
21
156.3923607
0
LINE
8
DEFAULT_255_1_388
10
4.5850163
20
155.983046
11
4.2326262
21
155.6008382
0
LINE
8
DEFAULT_255_1_388
10
4.2326262
20
155.6008382
11
4.8931318
21
155.6008382
0
ARC
8
DEFAULT_255_1_388
10
2.9689337
20
157.4325983
40
2.0258655
50
318.5132526
51
320.7829045
0
ARC
8
DEFAULT_255_1_388
10
3.5637294
20
156.9484929
40
1.2589638
50
320.7372878
51
323.9739031
0
ARC
8
DEFAULT_255_1_388
10
4.0046226
20
156.6290554
40
0.7145141
50
323.8962701
51
328.64194
0
ARC
8
DEFAULT_255_1_388
10
4.2348484
20
156.4870545
40
0.4440242
50
328.8294576
51
331.7891185
0
ARC
8
DEFAULT_255_1_388
10
4.3470804
20
156.4291374
40
0.3177517
50
331.4254512
51
352.9365785
0
ARC
8
DEFAULT_255_1_388
10
4.3623804
20
156.425705
40
0.3021496
50
353.2257659
51
0.0166158
0
ARC
8
DEFAULT_255_1_388
10
4.3860564
20
156.4282894
40
0.2784847
50
359.486299
51
15.9343185
0
ARC
8
DEFAULT_255_1_388
10
4.4430831
20
156.4436269
40
0.2194403
50
16.1712913
51
43.5286088
0
ARC
8
DEFAULT_255_1_388
10
4.4517776
20
156.4523191
40
0.2071504
50
43.4417391
51
83.1661095
0
ARC
8
DEFAULT_255_1_388
10
4.4366937
20
156.3694316
40
0.2912888
50
82.160179
51
90.1505708
0
ARC
8
DEFAULT_255_1_388
10
4.4331418
20
156.3090279
40
0.3517025
50
89.5460741
51
102.5418361
0
ARC
8
DEFAULT_255_1_388
10
4.4058138
20
156.4249933
40
0.2325748
50
102.1738499
51
129.206123
0
ARC
8
DEFAULT_255_1_388
10
4.3969592
20
156.4389664
40
0.2161591
50
129.72865
51
135.753947
0
ARC
8
DEFAULT_255_1_388
10
4.4106074
20
156.4280728
40
0.2335433
50
136.1757367
51
166.3673339
0
ARC
8
DEFAULT_255_1_388
10
4.5238762
20
156.3977148
40
0.3507873
50
165.9090694
51
178.8684636
0
ARC
8
DEFAULT_255_1_388
10
4.6214534
20
156.3924263
40
0.4484624
50
178.4391136
51
180.0083808
0
ARC
8
DEFAULT_255_1_388
10
4.4635235
20
156.3968197
40
0.4577138
50
163.2878482
51
180.5581842
0
ARC
8
DEFAULT_255_1_388
10
4.3733276
20
156.4216393
40
0.3641968
50
133.4540601
51
162.947111
0
ARC
8
DEFAULT_255_1_388
10
4.3934158
20
156.4002789
40
0.3935189
50
100.7869829
51
133.4382499
0
ARC
8
DEFAULT_255_1_388
10
4.4325403
20
156.2260399
40
0.5720313
50
89.660664
51
101.3702276
0
ARC
8
DEFAULT_255_1_388
10
4.4400012
20
156.2329263
40
0.5651495
50
78.2172678
51
90.412935
0
ARC
8
DEFAULT_255_1_388
10
4.4799478
20
156.4156511
40
0.378122
50
55.9269121
51
78.4888449
0
ARC
8
DEFAULT_255_1_388
10
4.5020193
20
156.4537187
40
0.3342379
50
47.929771
51
55.4049217
0
ARC
8
DEFAULT_255_1_388
10
4.5134723
20
156.4653618
40
0.3179217
50
4.334829
51
48.0560205
0
ARC
8
DEFAULT_255_1_388
10
4.3902525
20
156.4462487
40
0.442341
50
359.9251713
51
5.5971671
0
ARC
8
DEFAULT_255_1_388
10
4.438468
20
156.4525728
40
0.3941854
50
337.8914027
51
358.9967534
0
ARC
8
DEFAULT_255_1_388
10
4.133225
20
156.5703295
40
0.7213271
50
326.9132501
51
338.3508308
0
ARC
8
DEFAULT_255_1_388
10
3.6848362
20
156.8577105
40
1.2538973
50
319.6471833
51
327.0959558
0
ARC
8
DEFAULT_255_1_388
10
3.253502
20
157.213505
40
1.8129975
50
317.2588228
51
319.9045804
0
LINE
8
DEFAULT_255_1_388
10
5.5699016
20
155.4644
11
5.1136015
21
155.4644
0
LINE
8
DEFAULT_255_1_388
10
5.1136015
20
155.4644
11
5.1136015
21
156.7799898
0
LINE
8
DEFAULT_255_1_388
10
5.1136015
20
156.7799898
11
5.5436982
21
156.7799898
0
LINE
8
DEFAULT_255_1_388
10
5.5762265
20
156.0797274
11
5.2870859
21
156.0797274
0
LINE
8
DEFAULT_255_1_388
10
5.2870859
20
156.0797274
11
5.2870859
21
155.6062596
0
LINE
8
DEFAULT_255_1_388
10
5.2870859
20
155.6062596
11
5.5735158
21
155.6062596
0
LINE
8
DEFAULT_255_1_388
10
5.2870859
20
156.6372267
11
5.2870859
21
156.2188763
0
LINE
8
DEFAULT_255_1_388
10
5.2870859
20
156.2188763
11
5.5491196
21
156.2188763
0
LINE
8
DEFAULT_255_1_388
10
5.5436982
20
156.6372267
11
5.2870859
21
156.6372267
0
ARC
8
DEFAULT_255_1_388
10
5.5479402
20
155.9511824
40
0.8288183
50
82.1256322
51
90.2932506
0
ARC
8
DEFAULT_255_1_388
10
5.5916977
20
156.256959
40
0.5199321
50
69.9044202
51
82.2857574
0
ARC
8
DEFAULT_255_1_388
10
5.655897
20
156.4304993
40
0.3348993
50
51.1840204
51
70.018125
0
ARC
8
DEFAULT_255_1_388
10
5.6845802
20
156.4721945
40
0.2844579
50
12.1018086
51
50.421322
0
ARC
8
DEFAULT_255_1_388
10
5.5288674
20
156.4330937
40
0.4449429
50
359.5252354
51
12.8212369
0
ARC
8
DEFAULT_255_1_388
10
5.7066104
20
156.4252943
40
0.2672162
50
323.4907456
51
0.8818258
0
ARC
8
DEFAULT_255_1_388
10
5.6595516
20
156.4616523
40
0.3266736
50
298.6824053
51
323.2758285
0
ARC
8
DEFAULT_255_1_388
10
5.6188808
20
156.5292509
40
0.4055105
50
293.1994739
51
299.139634
0
ARC
8
DEFAULT_255_1_388
10
5.6945757
20
155.8446651
40
0.3229926
50
54.0009997
51
74.9168635
0
ARC
8
DEFAULT_255_1_388
10
5.7076684
20
155.8668511
40
0.2973581
50
36.3578854
51
53.5293172
0
ARC
8
DEFAULT_255_1_388
10
5.6934052
20
155.856685
40
0.3148715
50
4.8189348
51
36.3090187
0
ARC
8
DEFAULT_255_1_388
10
5.6057076
20
155.8443383
40
0.4033265
50
359.9373213
51
5.5201284
0
ARC
8
DEFAULT_255_1_388
10
5.5692406
20
155.8397733
40
0.4398126
50
344.7479357
51
0.5372278
0
ARC
8
DEFAULT_255_1_388
10
5.6807305
20
155.8097205
40
0.3243441
50
311.1785587
51
344.6887681
0
ARC
8
DEFAULT_255_1_388
10
5.6478848
20
155.8506084
40
0.3767511
50
286.0417804
51
310.8440924
0
ARC
8
DEFAULT_255_1_388
10
5.5908258
20
156.0358885
40
0.5705957
50
274.1044074
51
286.4070149
0
ARC
8
DEFAULT_255_1_388
10
5.5709473
20
156.2476901
40
0.7832907
50
269.9235077
51
274.4458593
0
ARC
8
DEFAULT_255_1_388
10
5.5761191
20
155.9845462
40
0.3782955
50
269.6057074
51
281.3740795
0
ARC
8
DEFAULT_255_1_388
10
5.602069
20
155.8615569
40
0.2526069
50
281.105298
51
302.5134029
0
ARC
8
DEFAULT_255_1_388
10
5.6186077
20
155.8318944
40
0.2187131
50
303.0365425
51
311.8818034
0
ARC
8
DEFAULT_255_1_388
10
5.6266254
20
155.8223602
40
0.2062624
50
311.9916937
51
351.7143773
0
ARC
8
DEFAULT_255_1_388
10
5.5347279
20
155.8409271
40
0.2999202
50
350.7343295
51
0.2221526
0
ARC
8
DEFAULT_255_1_388
10
5.5226367
20
155.847287
40
0.3120525
50
359.045729
51
17.2295312
0
ARC
8
DEFAULT_255_1_388
10
5.6395398
20
155.8820155
40
0.1901144
50
17.6685208
51
78.9940245
0
ARC
8
DEFAULT_255_1_388
10
5.5813758
20
155.6732011
40
0.4065575
50
76.565218
51
90.7103392
0
LINE
8
DEFAULT_255_1_388
10
5.5763356
20
156.0797274
11
5.5762265
21
156.0797274
0
ARC
8
DEFAULT_255_1_388
10
5.5516584
20
156.5884949
40
0.3696273
50
269.6064514
51
281.4533785
0
ARC
8
DEFAULT_255_1_388
10
5.5767225
20
156.4702283
40
0.2487412
50
281.2044438
51
302.5143998
0
ARC
8
DEFAULT_255_1_388
10
5.5921479
20
156.4424576
40
0.2170405
50
303.0211308
51
309.8378766
0
ARC
8
DEFAULT_255_1_388
10
5.6127596
20
156.4193486
40
0.1860946
50
309.5229446
51
356.9509628
0
ARC
8
DEFAULT_255_1_388
10
5.5381722
20
156.4300831
40
0.2612347
50
355.4699226
51
0.0498632
0
ARC
8
DEFAULT_255_1_388
10
5.5067396
20
156.4325789
40
0.2926762
50
359.5558955
51
11.2092924
0
ARC
8
DEFAULT_255_1_388
10
5.6144363
20
156.4548667
40
0.1827036
50
10.9185717
51
31.322519
0
ARC
8
DEFAULT_255_1_388
10
5.6465911
20
156.4727571
40
0.1459418
50
31.8850633
51
52.1415586
0
ARC
8
DEFAULT_255_1_388
10
5.6157341
20
156.4291674
40
0.1993088
50
52.8283418
51
71.9850132
0
ARC
8
DEFAULT_255_1_388
10
5.5734501
20
156.3047158
40
0.3307407
50
71.686634
51
82.8453416
0
ARC
8
DEFAULT_255_1_388
10
5.5465148
20
156.1011892
40
0.536039
50
82.6981895
51
90.1730083
0
ARC
8
DEFAULT_255_1_388
10
5.543998
20
156.1890836
40
0.4481429
50
89.8851568
51
90.0383283
0
LINE
8
DEFAULT_255_1_388
10
4.8642318
20
163.5383382
11
4.8642318
21
163.4019
0
LINE
8
DEFAULT_255_1_388
10
4.8642318
20
163.4019
11
4.0022313
21
163.4019
0
LINE
8
DEFAULT_255_1_388
10
4.0022313
20
163.4019
11
4.0022313
21
163.5220741
0
LINE
8
DEFAULT_255_1_388
10
4.0022313
20
163.5220741
11
4.4576278
21
164.0280702
0
LINE
8
DEFAULT_255_1_388
10
4.1440909
20
164.3298607
11
3.9769315
21
164.3298607
0
LINE
8
DEFAULT_255_1_388
10
4.5561163
20
163.920546
11
4.2037262
21
163.5383382
0
LINE
8
DEFAULT_255_1_388
10
4.2037262
20
163.5383382
11
4.8642318
21
163.5383382
0
ARC
8
DEFAULT_255_1_388
10
2.9400337
20
165.3700983
40
2.0258655
50
318.5132526
51
320.7829045
0
ARC
8
DEFAULT_255_1_388
10
3.5348294
20
164.8859929
40
1.2589638
50
320.7372878
51
323.9739031
0
ARC
8
DEFAULT_255_1_388
10
3.9757226
20
164.5665554
40
0.7145141
50
323.8962701
51
328.64194
0
ARC
8
DEFAULT_255_1_388
10
4.2059484
20
164.4245545
40
0.4440242
50
328.8294576
51
331.7891185
0
ARC
8
DEFAULT_255_1_388
10
4.3181804
20
164.3666374
40
0.3177517
50
331.4254512
51
352.9365785
0
ARC
8
DEFAULT_255_1_388
10
4.3334804
20
164.363205
40
0.3021496
50
353.2257659
51
0.0166158
0
ARC
8
DEFAULT_255_1_388
10
4.3571564
20
164.3657894
40
0.2784847
50
359.486299
51
15.9343185
0
ARC
8
DEFAULT_255_1_388
10
4.4141831
20
164.3811269
40
0.2194403
50
16.1712913
51
43.5286088
0
ARC
8
DEFAULT_255_1_388
10
4.4228776
20
164.3898191
40
0.2071504
50
43.4417391
51
83.1661095
0
ARC
8
DEFAULT_255_1_388
10
4.4077937
20
164.3069316
40
0.2912888
50
82.160179
51
90.1505708
0
ARC
8
DEFAULT_255_1_388
10
4.4042418
20
164.2465279
40
0.3517025
50
89.5460741
51
102.5418361
0
ARC
8
DEFAULT_255_1_388
10
4.3769138
20
164.3624933
40
0.2325748
50
102.1738499
51
129.206123
0
ARC
8
DEFAULT_255_1_388
10
4.3680592
20
164.3764664
40
0.2161591
50
129.72865
51
135.753947
0
ARC
8
DEFAULT_255_1_388
10
4.3817074
20
164.3655728
40
0.2335433
50
136.1757367
51
166.3673339
0
ARC
8
DEFAULT_255_1_388
10
4.4949762
20
164.3352148
40
0.3507873
50
165.9090694
51
178.8684636
0
ARC
8
DEFAULT_255_1_388
10
4.5925534
20
164.3299263
40
0.4484624
50
178.4391136
51
180.0083808
0
ARC
8
DEFAULT_255_1_388
10
4.4346235
20
164.3343197
40
0.4577138
50
163.2878482
51
180.5581842
0
ARC
8
DEFAULT_255_1_388
10
4.3444276
20
164.3591393
40
0.3641968
50
133.4540601
51
162.947111
0
ARC
8
DEFAULT_255_1_388
10
4.3645158
20
164.3377789
40
0.3935189
50
100.7869829
51
133.4382499
0
ARC
8
DEFAULT_255_1_388
10
4.4036403
20
164.1635399
40
0.5720313
50
89.660664
51
101.3702276
0
ARC
8
DEFAULT_255_1_388
10
4.4111012
20
164.1704263
40
0.5651495
50
78.2172678
51
90.412935
0
ARC
8
DEFAULT_255_1_388
10
4.4510478
20
164.3531511
40
0.378122
50
55.9269121
51
78.4888449
0
ARC
8
DEFAULT_255_1_388
10
4.4731193
20
164.3912187
40
0.3342379
50
47.929771
51
55.4049217
0
ARC
8
DEFAULT_255_1_388
10
4.4845723
20
164.4028618
40
0.3179217
50
4.334829
51
48.0560205
0
ARC
8
DEFAULT_255_1_388
10
4.3613525
20
164.3837487
40
0.442341
50
359.9251713
51
5.5971671
0
ARC
8
DEFAULT_255_1_388
10
4.409568
20
164.3900728
40
0.3941854
50
337.8914027
51
358.9967534
0
ARC
8
DEFAULT_255_1_388
10
4.104325
20
164.5078295
40
0.7213271
50
326.9132501
51
338.3508308
0
ARC
8
DEFAULT_255_1_388
10
3.6559362
20
164.7952105
40
1.2538973
50
319.6471833
51
327.0959558
0
ARC
8
DEFAULT_255_1_388
10
3.224602
20
165.151005
40
1.8129975
50
317.2588228
51
319.9045804
0
LINE
8
DEFAULT_255_1_388
10
5.9367628
20
163.4019
11
5.8111673
21
163.7452545
0
LINE
8
DEFAULT_255_1_388
10
5.8111673
20
163.7452545
11
5.259993
21
163.7452545
0
LINE
8
DEFAULT_255_1_388
10
5.259993
20
163.7452545
11
5.1362047
21
163.4019
0
LINE
8
DEFAULT_255_1_388
10
5.1362047
20
163.4019
11
4.9572989
21
163.4019
0
LINE
8
DEFAULT_255_1_388
10
4.9572989
20
163.4019
11
5.4596808
21
164.7174898
0
LINE
8
DEFAULT_255_1_388
10
5.4596808
20
164.7174898
11
5.6114796
21
164.7174898
0
LINE
8
DEFAULT_255_1_388
10
5.6114796
20
164.7174898
11
6.114765
21
163.4019
0
LINE
8
DEFAULT_255_1_388
10
6.114765
20
163.4019
11
5.9367628
21
163.4019
0
LINE
8
DEFAULT_255_1_388
10
5.5355802
20
164.5033451
11
5.3123998
21
163.8880177
0
LINE
8
DEFAULT_255_1_388
10
5.3123998
20
163.8880177
11
5.7596642
21
163.8880177
0
LINE
8
DEFAULT_255_1_388
10
5.7596642
20
163.8880177
11
5.5355802
21
164.5033451
0
LINE
8
DEFAULT_255_1_388
10
4.5060985
20
172.6613148
11
4.5060985
21
171.3394
0
LINE
8
DEFAULT_255_1_388
10
4.5060985
20
171.3394
11
4.3380355
21
171.3394
0
LINE
8
DEFAULT_255_1_388
10
4.3380355
20
171.3394
11
4.3380355
21
172.453495
0
LINE
8
DEFAULT_255_1_388
10
4.3380355
20
172.453495
11
4.001006
21
172.3297066
0
LINE
8
DEFAULT_255_1_388
10
4.001006
20
172.3297066
11
4.001006
21
172.4815055
0
LINE
8
DEFAULT_255_1_388
10
4.001006
20
172.4815055
11
4.4798951
21
172.6613148
0
LINE
8
DEFAULT_255_1_388
10
4.4798951
20
172.6613148
11
4.5060985
21
172.6613148
0
LINE
8
DEFAULT_255_1_388
10
5.8406632
20
171.8318426
11
5.8406632
21
171.8173856
0
LINE
8
DEFAULT_255_1_388
10
5.1747362
20
171.4523456
11
5.1666041
21
171.3394
0
LINE
8
DEFAULT_255_1_388
10
5.1666041
20
171.3394
11
5.0129981
21
171.3394
0
LINE
8
DEFAULT_255_1_388
10
5.0129981
20
171.3394
11
5.0129981
21
172.727275
0
LINE
8
DEFAULT_255_1_388
10
5.0129981
20
172.727275
11
5.1801576
21
172.727275
0
LINE
8
DEFAULT_255_1_388
10
5.1801576
20
172.727275
11
5.1801576
21
172.2095326
0
LINE
8
DEFAULT_255_1_388
10
5.1801576
20
172.0396625
11
5.1801576
21
171.6167943
0
ARC
8
DEFAULT_255_1_388
10
5.0479084
20
171.8124101
40
0.7927704
50
349.4826431
51
0.3595958
0
ARC
8
DEFAULT_255_1_388
10
5.3040994
20
171.7630754
40
0.531881
50
331.8601729
51
349.6703499
0
ARC
8
DEFAULT_255_1_388
10
5.3865286
20
171.7229295
40
0.440275
50
322.8939675
51
331.4079366
0
ARC
8
DEFAULT_255_1_388
10
5.4647654
20
171.6577419
40
0.3385862
50
296.725075
51
323.7043525
0
ARC
8
DEFAULT_255_1_388
10
5.4681301
20
171.6655416
40
0.3441011
50
270.6344013
51
295.6405661
0
ARC
8
DEFAULT_255_1_388
10
5.4611997
20
171.7557096
40
0.4343809
50
269.9955642
51
271.4168155
0
ARC
8
DEFAULT_255_1_388
10
5.456878
20
171.7406485
40
0.4193418
50
253.6575074
51
270.5859134
0
ARC
8
DEFAULT_255_1_388
10
5.4309027
20
171.6457616
40
0.3209845
50
217.0542732
51
253.3409544
0
ARC
8
DEFAULT_255_1_388
10
5.4384024
20
172.0039393
40
0.3300893
50
93.1931057
51
141.4760886
0
ARC
8
DEFAULT_255_1_388
10
5.4589017
20
171.8653127
40
0.4698157
50
89.9442329
51
94.747695
0
ARC
8
DEFAULT_255_1_388
10
5.463824
20
171.9578571
40
0.3772974
50
70.6102966
51
90.6780641
0
ARC
8
DEFAULT_255_1_388
10
5.4766835
20
172.0090969
40
0.3247312
50
36.1152061
51
69.7490455
0
ARC
8
DEFAULT_255_1_388
10
5.3656931
20
171.9243642
40
0.4643452
50
15.4648073
51
36.4892008
0
ARC
8
DEFAULT_255_1_388
10
5.1341327
20
171.8569548
40
0.7055035
50
3.9221328
51
15.7266383
0
ARC
8
DEFAULT_255_1_388
10
4.8688446
20
171.8330859
40
0.9718194
50
359.9267025
51
4.2562571
0
ARC
8
DEFAULT_255_1_388
10
4.9602923
20
171.8398052
40
0.7132198
50
359.7232654
51
7.7112388
0
ARC
8
DEFAULT_255_1_388
10
5.214776
20
171.8753662
40
0.4562671
50
7.5740305
51
19.4153133
0
ARC
8
DEFAULT_255_1_388
10
5.3573773
20
171.9255795
40
0.3050836
50
19.4237113
51
34.9159184
0
ARC
8
DEFAULT_255_1_388
10
5.4328366
20
171.9803279
40
0.2118777
50
34.4555697
51
84.4656773
0
ARC
8
DEFAULT_255_1_388
10
5.4183742
20
171.8953992
40
0.2978698
50
83.2721807
51
90.1114043
0
ARC
8
DEFAULT_255_1_388
10
5.4136325
20
171.9177068
40
0.275593
50
89.1345761
51
111.409063
0
ARC
8
DEFAULT_255_1_388
10
5.4046947
20
171.9546005
40
0.2380381
50
112.6478022
51
148.9262646
0
ARC
8
DEFAULT_255_1_388
10
5.4922201
20
171.8936711
40
0.3445235
50
147.7602672
51
154.9285352
0
ARC
8
DEFAULT_255_1_388
10
5.4629458
20
171.7536592
40
0.3141675
50
205.8262295
51
224.5304491
0
ARC
8
DEFAULT_255_1_388
10
5.4092137
20
171.7056875
40
0.2422463
50
225.3544419
51
269.2437751
0
ARC
8
DEFAULT_255_1_388
10
5.4195331
20
171.7964679
40
0.3332798
50
267.6756581
51
270.0118705
0
ARC
8
DEFAULT_255_1_388
10
5.4225996
20
171.7110943
40
0.2479241
50
269.3072706
51
289.4988605
0
ARC
8
DEFAULT_255_1_388
10
5.4307071
20
171.6777296
40
0.2137951
50
290.4353105
51
325.3765722
0
ARC
8
DEFAULT_255_1_388
10
5.359973
20
171.72883
40
0.3010425
50
325.022387
51
342.6926192
0
ARC
8
DEFAULT_255_1_388
10
5.1690532
20
171.7909493
40
0.5018047
50
342.4062017
51
352.8669894
0
ARC
8
DEFAULT_255_1_388
10
4.8629869
20
171.8311328
40
0.810494
50
352.7349871
51
359.855599
0
ARC
8
DEFAULT_255_1_388
10
4.6461893
20
171.8363426
40
1.0273146
50
359.5955109
51
0.0009972
0
LINE
8
DEFAULT_255_1_388
10
4.5804985
20
180.5988148
11
4.5804985
21
179.2769
0
LINE
8
DEFAULT_255_1_388
10
4.5804985
20
179.2769
11
4.4124355
21
179.2769
0
LINE
8
DEFAULT_255_1_388
10
4.4124355
20
179.2769
11
4.4124355
21
180.390995
0
LINE
8
DEFAULT_255_1_388
10
4.4124355
20
180.390995
11
4.075406
21
180.2672066
0
LINE
8
DEFAULT_255_1_388
10
4.075406
20
180.2672066
11
4.075406
21
180.4190055
0
LINE
8
DEFAULT_255_1_388
10
4.075406
20
180.4190055
11
4.5542951
21
180.5988148
0
LINE
8
DEFAULT_255_1_388
10
4.5542951
20
180.5988148
11
4.5804985
21
180.5988148
0
LINE
8
DEFAULT_255_1_388
10
5.5699016
20
179.2769
11
5.1136015
21
179.2769
0
LINE
8
DEFAULT_255_1_388
10
5.1136015
20
179.2769
11
5.1136015
21
180.5924898
0
LINE
8
DEFAULT_255_1_388
10
5.1136015
20
180.5924898
11
5.5436982
21
180.5924898
0
LINE
8
DEFAULT_255_1_388
10
5.5762265
20
179.8922274
11
5.2870859
21
179.8922274
0
LINE
8
DEFAULT_255_1_388
10
5.2870859
20
179.8922274
11
5.2870859
21
179.4187596
0
LINE
8
DEFAULT_255_1_388
10
5.2870859
20
179.4187596
11
5.5735158
21
179.4187596
0
LINE
8
DEFAULT_255_1_388
10
5.2870859
20
180.4497267
11
5.2870859
21
180.0313763
0
LINE
8
DEFAULT_255_1_388
10
5.2870859
20
180.0313763
11
5.5491196
21
180.0313763
0
LINE
8
DEFAULT_255_1_388
10
5.5436982
20
180.4497267
11
5.2870859
21
180.4497267
0
ARC
8
DEFAULT_255_1_388
10
5.5479402
20
179.7636824
40
0.8288183
50
82.1256322
51
90.2932506
0
ARC
8
DEFAULT_255_1_388
10
5.5916977
20
180.069459
40
0.5199321
50
69.9044202
51
82.2857574
0
ARC
8
DEFAULT_255_1_388
10
5.655897
20
180.2429993
40
0.3348993
50
51.1840204
51
70.018125
0
ARC
8
DEFAULT_255_1_388
10
5.6845802
20
180.2846945
40
0.2844579
50
12.1018086
51
50.421322
0
ARC
8
DEFAULT_255_1_388
10
5.5288674
20
180.2455937
40
0.4449429
50
359.5252354
51
12.8212369
0
ARC
8
DEFAULT_255_1_388
10
5.7066104
20
180.2377943
40
0.2672162
50
323.4907456
51
0.8818258
0
ARC
8
DEFAULT_255_1_388
10
5.6595516
20
180.2741523
40
0.3266736
50
298.6824053
51
323.2758285
0
ARC
8
DEFAULT_255_1_388
10
5.6188808
20
180.3417509
40
0.4055105
50
293.1994739
51
299.139634
0
ARC
8
DEFAULT_255_1_388
10
5.6945757
20
179.6571651
40
0.3229926
50
54.0009997
51
74.9168635
0
ARC
8
DEFAULT_255_1_388
10
5.7076684
20
179.6793511
40
0.2973581
50
36.3578854
51
53.5293172
0
ARC
8
DEFAULT_255_1_388
10
5.6934052
20
179.669185
40
0.3148715
50
4.8189348
51
36.3090187
0
ARC
8
DEFAULT_255_1_388
10
5.6057076
20
179.6568383
40
0.4033265
50
359.9373213
51
5.5201284
0
ARC
8
DEFAULT_255_1_388
10
5.5692406
20
179.6522733
40
0.4398126
50
344.7479357
51
0.5372278
0
ARC
8
DEFAULT_255_1_388
10
5.6807305
20
179.6222205
40
0.3243441
50
311.1785587
51
344.6887681
0
ARC
8
DEFAULT_255_1_388
10
5.6478848
20
179.6631084
40
0.3767511
50
286.0417804
51
310.8440924
0
ARC
8
DEFAULT_255_1_388
10
5.5908258
20
179.8483885
40
0.5705957
50
274.1044074
51
286.4070149
0
ARC
8
DEFAULT_255_1_388
10
5.5709473
20
180.0601901
40
0.7832907
50
269.9235077
51
274.4458593
0
ARC
8
DEFAULT_255_1_388
10
5.5761191
20
179.7970462
40
0.3782955
50
269.6057074
51
281.3740795
0
ARC
8
DEFAULT_255_1_388
10
5.602069
20
179.6740569
40
0.2526069
50
281.105298
51
302.5134029
0
ARC
8
DEFAULT_255_1_388
10
5.6186077
20
179.6443944
40
0.2187131
50
303.0365425
51
311.8818034
0
ARC
8
DEFAULT_255_1_388
10
5.6266254
20
179.6348602
40
0.2062624
50
311.9916937
51
351.7143773
0
ARC
8
DEFAULT_255_1_388
10
5.5347279
20
179.6534271
40
0.2999202
50
350.7343295
51
0.2221526
0
ARC
8
DEFAULT_255_1_388
10
5.5226367
20
179.659787
40
0.3120525
50
359.045729
51
17.2295312
0
ARC
8
DEFAULT_255_1_388
10
5.6395398
20
179.6945155
40
0.1901144
50
17.6685208
51
78.9940245
0
ARC
8
DEFAULT_255_1_388
10
5.5813758
20
179.4857011
40
0.4065575
50
76.565218
51
90.7103392
0
LINE
8
DEFAULT_255_1_388
10
5.5763356
20
179.8922274
11
5.5762265
21
179.8922274
0
ARC
8
DEFAULT_255_1_388
10
5.5516584
20
180.4009949
40
0.3696273
50
269.6064514
51
281.4533785
0
ARC
8
DEFAULT_255_1_388
10
5.5767225
20
180.2827283
40
0.2487412
50
281.2044438
51
302.5143998
0
ARC
8
DEFAULT_255_1_388
10
5.5921479
20
180.2549576
40
0.2170405
50
303.0211308
51
309.8378766
0
ARC
8
DEFAULT_255_1_388
10
5.6127596
20
180.2318486
40
0.1860946
50
309.5229446
51
356.9509628
0
ARC
8
DEFAULT_255_1_388
10
5.5381722
20
180.2425831
40
0.2612347
50
355.4699226
51
0.0498632
0
ARC
8
DEFAULT_255_1_388
10
5.5067396
20
180.2450789
40
0.2926762
50
359.5558955
51
11.2092924
0
ARC
8
DEFAULT_255_1_388
10
5.6144363
20
180.2673667
40
0.1827036
50
10.9185717
51
31.322519
0
ARC
8
DEFAULT_255_1_388
10
5.6465911
20
180.2852571
40
0.1459418
50
31.8850633
51
52.1415586
0
ARC
8
DEFAULT_255_1_388
10
5.6157341
20
180.2416674
40
0.1993088
50
52.8283418
51
71.9850132
0
ARC
8
DEFAULT_255_1_388
10
5.5734501
20
180.1172158
40
0.3307407
50
71.686634
51
82.8453416
0
ARC
8
DEFAULT_255_1_388
10
5.5465148
20
179.9136892
40
0.536039
50
82.6981895
51
90.1730083
0
ARC
8
DEFAULT_255_1_388
10
5.543998
20
180.0015836
40
0.4481429
50
89.8851568
51
90.0383283
0
LINE
8
DEFAULT_255_1_388
10
4.5515985
20
188.5363148
11
4.5515985
21
187.2144
0
LINE
8
DEFAULT_255_1_388
10
4.5515985
20
187.2144
11
4.3835355
21
187.2144
0
LINE
8
DEFAULT_255_1_388
10
4.3835355
20
187.2144
11
4.3835355
21
188.328495
0
LINE
8
DEFAULT_255_1_388
10
4.3835355
20
188.328495
11
4.046506
21
188.2047066
0
LINE
8
DEFAULT_255_1_388
10
4.046506
20
188.2047066
11
4.046506
21
188.3565055
0
LINE
8
DEFAULT_255_1_388
10
4.046506
20
188.3565055
11
4.5253951
21
188.5363148
0
LINE
8
DEFAULT_255_1_388
10
4.5253951
20
188.5363148
11
4.5515985
21
188.5363148
0
LINE
8
DEFAULT_255_1_388
10
5.9367628
20
187.2144
11
5.8111673
21
187.5577545
0
LINE
8
DEFAULT_255_1_388
10
5.8111673
20
187.5577545
11
5.259993
21
187.5577545
0
LINE
8
DEFAULT_255_1_388
10
5.259993
20
187.5577545
11
5.1362047
21
187.2144
0
LINE
8
DEFAULT_255_1_388
10
5.1362047
20
187.2144
11
4.9572989
21
187.2144
0
LINE
8
DEFAULT_255_1_388
10
4.9572989
20
187.2144
11
5.4596808
21
188.5299898
0
LINE
8
DEFAULT_255_1_388
10
5.4596808
20
188.5299898
11
5.6114796
21
188.5299898
0
LINE
8
DEFAULT_255_1_388
10
5.6114796
20
188.5299898
11
6.114765
21
187.2144
0
LINE
8
DEFAULT_255_1_388
10
6.114765
20
187.2144
11
5.9367628
21
187.2144
0
LINE
8
DEFAULT_255_1_388
10
5.5355802
20
188.3158451
11
5.3123998
21
187.7005177
0
LINE
8
DEFAULT_255_1_388
10
5.3123998
20
187.7005177
11
5.7596642
21
187.7005177
0
LINE
8
DEFAULT_255_1_388
10
5.7596642
20
187.7005177
11
5.5355802
21
188.3158451
0
LINE
8
DEFAULT_255_1_388
10
23.1203856
20
195.929869
11
23.1203856
21
195.7130135
0
LINE
8
DEFAULT_255_1_388
10
22.2900099
20
195.6904244
11
22.2900099
21
195.9136048
0
LINE
8
DEFAULT_255_1_388
10
22.9532262
20
195.6678353
11
22.9532262
21
195.9416153
0
LINE
8
DEFAULT_255_1_388
10
22.4571693
20
195.9542652
11
22.4571693
21
195.6868102
0
ARC
8
DEFAULT_255_1_388
10
21.742619
20
195.7075118
40
1.3777776
50
353.8440855
51
0.2287917
0
ARC
8
DEFAULT_255_1_388
10
22.2645208
20
195.6492414
40
0.852639
50
344.4934746
51
353.9763743
0
ARC
8
DEFAULT_255_1_388
10
22.6012015
20
195.5535191
40
0.5026273
50
329.2803599
51
344.7473406
0
ARC
8
DEFAULT_255_1_388
10
22.7127511
20
195.4923038
40
0.3754848
50
324.9361395
51
328.6153007
0
ARC
8
DEFAULT_255_1_388
10
22.7553161
20
195.4625586
40
0.3235566
50
280.5801797
51
324.9173226
0
ARC
8
DEFAULT_255_1_388
10
22.7101789
20
195.6505236
40
0.5167077
50
269.5979457
51
281.6732777
0
ARC
8
DEFAULT_255_1_388
10
22.7020693
20
195.6370113
40
0.5032026
50
256.6228565
51
270.5105488
0
ARC
8
DEFAULT_255_1_388
10
22.6568435
20
195.4628345
40
0.3233092
50
215.8618351
51
257.2787793
0
ARC
8
DEFAULT_255_1_388
10
22.7717142
20
195.5399106
40
0.4615831
50
197.9695203
51
215.2622745
0
ARC
8
DEFAULT_255_1_388
10
23.0512818
20
195.6342641
40
0.7566307
50
187.8816486
51
198.2346584
0
ARC
8
DEFAULT_255_1_388
10
23.4966056
20
195.6985453
40
1.2065653
50
180.8977266
51
188.0054894
0
ARC
8
DEFAULT_255_1_388
10
23.801627
20
195.71004
40
1.5117443
50
180.7434591
51
181.152202
0
ARC
8
DEFAULT_255_1_388
10
23.6341266
20
195.9190371
40
1.3441277
50
173.7674302
51
180.2315596
0
ARC
8
DEFAULT_255_1_388
10
23.1259135
20
195.9764779
40
0.8326847
50
164.3058537
51
173.9000553
0
ARC
8
DEFAULT_255_1_388
10
22.7983135
20
196.0708652
40
0.4917711
50
148.7922028
51
164.5682288
0
ARC
8
DEFAULT_255_1_388
10
22.6913872
20
196.1305457
40
0.3694204
50
144.5883979
51
148.1161588
0
ARC
8
DEFAULT_255_1_388
10
22.6526618
20
196.1575667
40
0.322202
50
101.6440149
51
144.5142619
0
ARC
8
DEFAULT_255_1_388
10
22.700481
20
195.9675337
40
0.5180451
50
89.528284
51
102.5820197
0
ARC
8
DEFAULT_255_1_388
10
22.7093802
20
195.9631376
40
0.5224441
50
77.0437914
51
90.508231
0
ARC
8
DEFAULT_255_1_388
10
22.7546055
20
196.1479272
40
0.3322297
50
48.2777708
51
77.4996087
0
ARC
8
DEFAULT_255_1_388
10
22.7627795
20
196.1624557
40
0.315966
50
36.3141586
51
47.6307332
0
ARC
8
DEFAULT_255_1_388
10
22.6650518
20
196.0966159
40
0.4337313
50
18.2931065
51
35.6770203
0
ARC
8
DEFAULT_255_1_388
10
22.3789358
20
195.9984107
40
0.7362203
50
8.0246996
51
18.5605636
0
ARC
8
DEFAULT_255_1_388
10
21.9105714
20
195.9292432
40
1.2096583
50
1.127539
51
8.1718423
0
ARC
8
DEFAULT_255_1_388
10
21.5456847
20
195.9149374
40
1.5747719
50
0.5432713
51
1.38669
0
ARC
8
DEFAULT_255_1_388
10
21.7514226
20
195.9456163
40
1.2018103
50
359.8092569
51
4.9408001
0
ARC
8
DEFAULT_255_1_388
10
22.2250807
20
195.98789
40
0.7262727
50
4.8364937
51
12.2906017
0
ARC
8
DEFAULT_255_1_388
10
22.5350272
20
196.0569485
40
0.4087324
50
12.0806994
51
23.8171225
0
ARC
8
DEFAULT_255_1_388
10
22.6670668
20
196.1128508
40
0.2653719
50
24.2874621
51
31.3934353
0
ARC
8
DEFAULT_255_1_388
10
22.7261104
20
196.1514822
40
0.1948607
50
30.7407708
51
82.4658033
0
ARC
8
DEFAULT_255_1_388
10
22.7058765
20
196.0521017
40
0.2961198
50
81.1057101
51
90.2187368
0
ARC
8
DEFAULT_255_1_388
10
22.7018577
20
196.0811421
40
0.2670929
50
89.380395
51
105.6763916
0
ARC
8
DEFAULT_255_1_388
10
22.6812299
20
196.156132
40
0.1893189
50
105.7980655
51
149.7387869
0
ARC
8
DEFAULT_255_1_388
10
22.8009439
20
196.0841719
40
0.3289892
50
149.4208441
51
163.628295
0
ARC
8
DEFAULT_255_1_388
10
23.0361668
20
196.0124345
40
0.5749004
50
163.3764549
51
172.141138
0
ARC
8
DEFAULT_255_1_388
10
23.407439
20
195.9592582
40
0.9499585
50
172.0258462
51
178.0705453
0
ARC
8
DEFAULT_255_1_388
10
23.7495943
20
195.9430682
40
1.2924734
50
177.8639301
51
179.5036263
0
ARC
8
DEFAULT_255_1_388
10
23.6276961
20
195.6827151
40
1.170534
50
179.7995545
51
185.246089
0
ARC
8
DEFAULT_255_1_388
10
23.1728554
20
195.6396404
40
0.7136613
50
185.1411911
51
193.0082205
0
ARC
8
DEFAULT_255_1_388
10
22.8754815
20
195.5693441
40
0.4080987
50
192.7897338
51
205.2507384
0
ARC
8
DEFAULT_255_1_388
10
22.7577025
20
195.5167538
40
0.2791522
50
205.8001921
51
211.2545876
0
ARC
8
DEFAULT_255_1_388
10
22.6988564
20
195.4773132
40
0.2084074
50
210.3789935
51
238.4007996
0
ARC
8
DEFAULT_255_1_388
10
22.696665
20
195.4825786
40
0.2117943
50
239.6521916
51
265.9793852
0
ARC
8
DEFAULT_255_1_388
10
22.7062499
20
195.5582358
40
0.2879689
50
265.1324455
51
270.0603288
0
ARC
8
DEFAULT_255_1_388
10
22.7094876
20
195.5217418
40
0.2514919
50
269.3314378
51
287.2180039
0
ARC
8
DEFAULT_255_1_388
10
22.7249958
20
195.4651291
40
0.1928357
50
287.7957942
51
329.0808983
0
ARC
8
DEFAULT_255_1_388
10
22.6172715
20
195.5323651
40
0.319808
50
328.6635261
51
343.3325043
0
ARC
8
DEFAULT_255_1_388
10
22.3728174
20
195.6085195
40
0.5758408
50
343.0498092
51
351.9392499
0
ARC
8
DEFAULT_255_1_388
10
21.9827496
20
195.6660205
40
0.9701202
50
351.8071632
51
357.7957897
0
ARC
8
DEFAULT_255_1_388
10
21.6192973
20
195.6848724
40
1.3340376
50
357.5870923
51
359.2682493
0
LINE
8
DEFAULT_255_1_388
10
23.4393439
20
196.4674898
11
23.8134196
21
195.3823089
0
LINE
8
DEFAULT_255_1_388
10
23.8134196
20
195.3823089
11
24.1893024
21
196.4674898
0
LINE
8
DEFAULT_255_1_388
10
24.1893024
20
196.4674898
11
24.3790509
21
196.4674898
0
LINE
8
DEFAULT_255_1_388
10
24.3790509
20
196.4674898
11
23.8911261
21
195.1519
0
LINE
8
DEFAULT_255_1_388
10
23.8911261
20
195.1519
11
23.7375202
21
195.1519
0
LINE
8
DEFAULT_255_1_388
10
23.7375202
20
195.1519
11
23.2504989
21
196.4674898
0
LINE
8
DEFAULT_255_1_388
10
23.2504989
20
196.4674898
11
23.4393439
21
196.4674898
0
ENDSEC
0
EOF