0
SECTION
2
HEADER
9
$MEASUREMENT
70
1
0
ENDSEC
0
SECTION
2
TABLES
0
TABLE
2
LTYPE
0
LTYPE
72
65
70
64
2
CONTINUOUS
3
______
73
0
40
0
0
ENDTAB
0
TABLE
2
LAYER
0
LAYER
2
DEFAULT_255_2_778
70
0
62
255
6
CONTINUOUS
0
ENDTAB
0
ENDSEC
0
SECTION
2
ENTITIES
0
LINE
8
DEFAULT_255_2_778
10
1.5028261
20
9.2804186
11
4.4219261
21
9.2804186
0
LINE
8
DEFAULT_255_2_778
10
4.4219261
20
9.2804186
11
4.4219261
21
12.7803186
0
LINE
8
DEFAULT_255_2_778
10
4.4219261
20
12.7803186
11
1.5028261
21
12.7803186
0
LINE
8
DEFAULT_255_2_778
10
1.5028261
20
12.7803186
11
1.5028261
21
-0.2196814
0
ARC
8
DEFAULT_255_2_778
10
7.2103903
20
4.7835633
40
1.4980165
50
151.5794485
51
180.1201144
0
ARC
8
DEFAULT_255_2_778
10
7.2086083
20
4.7838486
40
1.4963136
50
98.4345278
51
151.556579
0
ARC
8
DEFAULT_255_2_778
10
7.211728
20
4.756377
40
1.523946
50
89.9793545
51
98.3990533
0
ARC
8
DEFAULT_255_2_778
10
7.2153623
20
4.7825884
40
1.4977377
50
61.5751306
51
90.1180235
0
ARC
8
DEFAULT_255_2_778
10
7.2154535
20
4.7838461
40
1.4965884
50
8.4415994
51
61.5552822
0
ARC
8
DEFAULT_255_2_778
10
7.1889136
20
4.7809685
40
1.5232637
50
359.9794778
51
8.4021165
0
ARC
8
DEFAULT_255_2_778
10
7.2143384
20
4.7773268
40
1.497842
50
331.5777617
51
0.1184315
0
ARC
8
DEFAULT_255_2_778
10
7.2157927
20
4.7771427
40
1.4964755
50
278.4395422
51
331.5574586
0
ARC
8
DEFAULT_255_2_778
10
7.212825
20
4.8040614
40
1.5235387
50
269.9793954
51
278.4013619
0
ARC
8
DEFAULT_255_2_778
10
7.2091811
20
4.7783616
40
1.497842
50
241.5777617
51
270.1184315
0
ARC
8
DEFAULT_255_2_778
10
7.208997
20
4.7769073
40
1.4964755
50
188.4395422
51
241.5574586
0
ARC
8
DEFAULT_255_2_778
10
7.2359157
20
4.779875
40
1.5235387
50
179.9793954
51
188.4013619
0
LINE
8
DEFAULT_255_2_778
10
5.7123771
20
4.7804229
11
5.7123771
21
4.7804229
0
ARC
8
DEFAULT_255_2_778
10
27.7105903
20
4.7835633
40
1.4980165
50
151.5794485
51
180.1201144
0
ARC
8
DEFAULT_255_2_778
10
27.7088083
20
4.7838486
40
1.4963136
50
98.4345278
51
151.556579
0
ARC
8
DEFAULT_255_2_778
10
27.711928
20
4.756377
40
1.523946
50
89.9793545
51
98.3990533
0
ARC
8
DEFAULT_255_2_778
10
27.7155623
20
4.7825884
40
1.4977377
50
61.5751306
51
90.1180235
0
ARC
8
DEFAULT_255_2_778
10
27.7156535
20
4.7838461
40
1.4965884
50
8.4415994
51
61.5552822
0
ARC
8
DEFAULT_255_2_778
10
27.6891136
20
4.7809685
40
1.5232637
50
359.9794778
51
8.4021165
0
ARC
8
DEFAULT_255_2_778
10
27.7145384
20
4.7773268
40
1.497842
50
331.5777617
51
0.1184315
0
ARC
8
DEFAULT_255_2_778
10
27.7159927
20
4.7771427
40
1.4964755
50
278.4395422
51
331.5574586
0
ARC
8
DEFAULT_255_2_778
10
27.713025
20
4.8040614
40
1.5235387
50
269.9793954
51
278.4013619
0
ARC
8
DEFAULT_255_2_778
10
27.7093811
20
4.7783616
40
1.497842
50
241.5777617
51
270.1184315
0
ARC
8
DEFAULT_255_2_778
10
27.709197
20
4.7769073
40
1.4964755
50
188.4395422
51
241.5574586
0
ARC
8
DEFAULT_255_2_778
10
27.7361157
20
4.779875
40
1.5235387
50
179.9793954
51
188.4013619
0
LINE
8
DEFAULT_255_2_778
10
26.2125771
20
4.7804229
11
26.2125771
21
4.7804229
0
ARC
8
DEFAULT_255_2_778
10
11.5080227
20
88.2719293
40
2.1782841
50
179.9347181
51
202.90795
0
ARC
8
DEFAULT_255_2_778
10
11.5169315
20
88.2775526
40
2.1886798
50
202.9527694
51
259.8510362
0
ARC
8
DEFAULT_255_2_778
10
11.5142636
20
88.2886082
40
2.1990971
50
259.9702145
51
270.0098064
0
ARC
8
DEFAULT_255_2_778
10
11.5169428
20
88.2681849
40
2.1786749
50
269.9394393
51
292.9087173
0
ARC
8
DEFAULT_255_2_778
10
11.5115239
20
88.2767338
40
2.1886597
50
292.9522706
51
349.850198
0
ARC
8
DEFAULT_255_2_778
10
11.500493
20
88.2740335
40
2.199047
50
349.970101
51
0.0098403
0
LINE
8
DEFAULT_255_2_778
10
33.42184
20
-0.2196888
11
33.42184
21
12.7803112
0
LINE
8
DEFAULT_255_2_778
10
33.42184
20
12.7803112
11
30.50274
21
12.7803112
0
LINE
8
DEFAULT_255_2_778
10
30.50274
20
12.7803112
11
30.50274
21
9.2804112
0
LINE
8
DEFAULT_255_2_778
10
30.50274
20
9.2804112
11
33.42184
21
9.2804112
0
LINE
8
DEFAULT_255_2_778
10
30.50274
20
9.4900112
11
4.42194
21
9.4900112
0
LINE
8
DEFAULT_255_2_778
10
22.96234
20
2.2806112
11
22.96234
21
7.7805112
0
LINE
8
DEFAULT_255_2_778
10
22.96234
20
7.7805112
11
11.96234
21
7.7805112
0
LINE
8
DEFAULT_255_2_778
10
11.96234
20
7.7805112
11
11.96234
21
2.2806112
0
LINE
8
DEFAULT_255_2_778
10
11.96234
20
2.2806112
11
22.96234
21
2.2806112
0
LINE
8
DEFAULT_255_2_778
10
13.69984
20
94.2143112
11
12.36734
21
94.2143112
0
LINE
8
DEFAULT_255_2_778
10
12.36734
20
94.2143112
11
11.51624
21
92.7400112
0
LINE
8
DEFAULT_255_2_778
10
11.51624
20
92.7400112
11
10.66504
21
94.2143112
0
LINE
8
DEFAULT_255_2_778
10
10.66504
20
94.2143112
11
9.32974
21
94.2143112
0
LINE
8
DEFAULT_255_2_778
10
9.32974
20
94.2143112
11
9.32974
21
88.2744112
0
LINE
8
DEFAULT_255_2_778
10
13.69954
20
88.2744112
11
13.69954
21
94.2143112
0
ARC
8
DEFAULT_255_2_778
10
11.5136963
20
88.2737855
40
3.7008151
50
53.7919442
51
67.0182141
0
ARC
8
DEFAULT_255_2_778
10
11.5156409
20
88.2743838
40
3.6995053
50
67.0423214
51
90.0131991
0
ARC
8
DEFAULT_255_2_778
10
11.5139364
20
88.2743838
40
3.6995054
50
89.9868009
51
112.9576786
0
ARC
8
DEFAULT_255_2_778
10
11.5158809
20
88.2737855
40
3.700815
50
112.9817859
51
126.2080558
0
LINE
8
DEFAULT_255_2_778
10
13.6911417
20
116.2794552
11
13.6911417
21
117.6793552
0
LINE
8
DEFAULT_255_2_778
10
13.6911417
20
117.6793552
11
12.2412417
21
117.6793552
0
LINE
8
DEFAULT_255_2_778
10
12.2412417
20
117.6793552
11
12.2412417
21
116.2794552
0
LINE
8
DEFAULT_255_2_778
10
12.2412417
20
116.2794552
11
13.6911417
21
116.2794552
0
LINE
8
DEFAULT_255_2_778
10
13.6911417
20
111.6791552
11
12.2412417
21
111.6791552
0
LINE
8
DEFAULT_255_2_778
10
12.2412417
20
111.6791552
11
12.2412417
21
110.2792552
0
LINE
8
DEFAULT_255_2_778
10
12.2412417
20
110.2792552
11
13.6911417
21
110.2792552
0
LINE
8
DEFAULT_255_2_778
10
13.6911417
20
110.2792552
11
13.6911417
21
111.6791552
0
LINE
8
DEFAULT_255_2_778
10
13.6911417
20
114.6792552
11
12.2412417
21
114.6792552
0
LINE
8
DEFAULT_255_2_778
10
12.2412417
20
114.6792552
11
12.2412417
21
113.2793552
0
LINE
8
DEFAULT_255_2_778
10
12.2412417
20
113.2793552
11
13.6911417
21
113.2793552
0
LINE
8
DEFAULT_255_2_778
10
13.6911417
20
113.2793552
11
13.6911417
21
114.6792552
0
LINE
8
DEFAULT_255_2_778
10
12.2412417
20
122.2794552
11
13.6911417
21
122.2794552
0
LINE
8
DEFAULT_255_2_778
10
13.6911417
20
122.2794552
11
13.6911417
21
123.6793552
0
LINE
8
DEFAULT_255_2_778
10
13.6911417
20
123.6793552
11
12.2412417
21
123.6793552
0
LINE
8
DEFAULT_255_2_778
10
12.2412417
20
123.6793552
11
12.2412417
21
122.2794552
0
LINE
8
DEFAULT_255_2_778
10
13.6911417
20
120.6792552
11
12.2412417
21
120.6792552
0
LINE
8
DEFAULT_255_2_778
10
12.2412417
20
120.6792552
11
12.2412417
21
119.2793552
0
LINE
8
DEFAULT_255_2_778
10
12.2412417
20
119.2793552
11
13.6911417
21
119.2793552
0
LINE
8
DEFAULT_255_2_778
10
13.6911417
20
119.2793552
11
13.6911417
21
120.6792552
0
ARC
8
DEFAULT_255_2_778
10
23.5086123
20
88.2721096
40
2.1786749
50
179.9394393
51
202.9087173
0
ARC
8
DEFAULT_255_2_778
10
23.5171612
20
88.2775285
40
2.1886597
50
202.9522706
51
259.850198
0
ARC
8
DEFAULT_255_2_778
10
23.5144609
20
88.2885593
40
2.199047
50
259.970101
51
270.0098403
0
ARC
8
DEFAULT_255_2_778
10
23.5171346
20
88.2682968
40
2.1787856
50
269.9396227
51
292.9081287
0
ARC
8
DEFAULT_255_2_778
10
23.51176
20
88.2768247
40
2.1887338
50
292.9508278
51
349.8481603
0
ARC
8
DEFAULT_255_2_778
10
23.5009733
20
88.274038
40
2.1988655
50
349.9691775
51
0.0097553
0
LINE
8
DEFAULT_255_2_778
10
25.7000386
20
94.2143124
11
24.3676386
21
94.2143124
0
LINE
8
DEFAULT_255_2_778
10
24.3676386
20
94.2143124
11
23.5164386
21
92.7400124
0
LINE
8
DEFAULT_255_2_778
10
23.5164386
20
92.7400124
11
22.6653386
21
94.2143124
0
LINE
8
DEFAULT_255_2_778
10
22.6653386
20
94.2143124
11
21.3299386
21
94.2143124
0
LINE
8
DEFAULT_255_2_778
10
21.3299386
20
94.2143124
11
21.3299386
21
88.2744124
0
LINE
8
DEFAULT_255_2_778
10
25.6998386
20
88.2744124
11
25.6998386
21
94.2143124
0
ARC
8
DEFAULT_255_2_778
10
23.5138963
20
88.2737855
40
3.7008151
50
53.7919442
51
67.0182141
0
ARC
8
DEFAULT_255_2_778
10
23.5158409
20
88.2743838
40
3.6995053
50
67.0423214
51
90.0131991
0
ARC
8
DEFAULT_255_2_778
10
23.5141364
20
88.2743838
40
3.6995054
50
89.9868009
51
112.9576786
0
ARC
8
DEFAULT_255_2_778
10
23.5160809
20
88.2737855
40
3.700815
50
112.9817859
51
126.2080558
0
ARC
8
DEFAULT_255_2_778
10
23.5086123
20
100.2720096
40
2.1786749
50
179.9394393
51
202.9087173
0
ARC
8
DEFAULT_255_2_778
10
23.5171612
20
100.2774285
40
2.1886597
50
202.9522706
51
259.850198
0
ARC
8
DEFAULT_255_2_778
10
23.5144609
20
100.2884593
40
2.199047
50
259.970101
51
270.0098403
0
ARC
8
DEFAULT_255_2_778
10
23.5171346
20
100.2681968
40
2.1787856
50
269.9396227
51
292.9081287
0
ARC
8
DEFAULT_255_2_778
10
23.51176
20
100.2767247
40
2.1887338
50
292.9508278
51
349.8481603
0
ARC
8
DEFAULT_255_2_778
10
23.5009733
20
100.273938
40
2.1988655
50
349.9691775
51
0.0097553
0
LINE
8
DEFAULT_255_2_778
10
25.7000386
20
106.2142124
11
24.3676386
21
106.2142124
0
LINE
8
DEFAULT_255_2_778
10
24.3676386
20
106.2142124
11
23.5164386
21
104.7399124
0
LINE
8
DEFAULT_255_2_778
10
23.5164386
20
104.7399124
11
22.6653386
21
106.2142124
0
LINE
8
DEFAULT_255_2_778
10
22.6653386
20
106.2142124
11
21.3299386
21
106.2142124
0
LINE
8
DEFAULT_255_2_778
10
21.3299386
20
106.2142124
11
21.3299386
21
100.2743124
0
LINE
8
DEFAULT_255_2_778
10
25.6998386
20
100.2743124
11
25.6998386
21
106.2142124
0
ARC
8
DEFAULT_255_2_778
10
23.5138963
20
100.2739855
40
3.7008151
50
53.7919442
51
67.0182141
0
ARC
8
DEFAULT_255_2_778
10
23.5158409
20
100.2745838
40
3.6995053
50
67.0423214
51
90.0131991
0
ARC
8
DEFAULT_255_2_778
10
23.5141364
20
100.2745838
40
3.6995054
50
89.9868009
51
112.9576786
0
ARC
8
DEFAULT_255_2_778
10
23.5160809
20
100.2739855
40
3.700815
50
112.9817859
51
126.2080558
0
LINE
8
DEFAULT_255_2_778
10
21.2412417
20
116.2794655
11
22.6911417
21
116.2794655
0
LINE
8
DEFAULT_255_2_778
10
22.6911417
20
116.2794655
11
22.6911417
21
117.6793655
0
LINE
8
DEFAULT_255_2_778
10
22.6911417
20
117.6793655
11
21.2412417
21
117.6793655
0
LINE
8
DEFAULT_255_2_778
10
21.2412417
20
117.6793655
11
21.2412417
21
116.2794655
0
LINE
8
DEFAULT_255_2_778
10
21.2412417
20
110.2792655
11
22.6911417
21
110.2792655
0
LINE
8
DEFAULT_255_2_778
10
22.6911417
20
110.2792655
11
22.6911417
21
111.6791655
0
LINE
8
DEFAULT_255_2_778
10
22.6911417
20
111.6791655
11
21.2412417
21
111.6791655
0
LINE
8
DEFAULT_255_2_778
10
21.2412417
20
111.6791655
11
21.2412417
21
110.2792655
0
LINE
8
DEFAULT_255_2_778
10
22.6911417
20
114.6792552
11
21.2412417
21
114.6792552
0
LINE
8
DEFAULT_255_2_778
10
21.2412417
20
114.6792552
11
21.2412417
21
113.2793552
0
LINE
8
DEFAULT_255_2_778
10
21.2412417
20
113.2793552
11
22.6911417
21
113.2793552
0
LINE
8
DEFAULT_255_2_778
10
22.6911417
20
113.2793552
11
22.6911417
21
114.6792552
0
LINE
8
DEFAULT_255_2_778
10
22.6911417
20
122.2794552
11
22.6911417
21
123.6793552
0
LINE
8
DEFAULT_255_2_778
10
22.6911417
20
123.6793552
11
21.2412417
21
123.6793552
0
LINE
8
DEFAULT_255_2_778
10
21.2412417
20
123.6793552
11
21.2412417
21
122.2794552
0
LINE
8
DEFAULT_255_2_778
10
21.2412417
20
122.2794552
11
22.6911417
21
122.2794552
0
LINE
8
DEFAULT_255_2_778
10
22.6911417
20
120.6792552
11
21.2412417
21
120.6792552
0
LINE
8
DEFAULT_255_2_778
10
21.2412417
20
120.6792552
11
21.2412417
21
119.2793552
0
LINE
8
DEFAULT_255_2_778
10
21.2412417
20
119.2793552
11
22.6911417
21
119.2793552
0
LINE
8
DEFAULT_255_2_778
10
22.6911417
20
119.2793552
11
22.6911417
21
120.6792552
0
LINE
8
DEFAULT_255_2_778
10
17.4624609
20
-0.2197466
11
0.2124609
21
-0.2197466
0
LINE
8
DEFAULT_255_2_778
10
0.2124609
20
-0.2197466
11
0.2124609
21
129.7803534
0
LINE
8
DEFAULT_255_2_778
10
0.2124609
20
129.7803534
11
17.4624609
21
129.7803534
0
LINE
8
DEFAULT_255_2_778
10
17.4624609
20
-0.2197466
11
34.7125609
21
-0.2197466
0
LINE
8
DEFAULT_255_2_778
10
34.7125609
20
-0.2197466
11
34.7125609
21
129.7803534
0
LINE
8
DEFAULT_255_2_778
10
34.7125609
20
129.7803534
11
17.4624609
21
129.7803534
0
LINE
8
DEFAULT_255_2_778
10
26.7474762
20
63.4852948
11
26.7474762
21
72.4853948
0
LINE
8
DEFAULT_255_2_778
10
26.7474762
20
72.4853948
11
18.7472762
21
72.4853948
0
LINE
8
DEFAULT_255_2_778
10
18.7472762
20
72.4853948
11
18.7472762
21
63.4852948
0
LINE
8
DEFAULT_255_2_778
10
18.7472762
20
63.4852948
11
26.7474762
21
63.4852948
0
LINE
8
DEFAULT_255_2_778
10
26.9975762
20
78.9853948
11
18.4972762
21
78.9853948
0
LINE
8
DEFAULT_255_2_778
10
18.4972762
20
78.9853948
11
18.4972762
21
56.9852948
0
LINE
8
DEFAULT_255_2_778
10
18.4972762
20
56.9852948
11
26.9972762
21
56.9852948
0
LINE
8
DEFAULT_255_2_778
10
18.6472762
20
78.9853948
11
18.6472762
21
56.9852948
0
LINE
8
DEFAULT_255_2_778
10
26.8472762
20
56.9852948
11
26.8472762
21
78.9853948
0
LINE
8
DEFAULT_255_2_778
10
26.6662762
20
28.3404948
11
26.6662762
21
29.2891948
0
LINE
8
DEFAULT_255_2_778
10
26.6662762
20
29.2891948
11
14.6663762
21
29.2891948
0
LINE
8
DEFAULT_255_2_778
10
14.6663762
20
29.2891948
11
14.6663762
21
28.3404948
0
LINE
8
DEFAULT_255_2_778
10
15.7162762
20
28.3404948
11
15.7162762
21
29.2891948
0
LINE
8
DEFAULT_255_2_778
10
25.6161762
20
28.3404948
11
25.6161762
21
29.2891948
0
LINE
8
DEFAULT_255_2_778
10
14.6660762
20
11.8401948
11
14.6660762
21
10.8789948
0
LINE
8
DEFAULT_255_2_778
10
14.6660762
20
10.8789948
11
26.6660762
21
10.8789948
0
LINE
8
DEFAULT_255_2_778
10
26.6660762
20
10.8789948
11
26.6660762
21
11.8401948
0
LINE
8
DEFAULT_255_2_778
10
15.7159762
20
10.8789948
11
15.7159762
21
11.8401948
0
LINE
8
DEFAULT_255_2_778
10
25.6158762
20
10.8789948
11
25.6158762
21
11.8401948
0
LINE
8
DEFAULT_255_2_778
10
26.7469762
20
38.4850948
11
26.7469762
21
47.4851948
0
LINE
8
DEFAULT_255_2_778
10
26.7469762
20
47.4851948
11
18.7472762
21
47.4851948
0
LINE
8
DEFAULT_255_2_778
10
18.7472762
20
47.4851948
11
18.7472762
21
38.4850948
0
LINE
8
DEFAULT_255_2_778
10
18.7472762
20
38.4850948
11
26.7469762
21
38.4850948
0
LINE
8
DEFAULT_255_2_778
10
26.9969762
20
53.9851948
11
18.4972762
21
53.9851948
0
LINE
8
DEFAULT_255_2_778
10
18.4972762
20
53.9851948
11
18.4972762
21
31.9850948
0
LINE
8
DEFAULT_255_2_778
10
18.4972762
20
31.9850948
11
26.9972762
21
31.9850948
0
LINE
8
DEFAULT_255_2_778
10
18.6472762
20
53.9851948
11
18.6472762
21
31.9850948
0
LINE
8
DEFAULT_255_2_778
10
26.8472762
20
31.9850948
11
26.8472762
21
53.9851948
0
LINE
8
DEFAULT_255_2_778
10
26.9972762
20
28.3401948
11
26.9972762
21
81.1152948
0
LINE
8
DEFAULT_255_2_778
10
26.9972762
20
9.5454948
11
26.9972762
21
11.8404948
0
LINE
8
DEFAULT_255_2_778
10
27.6624762
20
28.3404948
11
27.6624762
21
11.8404948
0
LINE
8
DEFAULT_255_2_778
10
27.6624762
20
11.8404948
11
13.6625762
21
11.8404948
0
LINE
8
DEFAULT_255_2_778
10
13.6625762
20
11.8404948
11
13.6625762
21
28.3404948
0
LINE
8
DEFAULT_255_2_778
10
13.6625762
20
28.3404948
11
27.6624762
21
28.3404948
0
LINE
8
DEFAULT_255_2_778
10
28.0973762
20
81.1152948
11
16.7274762
21
81.1152948
0
LINE
8
DEFAULT_255_2_778
10
16.7274762
20
81.1152948
11
16.7274762
21
30.5803948
0
LINE
8
DEFAULT_255_2_778
10
16.7274762
20
30.5803948
11
13.2275762
21
30.5803948
0
LINE
8
DEFAULT_255_2_778
10
13.2275762
20
30.5803948
11
13.2275762
21
9.5454948
0
LINE
8
DEFAULT_255_2_778
10
13.2275762
20
9.5454948
11
28.0973762
21
9.5454948
0
LINE
8
DEFAULT_255_2_778
10
28.0973762
20
9.5454948
11
28.0973762
21
81.1152948
0
ENDSEC
0
EOF