0
SECTION
2
HEADER
9
$MEASUREMENT
70
1
0
ENDSEC
0
SECTION
2
TABLES
0
TABLE
2
LTYPE
0
LTYPE
72
65
70
64
2
CONTINUOUS
3
______
73
0
40
0
0
ENDTAB
0
TABLE
2
LAYER
0
LAYER
2
DEFAULT_255_2_778
70
0
62
255
6
CONTINUOUS
0
ENDTAB
0
ENDSEC
0
SECTION
2
ENTITIES
0
ARC
8
DEFAULT_255_2_778
10
53.9516003
20
40.5255164
40
0.9961262
50
228.3434112
51
270.07118
0
ARC
8
DEFAULT_255_2_778
10
53.9507613
20
40.5283639
40
0.9976993
50
181.7318896
51
228.4881011
0
ARC
8
DEFAULT_255_2_778
10
53.9714353
20
40.5294683
40
1.0183973
50
179.9987254
51
181.7588425
0
ARC
8
DEFAULT_255_2_778
10
53.9492914
20
89.0304254
40
0.9962543
50
138.3547072
51
180.0709944
0
ARC
8
DEFAULT_255_2_778
10
53.9520796
20
89.0313203
40
0.9977464
50
91.7526654
51
138.49951
0
ARC
8
DEFAULT_255_2_778
10
53.9531983
20
89.0102896
40
1.0188015
50
90.0202691
51
91.7793722
0
ARC
8
DEFAULT_255_2_778
10
77.454341
20
89.0327637
40
0.9963282
50
48.358933
51
90.0806882
0
ARC
8
DEFAULT_255_2_778
10
77.4553901
20
89.030101
40
0.9976242
50
1.7444783
51
48.5055747
0
ARC
8
DEFAULT_255_2_778
10
77.4346822
20
89.0290189
40
1.0183557
50
0.0096767
51
1.7698648
0
ARC
8
DEFAULT_255_2_778
10
77.4567163
20
40.5277719
40
0.9963226
50
318.3541388
51
0.0816049
0
ARC
8
DEFAULT_255_2_778
10
77.4540542
20
40.5267524
40
0.9976376
50
271.732932
51
318.4994886
0
ARC
8
DEFAULT_255_2_778
10
77.4529475
20
40.5478501
40
1.0187592
50
269.9994554
51
271.7592612
0
LINE
8
DEFAULT_255_2_778
10
20.4532379
20
111.2292909
11
17.4530379
21
111.2292909
0
LINE
8
DEFAULT_255_2_778
10
17.4530379
20
111.2292909
11
17.4530379
21
123.9292909
0
LINE
8
DEFAULT_255_2_778
10
17.4530379
20
123.9292909
11
20.4532379
21
123.9292909
0
LINE
8
DEFAULT_255_2_778
10
20.4532379
20
123.9292909
11
20.4532379
21
111.2292909
0
LINE
8
DEFAULT_255_2_778
10
17.4530379
20
32.1291909
11
20.4532379
21
32.1291909
0
LINE
8
DEFAULT_255_2_778
10
20.4532379
20
32.1291909
11
20.4532379
21
19.4291909
0
LINE
8
DEFAULT_255_2_778
10
20.4532379
20
19.4291909
11
17.4530379
21
19.4291909
0
LINE
8
DEFAULT_255_2_778
10
17.4530379
20
19.4291909
11
17.4530379
21
32.1291909
0
LINE
8
DEFAULT_255_2_778
10
77.4529379
20
39.5293909
11
53.9528379
21
39.5293909
0
LINE
8
DEFAULT_255_2_778
10
52.9530379
20
40.5294909
11
52.9530379
21
89.0291909
0
LINE
8
DEFAULT_255_2_778
10
53.9528379
20
90.0290909
11
77.4529379
21
90.0290909
0
LINE
8
DEFAULT_255_2_778
10
78.4530379
20
89.0291909
11
78.4530379
21
40.5291909
0
LINE
8
DEFAULT_255_2_778
10
77.4529379
20
39.5290909
11
77.4529379
21
39.5293909
0
LINE
8
DEFAULT_255_2_778
10
100.6531379
20
68.2040909
11
100.6531379
21
18.7539909
0
LINE
8
DEFAULT_255_2_778
10
100.6531379
20
5.1792909
11
100.6531379
21
18.7542909
0
LINE
8
DEFAULT_255_2_778
10
99.4202379
20
125.3802909
11
100.6531379
21
120.7791909
0
LINE
8
DEFAULT_255_2_778
10
100.6531379
20
120.7791909
11
100.6531379
21
68.2040909
0
LINE
8
DEFAULT_255_2_778
10
0.1530379
20
-0.2198091
11
0.1530379
21
70.8707909
0
LINE
8
DEFAULT_255_2_778
10
2.6530379
20
128.7801909
11
2.5530379
21
128.7801909
0
LINE
8
DEFAULT_255_2_778
10
2.5530379
20
107.8791909
11
2.5530379
21
128.7801909
0
LINE
8
DEFAULT_255_2_778
10
2.5530379
20
107.8792534
11
0.1530379
21
107.8792534
0
LINE
8
DEFAULT_255_2_778
10
0.1530379
20
107.8792534
11
0.1530379
21
129.7803534
0
LINE
8
DEFAULT_255_2_778
10
0.1530379
20
129.7803534
11
2.5530379
21
129.7803534
0
LINE
8
DEFAULT_255_2_778
10
2.5530379
20
129.7803534
11
2.5530379
21
128.7802534
0
LINE
8
DEFAULT_255_2_778
10
2.6530379
20
107.8792534
11
2.6530379
21
128.7802534
0
LINE
8
DEFAULT_255_2_778
10
20.1531379
20
129.7803534
11
18.1531379
21
129.7803534
0
LINE
8
DEFAULT_255_2_778
10
18.1531379
20
129.7803534
11
18.1531379
21
129.2802534
0
LINE
8
DEFAULT_255_2_778
10
18.1531379
20
129.2802534
11
16.1531379
21
129.2802534
0
LINE
8
DEFAULT_255_2_778
10
16.1531379
20
129.2802534
11
16.1531379
21
129.7803534
0
LINE
8
DEFAULT_255_2_778
10
16.1531379
20
129.7803534
11
10.1529379
21
129.7803534
0
LINE
8
DEFAULT_255_2_778
10
10.1529379
20
129.7803534
11
10.1529379
21
129.2802534
0
LINE
8
DEFAULT_255_2_778
10
10.1529379
20
129.2802534
11
8.1529379
21
129.2802534
0
LINE
8
DEFAULT_255_2_778
10
8.1529379
20
129.2802534
11
8.1529379
21
129.7803534
0
LINE
8
DEFAULT_255_2_778
10
8.1529379
20
129.7803534
11
6.1530379
21
129.7803534
0
LINE
8
DEFAULT_255_2_778
10
6.1530379
20
129.7803534
11
6.1530379
21
129.2802534
0
LINE
8
DEFAULT_255_2_778
10
6.1530379
20
129.2802534
11
4.1530379
21
129.2802534
0
LINE
8
DEFAULT_255_2_778
10
4.1530379
20
129.2802534
11
4.1530379
21
129.7803534
0
LINE
8
DEFAULT_255_2_778
10
4.1530379
20
129.7803534
11
2.6530379
21
129.7803534
0
LINE
8
DEFAULT_255_2_778
10
2.6530379
20
129.7803534
11
2.6530379
21
128.7802534
0
LINE
8
DEFAULT_255_2_778
10
98.2412379
20
129.7803534
11
99.4202379
21
125.3803534
0
LINE
8
DEFAULT_255_2_778
10
86.1529379
20
129.7803534
11
88.1529379
21
129.7803534
0
LINE
8
DEFAULT_255_2_778
10
88.1529379
20
129.7803534
11
88.1529379
21
129.2802534
0
LINE
8
DEFAULT_255_2_778
10
88.1529379
20
129.2802534
11
90.1529379
21
129.2802534
0
LINE
8
DEFAULT_255_2_778
10
90.1529379
20
129.2802534
11
90.1529379
21
129.7803534
0
LINE
8
DEFAULT_255_2_778
10
90.1529379
20
129.7803534
11
98.2412379
21
129.7803534
0
LINE
8
DEFAULT_255_2_778
10
100.6531379
20
5.1793534
11
100.6531379
21
4.8792534
0
LINE
8
DEFAULT_255_2_778
10
100.6531379
20
2.4792534
11
100.6531379
21
4.8792534
0
LINE
8
DEFAULT_255_2_778
10
100.6531379
20
2.1792534
11
100.6531379
21
2.4792534
0
LINE
8
DEFAULT_255_2_778
10
86.1529379
20
-0.2197466
11
88.1529379
21
-0.2197466
0
LINE
8
DEFAULT_255_2_778
10
88.1529379
20
-0.2197466
11
88.1529379
21
0.2803534
0
LINE
8
DEFAULT_255_2_778
10
88.1529379
20
0.2803534
11
90.1529379
21
0.2803534
0
LINE
8
DEFAULT_255_2_778
10
90.1529379
20
0.2803534
11
90.1529379
21
-0.2197466
0
LINE
8
DEFAULT_255_2_778
10
90.1529379
20
-0.2197466
11
100.6529379
21
-0.2197466
0
LINE
8
DEFAULT_255_2_778
10
100.6529379
20
-0.2197466
11
100.6529379
21
2.1792534
0
LINE
8
DEFAULT_255_2_778
10
20.1531179
20
-0.2198213
11
20.1531179
21
0.2802787
0
LINE
8
DEFAULT_255_2_778
10
20.1531179
20
0.2802787
11
86.1532179
21
0.2802787
0
LINE
8
DEFAULT_255_2_778
10
86.1532179
20
0.2802787
11
86.1532179
21
-0.2198213
0
LINE
8
DEFAULT_255_2_778
10
0.1530179
20
-0.2198213
11
4.1530179
21
-0.2198213
0
LINE
8
DEFAULT_255_2_778
10
4.1530179
20
-0.2198213
11
4.1530179
21
0.2802787
0
LINE
8
DEFAULT_255_2_778
10
4.1530179
20
0.2802787
11
6.1530179
21
0.2802787
0
LINE
8
DEFAULT_255_2_778
10
6.1530179
20
0.2802787
11
6.1530179
21
-0.2198213
0
LINE
8
DEFAULT_255_2_778
10
6.1530179
20
-0.2198213
11
8.1529179
21
-0.2198213
0
LINE
8
DEFAULT_255_2_778
10
8.1529179
20
-0.2198213
11
8.1529179
21
0.2802787
0
LINE
8
DEFAULT_255_2_778
10
8.1529179
20
0.2802787
11
10.1529179
21
0.2802787
0
LINE
8
DEFAULT_255_2_778
10
10.1529179
20
0.2802787
11
10.1529179
21
-0.2198213
0
LINE
8
DEFAULT_255_2_778
10
10.1529179
20
-0.2198213
11
16.1529179
21
-0.2198213
0
LINE
8
DEFAULT_255_2_778
10
16.1529179
20
-0.2198213
11
16.1529179
21
0.2802787
0
LINE
8
DEFAULT_255_2_778
10
16.1529179
20
0.2802787
11
18.1529179
21
0.2802787
0
LINE
8
DEFAULT_255_2_778
10
18.1529179
20
0.2802787
11
18.1529179
21
-0.2198213
0
LINE
8
DEFAULT_255_2_778
10
18.1529179
20
-0.2198213
11
20.1529179
21
-0.2198213
0
LINE
8
DEFAULT_255_2_778
10
2.6530179
20
107.8791787
11
2.5530179
21
107.8791787
0
LINE
8
DEFAULT_255_2_778
10
0.1530179
20
77.8803086
11
0.1530179
21
107.7792086
0
LINE
8
DEFAULT_255_2_778
10
0.1530179
20
107.7792086
11
2.6530179
21
107.7792086
0
LINE
8
DEFAULT_255_2_778
10
2.6530179
20
107.7792086
11
2.6530179
21
107.8793086
0
LINE
8
DEFAULT_255_2_778
10
20.1531179
20
129.7804086
11
20.1531179
21
129.2803086
0
LINE
8
DEFAULT_255_2_778
10
20.1531179
20
129.2803086
11
86.1532179
21
129.2803086
0
LINE
8
DEFAULT_255_2_778
10
86.1532179
20
129.2803086
11
86.1532179
21
129.7804086
0
LINE
8
DEFAULT_255_2_778
10
0.1530179
20
70.8802086
11
0.1530179
21
77.8803086
0
ENDSEC
0
EOF