0
SECTION
2
HEADER
9
$MEASUREMENT
70
1
0
ENDSEC
0
SECTION
2
TABLES
0
TABLE
2
LTYPE
0
LTYPE
72
65
70
64
2
CONTINUOUS
3
______
73
0
40
0
0
ENDTAB
0
TABLE
2
LAYER
0
LAYER
2
DEFAULT_255_2_778
70
0
62
255
6
CONTINUOUS
0
ENDTAB
0
ENDSEC
0
SECTION
2
ENTITIES
0
LINE
8
DEFAULT_255_2_778
10
34.7125609
20
129.7803534
11
34.7125609
21
-0.2197466
0
LINE
8
DEFAULT_255_2_778
10
34.7125609
20
-0.2197466
11
0.2124609
21
-0.2197466
0
LINE
8
DEFAULT_255_2_778
10
0.2124609
20
-0.2197466
11
0.2124609
21
129.7803534
0
LINE
8
DEFAULT_255_2_778
10
0.2124609
20
129.7803534
11
34.7125609
21
129.7803534
0
LINE
8
DEFAULT_255_2_778
10
0.2124609
20
1.7801827
11
34.7125609
21
1.7801827
0
LINE
8
DEFAULT_255_2_778
10
21.3412609
20
116.5805827
11
22.5911609
21
116.5805827
0
LINE
8
DEFAULT_255_2_778
10
22.5911609
20
116.5805827
11
22.5911609
21
117.7803827
0
LINE
8
DEFAULT_255_2_778
10
22.5911609
20
117.7803827
11
21.3412609
21
117.7803827
0
LINE
8
DEFAULT_255_2_778
10
21.3412609
20
117.7803827
11
21.3412609
21
116.5805827
0
LINE
8
DEFAULT_255_2_778
10
21.3412609
20
119.5803827
11
22.5911609
21
119.5803827
0
LINE
8
DEFAULT_255_2_778
10
22.5911609
20
119.5803827
11
22.5911609
21
120.7802827
0
LINE
8
DEFAULT_255_2_778
10
22.5911609
20
120.7802827
11
21.3412609
21
120.7802827
0
LINE
8
DEFAULT_255_2_778
10
21.3412609
20
120.7802827
11
21.3412609
21
119.5803827
0
LINE
8
DEFAULT_255_2_778
10
21.3412609
20
122.5804827
11
22.5911609
21
122.5804827
0
LINE
8
DEFAULT_255_2_778
10
22.5911609
20
122.5804827
11
22.5911609
21
123.7803827
0
LINE
8
DEFAULT_255_2_778
10
22.5911609
20
123.7803827
11
21.3412609
21
123.7803827
0
LINE
8
DEFAULT_255_2_778
10
21.3412609
20
123.7803827
11
21.3412609
21
122.5804827
0
ARC
8
DEFAULT_255_2_778
10
23.4063075
20
100.2780818
40
2.1787856
50
179.9396227
51
202.9081287
0
ARC
8
DEFAULT_255_2_778
10
23.4148354
20
100.2834563
40
2.1887338
50
202.9508278
51
259.8481603
0
ARC
8
DEFAULT_255_2_778
10
23.4120487
20
100.2942431
40
2.1988655
50
259.9691775
51
270.0097553
0
ARC
8
DEFAULT_255_2_778
10
23.4147147
20
100.2740042
40
2.1786277
50
269.9397339
51
292.9100122
0
ARC
8
DEFAULT_255_2_778
10
23.4091995
20
100.2828024
40
2.1888794
50
292.9533368
51
349.8484275
0
ARC
8
DEFAULT_255_2_778
10
23.3985035
20
100.2800049
40
2.1989197
50
349.9693021
51
0.0097168
0
LINE
8
DEFAULT_255_2_778
10
13.5911231
20
119.5803778
11
13.5911231
21
120.7802778
0
LINE
8
DEFAULT_255_2_778
10
13.5911231
20
120.7802778
11
12.3412231
21
120.7802778
0
LINE
8
DEFAULT_255_2_778
10
12.3412231
20
120.7802778
11
12.3412231
21
119.5803778
0
LINE
8
DEFAULT_255_2_778
10
12.3412231
20
119.5803778
11
13.5911231
21
119.5803778
0
LINE
8
DEFAULT_255_2_778
10
13.5911231
20
122.5804778
11
13.5911231
21
123.7803778
0
LINE
8
DEFAULT_255_2_778
10
13.5911231
20
123.7803778
11
12.3412231
21
123.7803778
0
LINE
8
DEFAULT_255_2_778
10
12.3412231
20
123.7803778
11
12.3412231
21
122.5804778
0
LINE
8
DEFAULT_255_2_778
10
12.3412231
20
122.5804778
11
13.5911231
21
122.5804778
0
LINE
8
DEFAULT_255_2_778
10
25.5974231
20
100.2803778
11
25.5974231
21
106.2202778
0
LINE
8
DEFAULT_255_2_778
10
25.5974231
20
106.2202778
11
24.2649231
21
106.2202778
0
LINE
8
DEFAULT_255_2_778
10
24.2649231
20
106.2202778
11
23.4137231
21
104.7459778
0
LINE
8
DEFAULT_255_2_778
10
23.4137231
20
104.7459778
11
22.5626231
21
106.2202778
0
LINE
8
DEFAULT_255_2_778
10
22.5626231
20
106.2202778
11
21.2272231
21
106.2202778
0
LINE
8
DEFAULT_255_2_778
10
21.2272231
20
106.2202778
11
21.2272231
21
100.2803778
0
ARC
8
DEFAULT_255_2_778
10
23.4115186
20
100.2801513
40
3.7008151
50
53.7919442
51
67.0182141
0
ARC
8
DEFAULT_255_2_778
10
23.4134631
20
100.2807496
40
3.6995053
50
67.0423214
51
90.0131991
0
ARC
8
DEFAULT_255_2_778
10
23.4117586
20
100.2807496
40
3.6995054
50
89.9868009
51
112.9576786
0
ARC
8
DEFAULT_255_2_778
10
23.4137032
20
100.2801513
40
3.700815
50
112.9817859
51
126.2080558
0
LINE
8
DEFAULT_255_2_778
10
0.2124609
20
107.7792549
11
34.7125609
21
107.7792549
0
LINE
8
DEFAULT_255_2_778
10
0.2124609
20
107.8792549
11
34.7125609
21
107.8792549
0
LINE
8
DEFAULT_255_2_778
10
7.9324609
20
29.3305549
11
9.1924609
21
29.3305549
0
LINE
8
DEFAULT_255_2_778
10
7.9324609
20
16.2304549
11
9.1924609
21
16.2304549
0
LINE
8
DEFAULT_255_2_778
10
7.9324609
20
35.3305549
11
7.9324609
21
29.3305549
0
LINE
8
DEFAULT_255_2_778
10
7.9324609
20
29.3305549
11
7.9324609
21
22.7805549
0
LINE
8
DEFAULT_255_2_778
10
7.9324609
20
22.7805549
11
7.9324609
21
16.2304549
0
LINE
8
DEFAULT_255_2_778
10
7.9324609
20
16.2304549
11
7.9324609
21
10.2305549
0
LINE
8
DEFAULT_255_2_778
10
12.0925609
20
22.7805549
11
12.0925609
21
17.2806549
0
LINE
8
DEFAULT_255_2_778
10
12.0925609
20
17.2806549
11
13.6924609
21
17.2806549
0
LINE
8
DEFAULT_255_2_778
10
13.6924609
20
17.2806549
11
13.6924609
21
22.7805549
0
LINE
8
DEFAULT_255_2_778
10
13.6924609
20
22.7805549
11
13.6924609
21
28.2804549
0
LINE
8
DEFAULT_255_2_778
10
13.6924609
20
28.2804549
11
12.0925609
21
28.2804549
0
LINE
8
DEFAULT_255_2_778
10
12.0925609
20
28.2804549
11
12.0925609
21
22.7805549
0
LINE
8
DEFAULT_255_2_778
10
9.1924609
20
22.7805549
11
9.1924609
21
21.5306549
0
LINE
8
DEFAULT_255_2_778
10
9.1924609
20
21.5306549
11
8.5124609
21
21.5306549
0
LINE
8
DEFAULT_255_2_778
10
8.5124609
20
21.5306549
11
8.5124609
21
17.1806549
0
LINE
8
DEFAULT_255_2_778
10
8.5124609
20
17.1806549
11
9.1924609
21
17.1806549
0
LINE
8
DEFAULT_255_2_778
10
9.1924609
20
17.1806549
11
9.1924609
21
16.2304549
0
LINE
8
DEFAULT_255_2_778
10
9.1924609
20
16.2304549
11
10.3324609
21
16.2304549
0
LINE
8
DEFAULT_255_2_778
10
10.3324609
20
16.2304549
11
10.3324609
21
15.5304549
0
LINE
8
DEFAULT_255_2_778
10
10.3324609
20
15.5304549
11
13.7924609
21
15.5304549
0
LINE
8
DEFAULT_255_2_778
10
13.7924609
20
15.5304549
11
13.7924609
21
16.2304549
0
LINE
8
DEFAULT_255_2_778
10
13.7924609
20
16.2304549
11
14.9325609
21
16.2304549
0
LINE
8
DEFAULT_255_2_778
10
14.9325609
20
16.2304549
11
14.9325609
21
17.1806549
0
LINE
8
DEFAULT_255_2_778
10
14.9325609
20
17.1806549
11
15.6125609
21
17.1806549
0
LINE
8
DEFAULT_255_2_778
10
15.6125609
20
17.1806549
11
15.6125609
21
21.5306549
0
LINE
8
DEFAULT_255_2_778
10
15.6125609
20
21.5306549
11
14.9325609
21
21.5306549
0
LINE
8
DEFAULT_255_2_778
10
14.9325609
20
21.5306549
11
14.9325609
21
22.7805549
0
LINE
8
DEFAULT_255_2_778
10
14.9325609
20
22.7805549
11
14.9325609
21
24.0304549
0
LINE
8
DEFAULT_255_2_778
10
14.9325609
20
24.0304549
11
15.6125609
21
24.0304549
0
LINE
8
DEFAULT_255_2_778
10
15.6125609
20
24.0304549
11
15.6125609
21
28.3804549
0
LINE
8
DEFAULT_255_2_778
10
15.6125609
20
28.3804549
11
14.9325609
21
28.3804549
0
LINE
8
DEFAULT_255_2_778
10
14.9325609
20
28.3804549
11
14.9325609
21
29.3305549
0
LINE
8
DEFAULT_255_2_778
10
14.9325609
20
29.3305549
11
13.7924609
21
29.3305549
0
LINE
8
DEFAULT_255_2_778
10
13.7924609
20
29.3305549
11
13.7924609
21
30.0306549
0
LINE
8
DEFAULT_255_2_778
10
13.7924609
20
30.0306549
11
10.3324609
21
30.0306549
0
LINE
8
DEFAULT_255_2_778
10
10.3324609
20
30.0306549
11
10.3324609
21
29.3305549
0
LINE
8
DEFAULT_255_2_778
10
10.3324609
20
29.3305549
11
9.1924609
21
29.3305549
0
LINE
8
DEFAULT_255_2_778
10
9.1924609
20
29.3305549
11
9.1924609
21
28.3804549
0
LINE
8
DEFAULT_255_2_778
10
9.1924609
20
28.3804549
11
8.5124609
21
28.3804549
0
LINE
8
DEFAULT_255_2_778
10
8.5124609
20
28.3804549
11
8.5124609
21
24.0304549
0
LINE
8
DEFAULT_255_2_778
10
8.5124609
20
24.0304549
11
9.1924609
21
24.0304549
0
LINE
8
DEFAULT_255_2_778
10
9.1924609
20
24.0304549
11
9.1924609
21
22.7805549
0
LINE
8
DEFAULT_255_2_778
10
14.6325609
20
22.7805549
11
14.6325609
21
16.5305549
0
LINE
8
DEFAULT_255_2_778
10
14.6325609
20
16.5305549
11
9.4924609
21
16.5305549
0
LINE
8
DEFAULT_255_2_778
10
9.4924609
20
16.5305549
11
9.4924609
21
22.7805549
0
LINE
8
DEFAULT_255_2_778
10
9.4924609
20
22.7805549
11
9.4924609
21
29.0305549
0
LINE
8
DEFAULT_255_2_778
10
9.4924609
20
29.0305549
11
14.6325609
21
29.0305549
0
LINE
8
DEFAULT_255_2_778
10
14.6325609
20
29.0305549
11
14.6325609
21
22.7805549
0
LINE
8
DEFAULT_255_2_778
10
7.0125609
20
22.7805549
11
7.0125609
21
35.3305549
0
LINE
8
DEFAULT_255_2_778
10
7.0125609
20
35.3305549
11
7.9324609
21
35.3305549
0
LINE
8
DEFAULT_255_2_778
10
7.9324609
20
35.3305549
11
17.1124609
21
35.3305549
0
LINE
8
DEFAULT_255_2_778
10
17.1124609
20
35.3305549
11
17.1124609
21
22.7805549
0
LINE
8
DEFAULT_255_2_778
10
17.1124609
20
22.7805549
11
17.1124609
21
10.2305549
0
LINE
8
DEFAULT_255_2_778
10
17.1124609
20
10.2305549
11
7.9324609
21
10.2305549
0
LINE
8
DEFAULT_255_2_778
10
7.9324609
20
10.2305549
11
7.0125609
21
10.2305549
0
LINE
8
DEFAULT_255_2_778
10
7.0125609
20
10.2305549
11
7.0125609
21
22.7805549
0
ENDSEC
0
EOF