0
SECTION
2
HEADER
9
$MEASUREMENT
70
1
0
ENDSEC
0
SECTION
2
TABLES
0
TABLE
2
LTYPE
0
LTYPE
72
65
70
64
2
CONTINUOUS
3
______
73
0
40
0
0
ENDTAB
0
TABLE
2
LAYER
0
LAYER
2
DEFAULT_255_2_778
70
0
62
255
6
CONTINUOUS
0
ENDTAB
0
ENDSEC
0
SECTION
2
ENTITIES
0
LINE
8
DEFAULT_255_2_778
10
26.8877709
20
43.1803838
11
22.1876709
21
43.1803838
0
LINE
8
DEFAULT_255_2_778
10
22.1876709
20
43.1803838
11
22.1876709
21
87.3803838
0
LINE
8
DEFAULT_255_2_778
10
34.6376609
20
91.6515534
11
34.6376609
21
129.7803534
0
LINE
8
DEFAULT_255_2_778
10
34.6376609
20
129.7803534
11
0.1375609
21
129.7803534
0
LINE
8
DEFAULT_255_2_778
10
0.1375609
20
129.7803534
11
0.1375609
21
-0.2197466
0
LINE
8
DEFAULT_255_2_778
10
0.1375609
20
-0.2197466
11
34.6376609
21
-0.2197466
0
LINE
8
DEFAULT_255_2_778
10
34.6376609
20
-0.2197466
11
34.6376609
21
89.5091534
0
LINE
8
DEFAULT_255_2_778
10
0.1375609
20
1.7805579
11
34.6376609
21
1.7805579
0
LINE
8
DEFAULT_255_2_778
10
23.3875609
20
25.4604579
11
23.3875609
21
36.2504579
0
ARC
8
DEFAULT_255_2_778
10
7.5876759
20
40.9803543
40
0.2000089
50
180.0025627
51
269.9974373
0
ARC
8
DEFAULT_255_2_778
10
14.3877582
20
40.9803541
40
0.2000087
50
270.0025138
51
359.9975064
0
ARC
8
DEFAULT_255_2_778
10
15.0877785
20
44.2802338
40
0.5000116
50
89.9898688
51
179.9986732
0
ARC
8
DEFAULT_255_2_778
10
15.6878514
20
44.9803609
40
0.2001156
50
270.0044599
51
359.9955401
0
ARC
8
DEFAULT_255_2_778
10
15.6878725
20
55.580251
40
0.2000945
50
0.027031
51
90.0015954
0
LINE
8
DEFAULT_255_2_778
10
27.4875669
20
22.4502454
11
15.3875669
21
22.4502454
0
LINE
8
DEFAULT_255_2_778
10
26.8874669
20
27.9604454
11
23.3875669
21
27.9604454
0
LINE
8
DEFAULT_255_2_778
10
7.3876669
20
46.0754454
11
7.3876669
21
40.9803454
0
LINE
8
DEFAULT_255_2_778
10
7.5876669
20
40.7803454
11
14.3877669
21
40.7803454
0
LINE
8
DEFAULT_255_2_778
10
14.5877669
20
40.9803454
11
14.5877669
21
44.2802454
0
LINE
8
DEFAULT_255_2_778
10
15.0878669
20
44.7802454
11
15.6878669
21
44.7802454
0
LINE
8
DEFAULT_255_2_778
10
15.8879669
20
44.9803454
11
15.8879669
21
55.5803454
0
ARC
8
DEFAULT_255_2_778
10
5.7855053
20
41.7821837
40
0.7978078
50
129.5171775
51
180.1424671
0
ARC
8
DEFAULT_255_2_778
10
5.78579
20
41.7827506
40
0.7975518
50
89.8555981
51
129.5588646
0
ARC
8
DEFAULT_255_2_778
10
5.7897838
20
41.7824947
40
0.7978078
50
39.5171775
51
90.1424671
0
ARC
8
DEFAULT_255_2_778
10
5.7903506
20
41.78221
40
0.7975518
50
359.8555981
51
39.5588646
0
ARC
8
DEFAULT_255_2_778
10
5.7900947
20
41.7782162
40
0.7978078
50
309.5171775
51
0.1424671
0
ARC
8
DEFAULT_255_2_778
10
5.7898101
20
41.7776494
40
0.7975518
50
269.8555981
51
309.5588646
0
ARC
8
DEFAULT_255_2_778
10
5.7858163
20
41.7779053
40
0.7978078
50
219.5171775
51
270.1424671
0
ARC
8
DEFAULT_255_2_778
10
5.7852494
20
41.7781899
40
0.7975518
50
179.8555981
51
219.5588646
0
LINE
8
DEFAULT_255_2_778
10
4.9877
20
41.7802
11
4.9877
21
41.7802
0
LINE
8
DEFAULT_255_2_778
10
10.0853469
20
53.5604885
11
9.4516469
21
53.4427885
0
LINE
8
DEFAULT_255_2_778
10
9.4516469
20
53.4427885
11
9.3876469
21
53.4220885
0
ARC
8
DEFAULT_255_2_778
10
5.5230213
20
53.3966659
40
0.1758782
50
21.6438464
51
83.2809536
0
ARC
8
DEFAULT_255_2_778
10
9.7468586
20
52.2599117
40
1.2193618
50
104.0033395
51
139.8812816
0
ARC
8
DEFAULT_255_2_778
10
24.487923
20
33.3002422
40
0.1000062
50
224.9118377
51
269.9290979
0
ARC
8
DEFAULT_255_2_778
10
24.4876505
20
33.3002958
40
0.0998512
50
180.0342631
51
225.0440216
0
LINE
8
DEFAULT_255_2_778
10
5.6864993
20
53.4615361
11
5.8512993
21
53.0456361
0
LINE
8
DEFAULT_255_2_778
10
5.8512993
20
53.0456361
11
8.8143993
21
53.0456361
0
LINE
8
DEFAULT_255_2_778
10
23.3875993
20
35.7003361
11
17.0875993
21
35.7003361
0
LINE
8
DEFAULT_255_2_778
10
21.2875993
20
41.7304361
11
26.8874993
21
41.7304361
0
LINE
8
DEFAULT_255_2_778
10
15.3876993
20
38.7102361
11
26.8877993
21
38.7102361
0
LINE
8
DEFAULT_255_2_778
10
26.8877993
20
38.7102361
11
26.8877993
21
33.2002361
0
LINE
8
DEFAULT_255_2_778
10
26.8877993
20
33.2002361
11
24.4877993
21
33.2002361
0
LINE
8
DEFAULT_255_2_778
10
23.6873993
20
36.7001361
11
23.6873993
21
37.7003361
0
LINE
8
DEFAULT_255_2_778
10
23.6873993
20
37.7003361
11
22.3874993
21
37.7003361
0
LINE
8
DEFAULT_255_2_778
10
22.3874993
20
37.7003361
11
22.3874993
21
36.7001361
0
LINE
8
DEFAULT_255_2_778
10
24.3877993
20
33.2002361
11
23.3875993
21
33.2002361
0
LINE
8
DEFAULT_255_2_778
10
24.3874993
20
27.9604361
11
24.3874993
21
36.7004361
0
ARC
8
DEFAULT_255_2_778
10
28.9854053
20
47.7572837
40
0.7978078
50
129.5171775
51
180.1424671
0
ARC
8
DEFAULT_255_2_778
10
28.98569
20
47.7578506
40
0.7975518
50
89.8555981
51
129.5588646
0
ARC
8
DEFAULT_255_2_778
10
28.9896838
20
47.7575947
40
0.7978078
50
39.5171775
51
90.1424671
0
ARC
8
DEFAULT_255_2_778
10
28.9902506
20
47.75731
40
0.7975518
50
359.8555981
51
39.5588646
0
ARC
8
DEFAULT_255_2_778
10
28.9899947
20
47.7533162
40
0.7978078
50
309.5171775
51
0.1424671
0
ARC
8
DEFAULT_255_2_778
10
28.9897101
20
47.7527494
40
0.7975518
50
269.8555981
51
309.5588646
0
ARC
8
DEFAULT_255_2_778
10
28.9857163
20
47.7530053
40
0.7978078
50
219.5171775
51
270.1424671
0
ARC
8
DEFAULT_255_2_778
10
28.9851494
20
47.7532899
40
0.7975518
50
179.8555981
51
219.5588646
0
LINE
8
DEFAULT_255_2_778
10
28.1876
20
47.7553
11
28.1876
21
47.7553
0
ARC
8
DEFAULT_255_2_778
10
15.0876274
20
56.2804411
40
0.5000543
50
180.0062253
51
269.9937633
0
ARC
8
DEFAULT_255_2_778
10
14.3874789
20
59.5801925
40
0.2000942
50
0.0269965
51
90.0016788
0
ARC
8
DEFAULT_255_2_778
10
7.5876819
20
59.5802781
40
0.2000087
50
90.0025383
51
179.9974963
0
ARC
8
DEFAULT_255_2_778
10
29.4847584
20
80.7574908
40
0.8972884
50
136.3594058
51
180.1471226
0
ARC
8
DEFAULT_255_2_778
10
29.4851032
20
80.758225
40
0.8970315
50
90.7070175
51
136.4085417
0
ARC
8
DEFAULT_255_2_778
10
29.4875885
20
80.7255064
40
0.9297805
50
90.0009558
51
90.8352792
0
ARC
8
DEFAULT_255_2_778
10
29.4899373
20
80.7580578
40
0.8972322
50
46.5267246
51
90.1509841
0
ARC
8
DEFAULT_255_2_778
10
29.4905514
20
80.7576707
40
0.8970908
50
0.7091709
51
46.5721974
0
ARC
8
DEFAULT_255_2_778
10
29.4625045
20
80.7552125
40
0.9251684
50
359.9984104
51
0.8398976
0
ARC
8
DEFAULT_255_2_778
10
29.4904587
20
80.7527791
40
0.8972175
50
316.6984764
51
0.1537573
0
ARC
8
DEFAULT_255_2_778
10
29.4901019
20
80.7522061
40
0.8970845
50
270.8061688
51
316.7407367
0
ARC
8
DEFAULT_255_2_778
10
29.4875633
20
80.7849182
40
0.9298314
50
270.0005966
51
270.9342169
0
ARC
8
DEFAULT_255_2_778
10
29.4851381
20
80.7523288
40
0.8972453
50
226.7025253
51
270.155484
0
ARC
8
DEFAULT_255_2_778
10
29.4845568
20
80.7526057
40
0.8970484
50
180.8030542
51
226.7416762
0
ARC
8
DEFAULT_255_2_778
10
29.5176597
20
80.7551965
40
0.9301866
50
180.0005962
51
180.9340436
0
ARC
8
DEFAULT_255_2_778
10
30.8876362
20
90.582107
40
3.9985592
50
48.5743567
51
62.7307431
0
ARC
8
DEFAULT_255_2_778
10
30.8871283
20
90.577056
40
4.003282
50
62.7574037
51
90.0087655
0
ARC
8
DEFAULT_255_2_778
10
30.8865031
20
90.5754173
40
4.0049207
50
89.999817
51
91.7183597
0
ARC
8
DEFAULT_255_2_778
10
30.885668
20
90.5868828
40
3.9934352
50
91.7113165
51
107.7495214
0
ARC
8
DEFAULT_255_2_778
10
30.8892787
20
90.5783963
40
4.0026186
50
107.7617128
51
118.875175
0
ARC
8
DEFAULT_255_2_778
10
30.9635142
20
90.4419662
40
4.1579355
50
118.8630981
51
118.9485583
0
ARC
8
DEFAULT_255_2_778
10
30.8929632
20
90.5859723
40
4.0077226
50
233.1183669
51
244.3956813
0
ARC
8
DEFAULT_255_2_778
10
30.8828662
20
90.5674179
40
3.9866269
50
244.4113054
51
260.1488413
0
ARC
8
DEFAULT_255_2_778
10
30.886912
20
90.5886679
40
4.008256
50
260.1438316
51
269.423378
0
ARC
8
DEFAULT_255_2_778
10
30.8871322
20
90.5965911
40
4.0161809
50
269.4213736
51
269.9999887
0
ARC
8
DEFAULT_255_2_778
10
30.8882372
20
90.5833807
40
4.0029708
50
269.9841732
51
294.5870584
0
ARC
8
DEFAULT_255_2_778
10
30.8918864
20
90.5706699
40
3.9898948
50
294.6153529
51
307.9766039
0
ARC
8
DEFAULT_255_2_778
10
30.8650341
20
90.6063931
40
4.0345773
50
307.9650255
51
311.4080471
0
ARC
8
DEFAULT_255_2_778
10
33.6406321
20
88.5427556
40
0.9623722
50
269.847641
51
270.0043424
0
ARC
8
DEFAULT_255_2_778
10
33.6406117
20
88.5775929
40
0.9972096
50
270.0053648
51
315.0022423
0
ARC
8
DEFAULT_255_2_778
10
33.6399064
20
88.5781031
40
0.9980692
50
315.010157
51
359.9900353
0
ARC
8
DEFAULT_255_2_778
10
33.728147
20
88.5780101
40
0.9098285
50
359.9949254
51
0.1370731
0
LINE
8
DEFAULT_255_2_778
10
15.687673
20
55.7803868
11
15.087573
21
55.7803868
0
LINE
8
DEFAULT_255_2_778
10
14.587573
20
56.2803868
11
14.587573
21
59.5802868
0
LINE
8
DEFAULT_255_2_778
10
14.387473
20
59.7802868
11
7.587673
21
59.7802868
0
LINE
8
DEFAULT_255_2_778
10
7.387673
20
59.5802868
11
7.387673
21
54.4851868
0
LINE
8
DEFAULT_255_2_778
10
4.387573
20
71.0803868
11
4.387573
21
72.0804868
0
LINE
8
DEFAULT_255_2_778
10
4.387573
20
72.0804868
11
1.387473
21
72.0804868
0
LINE
8
DEFAULT_255_2_778
10
1.387473
20
72.0804868
11
1.387473
21
70.0805868
0
LINE
8
DEFAULT_255_2_778
10
1.387473
20
70.0805868
11
5.537473
21
70.0805868
0
LINE
8
DEFAULT_255_2_778
10
5.537473
20
70.0805868
11
5.537473
21
61.2804868
0
LINE
8
DEFAULT_255_2_778
10
5.537473
20
61.2804868
11
12.237473
21
61.2804868
0
LINE
8
DEFAULT_255_2_778
10
12.237473
20
61.2804868
11
12.237473
21
60.2803868
0
LINE
8
DEFAULT_255_2_778
10
12.237473
20
60.2803868
11
16.237473
21
60.2803868
0
LINE
8
DEFAULT_255_2_778
10
16.237473
20
60.2803868
11
16.237473
21
86.2804868
0
LINE
8
DEFAULT_255_2_778
10
16.237473
20
86.2804868
11
5.537473
21
86.2804868
0
LINE
8
DEFAULT_255_2_778
10
5.537473
20
86.2804868
11
5.537473
21
71.0803868
0
LINE
8
DEFAULT_255_2_778
10
5.537473
20
71.0803868
11
2.587373
21
71.0803868
0
LINE
8
DEFAULT_255_2_778
10
2.587373
20
71.0803868
11
2.587373
21
70.0802868
0
LINE
8
DEFAULT_255_2_778
10
30.219673
20
70.1802868
11
28.487673
21
69.1801868
0
LINE
8
DEFAULT_255_2_778
10
28.487673
20
69.1801868
11
30.219673
21
68.1800868
0
LINE
8
DEFAULT_255_2_778
10
30.219673
20
68.1800868
11
30.219673
21
70.1799868
0
LINE
8
DEFAULT_255_2_778
10
28.587473
20
80.7551868
11
28.587473
21
80.7551868
0
LINE
8
DEFAULT_255_2_778
10
33.493573
20
93.4765868
11
33.533273
21
93.5802868
0
LINE
8
DEFAULT_255_2_778
10
33.533573
20
87.5803868
11
33.638073
21
87.5803868
0
LINE
8
DEFAULT_255_2_778
10
34.637973
20
88.5801868
11
34.637973
21
88.5801868
0
LINE
8
DEFAULT_255_2_778
10
26.887473
20
94.6174868
11
26.887473
21
96.6303868
0
LINE
8
DEFAULT_255_2_778
10
26.887473
20
96.6303868
11
26.587473
21
96.6303868
0
LINE
8
DEFAULT_255_2_778
10
26.587473
20
96.6303868
11
26.587473
21
104.7803868
0
ARC
8
DEFAULT_255_2_778
10
19.8926403
20
88.0833928
40
1.005904
50
211.7810218
51
224.3433891
0
ARC
8
DEFAULT_255_2_778
10
19.8873967
20
93.0809126
40
0.9996627
50
126.8731099
51
148.2257263
0
ARC
8
DEFAULT_255_2_778
10
21.3822426
20
94.3788596
40
0.1452402
50
122.5567813
51
175.0035843
0
ARC
8
DEFAULT_255_2_778
10
21.6212582
20
94.0709376
40
0.5345944
50
109.4627779
51
126.3914721
0
ARC
8
DEFAULT_255_2_778
10
21.8748974
20
93.3949395
40
1.2565529
50
99.8394361
51
110.0969158
0
ARC
8
DEFAULT_255_2_778
10
22.0231379
20
92.582349
40
2.0825355
50
91.0215198
51
100.0374794
0
ARC
8
DEFAULT_255_2_778
10
22.0375759
20
92.2719413
40
2.3931679
50
89.9981228
51
91.2346409
0
ARC
8
DEFAULT_255_2_778
10
26.444691
20
92.4965136
40
2.1686069
50
81.0859248
51
90.1859138
0
ARC
8
DEFAULT_255_2_778
10
26.5722595
20
93.284277
40
1.3705968
50
71.5222386
51
81.2515207
0
ARC
8
DEFAULT_255_2_778
10
26.8163651
20
93.9964597
40
0.6177908
50
56.6680681
51
72.0605693
0
ARC
8
DEFAULT_255_2_778
10
27.0643986
20
94.3578095
40
0.1798004
50
18.4987797
51
59.4334758
0
ARC
8
DEFAULT_255_2_778
10
27.139892
20
94.3914313
40
0.0978622
50
0.0455597
51
13.8498759
0
LINE
8
DEFAULT_255_2_778
10
27.6375543
20
92.9123091
11
27.4875543
21
92.6876091
0
LINE
8
DEFAULT_255_2_778
10
27.4875543
20
92.6876091
11
27.4875543
21
104.7804091
0
LINE
8
DEFAULT_255_2_778
10
27.4875543
20
104.7804091
11
20.8875543
21
104.7804091
0
LINE
8
DEFAULT_255_2_778
10
20.8875543
20
104.7804091
11
20.8875543
21
92.3132091
0
LINE
8
DEFAULT_255_2_778
10
28.6583543
20
87.3803091
11
19.1732543
21
87.3803091
0
LINE
8
DEFAULT_255_2_778
10
19.0375543
20
87.5536091
11
19.0375543
21
93.6073091
0
LINE
8
DEFAULT_255_2_778
10
19.2875543
20
93.8806091
11
20.8375543
21
93.8806091
0
LINE
8
DEFAULT_255_2_778
10
20.8375543
20
93.8806091
11
20.8375543
21
92.3135091
0
LINE
8
DEFAULT_255_2_778
10
20.8375543
20
92.3135091
11
21.2375543
21
92.3135091
0
LINE
8
DEFAULT_255_2_778
10
21.2375543
20
92.3135091
11
21.2375543
21
94.3915091
0
LINE
8
DEFAULT_255_2_778
10
21.2375543
20
94.3915091
11
21.2375543
21
94.3915091
0
LINE
8
DEFAULT_255_2_778
10
22.0376543
20
94.6651091
11
26.4376543
21
94.6651091
0
LINE
8
DEFAULT_255_2_778
10
26.4376543
20
94.6651091
11
26.4376543
21
94.6651091
0
LINE
8
DEFAULT_255_2_778
10
27.2377543
20
94.3915091
11
27.2377543
21
92.3135091
0
LINE
8
DEFAULT_255_2_778
10
27.2377543
20
92.3135091
11
27.3938543
21
92.3135091
0
LINE
8
DEFAULT_255_2_778
10
19.1960543
20
85.5888091
11
18.6962543
21
85.5804091
0
LINE
8
DEFAULT_255_2_778
10
18.6962543
20
85.5804091
11
20.3877543
21
85.5804091
0
LINE
8
DEFAULT_255_2_778
10
20.3877543
20
85.5804091
11
20.2236543
21
85.7444091
0
LINE
8
DEFAULT_255_2_778
10
20.2236543
20
85.7444091
11
20.2236543
21
87.2094091
0
LINE
8
DEFAULT_255_2_778
10
20.2236543
20
87.2094091
11
20.2411543
21
87.2269091
0
LINE
8
DEFAULT_255_2_778
10
20.2411543
20
87.2269091
11
19.3344543
21
87.2269091
0
LINE
8
DEFAULT_255_2_778
10
19.3344543
20
87.2269091
11
19.3518543
21
87.2094091
0
LINE
8
DEFAULT_255_2_778
10
19.3518543
20
87.2094091
11
19.3518543
21
85.7444091
0
LINE
8
DEFAULT_255_2_778
10
19.3518543
20
85.7444091
11
19.1963543
21
85.5888091
0
LINE
8
DEFAULT_255_2_778
10
20.3874543
20
85.5804091
11
20.3874543
21
87.3803091
0
ARC
8
DEFAULT_255_2_778
10
21.3822166
20
93.6269556
40
0.1452402
50
122.5567813
51
175.0035843
0
ARC
8
DEFAULT_255_2_778
10
21.6212321
20
93.3190336
40
0.5345944
50
109.4627779
51
126.3914721
0
ARC
8
DEFAULT_255_2_778
10
21.8748713
20
92.6430355
40
1.2565529
50
99.8394361
51
110.0969158
0
ARC
8
DEFAULT_255_2_778
10
22.0231118
20
91.830445
40
2.0825355
50
91.0215198
51
100.0374794
0
ARC
8
DEFAULT_255_2_778
10
22.0375498
20
91.5200373
40
2.3931679
50
89.9981228
51
91.2346409
0
ARC
8
DEFAULT_255_2_778
10
26.4446649
20
91.7446096
40
2.1686069
50
81.0859248
51
90.1859138
0
ARC
8
DEFAULT_255_2_778
10
26.5722334
20
92.532373
40
1.3705968
50
71.5222386
51
81.2515207
0
ARC
8
DEFAULT_255_2_778
10
26.816339
20
93.2445557
40
0.6177908
50
56.6680681
51
72.0605693
0
ARC
8
DEFAULT_255_2_778
10
27.0643726
20
93.6059054
40
0.1798004
50
18.4987797
51
59.4334758
0
ARC
8
DEFAULT_255_2_778
10
27.1398659
20
93.6395272
40
0.0978622
50
0.0455597
51
13.8498759
0
LINE
8
DEFAULT_255_2_778
10
21.2375282
20
93.6396051
11
21.2375282
21
93.6396051
0
LINE
8
DEFAULT_255_2_778
10
22.0376282
20
93.9132051
11
26.4376282
21
93.9132051
0
LINE
8
DEFAULT_255_2_778
10
26.4376282
20
93.9132051
11
26.4376282
21
93.9132051
0
LINE
8
DEFAULT_255_2_778
10
21.7876282
20
98.0804051
11
26.5877282
21
98.0804051
0
LINE
8
DEFAULT_255_2_778
10
21.2875282
20
94.4865051
11
21.2875282
21
96.6304051
0
LINE
8
DEFAULT_255_2_778
10
21.2875282
20
96.6304051
11
21.7876282
21
96.6304051
0
LINE
8
DEFAULT_255_2_778
10
21.7876282
20
96.6304051
11
21.7876282
21
104.7804051
0
LINE
8
DEFAULT_255_2_778
10
20.3874282
20
93.8804051
11
20.3874282
21
95.5803051
0
LINE
8
DEFAULT_255_2_778
10
20.3874282
20
95.5803051
11
18.6962282
21
95.5803051
0
LINE
8
DEFAULT_255_2_778
10
18.6962282
20
95.5803051
11
19.1960282
21
95.5718051
0
LINE
8
DEFAULT_255_2_778
10
19.1960282
20
95.5718051
11
19.3325282
21
95.4353051
0
LINE
8
DEFAULT_255_2_778
10
19.3325282
20
95.4353051
11
19.3341282
21
94.0338051
0
LINE
8
DEFAULT_255_2_778
10
20.9965358
20
92.313306
11
20.9965358
21
93.780406
0
LINE
8
DEFAULT_255_2_778
10
20.9965358
20
93.780406
11
21.2376358
21
93.780406
0
LINE
8
DEFAULT_255_2_778
10
19.3342358
20
93.880406
11
19.3342358
21
94.033906
0
LINE
8
DEFAULT_255_2_778
10
19.3342358
20
94.033906
11
20.2409358
21
94.033906
0
LINE
8
DEFAULT_255_2_778
10
20.2409358
20
94.033906
11
20.2409358
21
93.880406
0
LINE
8
DEFAULT_255_2_778
10
20.2409358
20
94.033606
11
20.2425358
21
95.435106
0
LINE
8
DEFAULT_255_2_778
10
20.2425358
20
95.435106
11
20.3875358
21
95.580106
0
LINE
8
DEFAULT_255_2_778
10
22.1877358
20
94.664606
11
22.1877358
21
95.180306
0
LINE
8
DEFAULT_255_2_778
10
22.1877358
20
95.180306
11
26.8877358
21
95.180306
0
LINE
8
DEFAULT_255_2_778
10
27.6376358
20
92.736406
11
27.6376358
21
94.080406
0
LINE
8
DEFAULT_255_2_778
10
27.6376358
20
94.080406
11
29.1671358
21
94.080406
0
LINE
8
DEFAULT_255_2_778
10
27.5876358
20
92.658806
11
27.4876358
21
92.687706
0
LINE
8
DEFAULT_255_2_778
10
0.3376358
20
107.780306
11
0.3376358
21
107.580306
0
LINE
8
DEFAULT_255_2_778
10
13.5959358
20
104.688606
11
9.2527358
21
104.688606
0
LINE
8
DEFAULT_255_2_778
10
8.00765
20
123.38035
11
8.00765
21
122.58025
0
LINE
8
DEFAULT_255_2_778
10
8.00765
20
122.58025
11
8.80775
21
122.58025
0
LINE
8
DEFAULT_255_2_778
10
8.80775
20
122.58025
11
8.80775
21
123.38035
0
LINE
8
DEFAULT_255_2_778
10
8.80775
20
123.38035
11
8.00765
21
123.38035
0
LINE
8
DEFAULT_255_2_778
10
21.7876647
20
104.0803
11
26.5877647
21
104.0803
0
ARC
8
DEFAULT_255_2_778
10
19.1375677
20
112.9304321
40
0.4000177
50
90.0025391
51
179.9974407
0
ARC
8
DEFAULT_255_2_778
10
19.1376108
20
112.9304109
40
0.4000391
50
0.005601
51
90.008711
0
ARC
8
DEFAULT_255_2_778
10
19.1375895
20
112.9304105
40
0.4000605
50
269.9943399
51
0.0056601
0
ARC
8
DEFAULT_255_2_778
10
19.1375892
20
112.9303892
40
0.4000392
50
179.9912911
51
269.9943939
0
LINE
8
DEFAULT_255_2_778
10
18.73755
20
112.93045
11
18.73755
21
112.93045
0
ARC
8
DEFAULT_255_2_778
10
26.3876677
20
112.9304321
40
0.4000177
50
90.0025391
51
179.9974407
0
ARC
8
DEFAULT_255_2_778
10
26.3877108
20
112.9304109
40
0.4000391
50
0.005601
51
90.008711
0
ARC
8
DEFAULT_255_2_778
10
26.3876895
20
112.9304105
40
0.4000605
50
269.9943399
51
0.0056601
0
ARC
8
DEFAULT_255_2_778
10
26.3876892
20
112.9303892
40
0.4000392
50
179.9912911
51
269.9943939
0
LINE
8
DEFAULT_255_2_778
10
25.98765
20
112.93045
11
25.98765
21
112.93045
0
ARC
8
DEFAULT_255_2_778
10
33.538064
20
92.3863323
40
1.1940303
50
63.4265942
51
90.2269435
0
ARC
8
DEFAULT_255_2_778
10
33.6509547
20
92.5617971
40
0.9868561
50
1.0832212
51
64.7314055
0
LINE
8
DEFAULT_255_2_778
10
33.4952346
20
87.6803532
11
33.5333346
21
87.5803532
0
LINE
8
DEFAULT_255_2_778
10
33.6378346
20
93.5803532
11
33.5333346
21
93.5803532
0
LINE
8
DEFAULT_255_2_778
10
34.4376346
20
107.5802532
11
34.4376346
21
107.7802532
0
LINE
8
DEFAULT_255_2_778
10
20.8875346
20
87.3803532
11
20.8875346
21
40.7803532
0
LINE
8
DEFAULT_255_2_778
10
20.8875346
20
40.7803532
11
27.4875346
21
40.7803532
0
LINE
8
DEFAULT_255_2_778
10
27.4875346
20
40.7803532
11
27.4875346
21
87.3803532
0
ARC
8
DEFAULT_255_2_778
10
26.4852052
20
30.5850713
40
6.005001
50
279.608854
51
293.0795015
0
ARC
8
DEFAULT_255_2_778
10
26.4881313
20
30.5698295
40
5.9898329
50
293.1109046
51
314.9911575
0
ARC
8
DEFAULT_255_2_778
10
26.4790913
20
30.5845385
40
6.0066278
50
314.9529454
51
343.4489575
0
ARC
8
DEFAULT_255_2_778
10
26.4953178
20
30.5752173
40
5.9884199
50
343.4902193
51
357.9370687
0
ARC
8
DEFAULT_255_2_778
10
26.4158888
20
30.5802166
40
6.0679778
50
357.916892
51
0.0009665
0
ARC
8
DEFAULT_255_2_778
10
26.4784464
20
30.583046
40
6.0054208
50
359.9739818
51
13.4441649
0
ARC
8
DEFAULT_255_2_778
10
26.4942124
20
30.5834462
40
5.9899948
50
13.4755037
51
35.3555938
0
ARC
8
DEFAULT_255_2_778
10
26.478395
20
30.5771345
40
6.0065487
50
35.3173896
51
63.8138328
0
ARC
8
DEFAULT_255_2_778
10
26.4903252
20
30.59161
40
5.9882958
50
63.8551458
51
78.3022121
0
ARC
8
DEFAULT_255_2_778
10
26.472091
20
30.5140871
40
6.0679061
50
78.2820269
51
80.3661117
0
LINE
8
DEFAULT_255_2_778
10
21.2875666
20
40.7803189
11
21.2875666
21
87.3803189
0
LINE
8
DEFAULT_255_2_778
10
26.8874666
20
40.7803189
11
26.8874666
21
87.3803189
0
LINE
8
DEFAULT_255_2_778
10
26.6374666
20
33.2002189
11
26.6374666
21
27.9602189
0
LINE
8
DEFAULT_255_2_778
10
26.0376666
20
27.9602189
11
26.0376666
21
33.2002189
0
ARC
8
DEFAULT_255_2_778
10
10.1398961
20
7.7839551
40
2.0023845
50
156.5733489
51
180.0992821
0
ARC
8
DEFAULT_255_2_778
10
10.1327181
20
7.7849021
40
1.9954226
50
100.1929838
51
156.5163563
0
ARC
8
DEFAULT_255_2_778
10
10.1364941
20
7.7526817
40
2.0278038
50
89.9711642
51
100.1368845
0
ARC
8
DEFAULT_255_2_778
10
10.1409844
20
7.7781039
40
2.0023845
50
66.5733489
51
90.0992821
0
ARC
8
DEFAULT_255_2_778
10
10.1419314
20
7.7852819
40
1.9954226
50
10.1929838
51
66.5163563
0
ARC
8
DEFAULT_255_2_778
10
10.109711
20
7.7815059
40
2.0278038
50
359.9711642
51
10.1368845
0
ARC
8
DEFAULT_255_2_778
10
10.1351332
20
7.7770156
40
2.0023845
50
336.5733489
51
0.0992821
0
ARC
8
DEFAULT_255_2_778
10
10.1423112
20
7.7760686
40
1.9954226
50
280.1929838
51
336.5163563
0
ARC
8
DEFAULT_255_2_778
10
10.1385352
20
7.808289
40
2.0278038
50
269.9711642
51
280.1368845
0
ARC
8
DEFAULT_255_2_778
10
10.1340449
20
7.7828668
40
2.0023845
50
246.5733489
51
270.0992821
0
ARC
8
DEFAULT_255_2_778
10
10.1330979
20
7.7756888
40
1.9954226
50
190.1929838
51
246.5163563
0
ARC
8
DEFAULT_255_2_778
10
10.1653183
20
7.7794648
40
2.0278038
50
179.9711642
51
190.1368845
0
LINE
8
DEFAULT_255_2_778
10
8.1375146
20
7.7804854
11
8.1375146
21
7.7804854
0
ARC
8
DEFAULT_255_2_778
10
10.0823753
20
7.7864698
40
2.6946993
50
179.9982176
51
180.1342869
0
ARC
8
DEFAULT_255_2_778
10
10.1314219
20
7.7865497
40
2.743746
50
135.0005042
51
179.9999188
0
ARC
8
DEFAULT_255_2_778
10
10.1313877
20
7.7865156
40
2.7437461
50
90.0000812
51
134.9994958
0
ARC
8
DEFAULT_255_2_778
10
10.1314677
20
7.8355622
40
2.6946994
50
89.8657131
51
90.0017824
0
ARC
8
DEFAULT_255_2_778
10
10.1408398
20
7.7853288
40
2.744927
50
70.2706922
51
90.0637986
0
ARC
8
DEFAULT_255_2_778
10
10.1341051
20
7.7775099
40
2.7545627
50
11.1737467
51
70.1937336
0
ARC
8
DEFAULT_255_2_778
10
10.1237947
20
7.781614
40
2.763889
50
359.9718082
51
11.0488612
0
ARC
8
DEFAULT_255_2_778
10
10.1427326
20
7.7771998
40
2.7449524
50
340.2708351
51
0.0637518
0
ARC
8
DEFAULT_255_2_778
10
10.1349482
20
7.7839027
40
2.7545452
50
281.1750745
51
340.1942558
0
ARC
8
DEFAULT_255_2_778
10
10.1391414
20
7.7939345
40
2.7635806
50
269.9718437
51
281.0494777
0
ARC
8
DEFAULT_255_2_778
10
10.1314677
20
7.725046
40
2.6946993
50
269.9982176
51
270.1342869
0
ARC
8
DEFAULT_255_2_778
10
10.1313877
20
7.7740926
40
2.743746
50
225.0005042
51
269.9999188
0
ARC
8
DEFAULT_255_2_778
10
10.1314219
20
7.7740585
40
2.7437461
50
180.0000812
51
224.9994958
0
ARC
8
DEFAULT_255_2_778
10
10.0823753
20
7.7741384
40
2.6946994
50
179.8657131
51
180.0017824
0
LINE
8
DEFAULT_255_2_778
10
7.3876834
20
7.7804541
11
7.3876834
21
7.7801541
0
LINE
8
DEFAULT_255_2_778
10
14.5776771
20
23.3305552
11
14.5776771
21
24.7304552
0
LINE
8
DEFAULT_255_2_778
10
14.5776771
20
24.7304552
11
13.7876771
21
24.7304552
0
LINE
8
DEFAULT_255_2_778
10
13.7876771
20
24.7304552
11
13.7876771
21
23.3305552
0
LINE
8
DEFAULT_255_2_778
10
13.7876771
20
23.3305552
11
14.5776771
21
23.3305552
0
LINE
8
DEFAULT_255_2_778
10
14.5776771
20
28.4105552
11
14.5776771
21
29.8104552
0
LINE
8
DEFAULT_255_2_778
10
14.5776771
20
29.8104552
11
13.7876771
21
29.8104552
0
LINE
8
DEFAULT_255_2_778
10
13.7876771
20
29.8104552
11
13.7876771
21
28.4105552
0
LINE
8
DEFAULT_255_2_778
10
13.7876771
20
28.4105552
11
14.5776771
21
28.4105552
0
LINE
8
DEFAULT_255_2_778
10
14.5776771
20
25.8705552
11
14.5776771
21
27.2704552
0
LINE
8
DEFAULT_255_2_778
10
14.5776771
20
27.2704552
11
13.7876771
21
27.2704552
0
LINE
8
DEFAULT_255_2_778
10
13.7876771
20
27.2704552
11
13.7876771
21
25.8705552
0
LINE
8
DEFAULT_255_2_778
10
13.7876771
20
25.8705552
11
14.5776771
21
25.8705552
0
ARC
8
DEFAULT_255_2_778
10
10.1376343
20
15.9803184
40
1.9998329
50
294.7075743
51
331.0420584
0
ARC
8
DEFAULT_255_2_778
10
10.1373445
20
15.98032
40
1.9998348
50
208.9579644
51
245.2924124
0
LINE
8
DEFAULT_255_2_778
10
13.7876388
20
32.3504643
11
14.5777388
21
32.3504643
0
LINE
8
DEFAULT_255_2_778
10
14.5777388
20
32.3504643
11
14.5777388
21
30.9505643
0
LINE
8
DEFAULT_255_2_778
10
14.5777388
20
30.9505643
11
13.7876388
21
30.9505643
0
LINE
8
DEFAULT_255_2_778
10
13.7876388
20
30.9505643
11
13.7876388
21
32.3504643
0
LINE
8
DEFAULT_255_2_778
10
17.0875388
20
25.4604643
11
24.1876388
21
25.4604643
0
LINE
8
DEFAULT_255_2_778
10
24.1876532
20
33.2005519
11
24.1876532
21
36.5004519
0
LINE
8
DEFAULT_255_2_778
10
24.1876532
20
36.5004519
11
17.0875532
21
36.5004519
0
LINE
8
DEFAULT_255_2_778
10
17.0875532
20
36.5004519
11
17.0875532
21
24.6603519
0
LINE
8
DEFAULT_255_2_778
10
17.0875532
20
24.6603519
11
24.1876532
21
24.6603519
0
LINE
8
DEFAULT_255_2_778
10
24.1876532
20
24.6603519
11
24.1876532
21
27.9602519
0
ARC
8
DEFAULT_255_2_778
10
23.6875171
20
24.3603394
40
0.0999087
50
89.9476185
51
180.0524674
0
LINE
8
DEFAULT_255_2_778
10
23.5376084
20
24.6603479
11
23.5376084
21
24.9103479
0
LINE
8
DEFAULT_255_2_778
10
23.5376084
20
24.9103479
11
22.7875084
21
24.9103479
0
LINE
8
DEFAULT_255_2_778
10
22.7875084
20
24.9103479
11
22.7875084
21
24.6603479
0
LINE
8
DEFAULT_255_2_778
10
20.7878084
20
24.6603479
11
20.7878084
21
24.9103479
0
LINE
8
DEFAULT_255_2_778
10
20.7878084
20
24.9103479
11
20.0377084
21
24.9103479
0
LINE
8
DEFAULT_255_2_778
10
20.0377084
20
24.9103479
11
20.0377084
21
24.6603479
0
LINE
8
DEFAULT_255_2_778
10
24.1377084
20
24.4602479
11
24.1377084
21
22.4502479
0
LINE
8
DEFAULT_255_2_778
10
23.9377084
20
22.4502479
11
23.9377084
21
24.4602479
0
LINE
8
DEFAULT_255_2_778
10
23.5876084
20
22.4502479
11
23.5876084
21
24.3602479
0
LINE
8
DEFAULT_255_2_778
10
23.5876084
20
24.3602479
11
23.5876084
21
24.3602479
0
LINE
8
DEFAULT_255_2_778
10
14.5776771
20
36.0305552
11
14.5776771
21
37.4304552
0
LINE
8
DEFAULT_255_2_778
10
14.5776771
20
37.4304552
11
13.7876771
21
37.4304552
0
LINE
8
DEFAULT_255_2_778
10
13.7876771
20
37.4304552
11
13.7876771
21
36.0305552
0
LINE
8
DEFAULT_255_2_778
10
13.7876771
20
36.0305552
11
14.5776771
21
36.0305552
0
LINE
8
DEFAULT_255_2_778
10
14.5776771
20
33.4905552
11
14.5776771
21
34.8904552
0
LINE
8
DEFAULT_255_2_778
10
14.5776771
20
34.8904552
11
13.7876771
21
34.8904552
0
LINE
8
DEFAULT_255_2_778
10
13.7876771
20
34.8904552
11
13.7876771
21
33.4905552
0
LINE
8
DEFAULT_255_2_778
10
13.7876771
20
33.4905552
11
14.5776771
21
33.4905552
0
ARC
8
DEFAULT_255_2_778
10
9.0840135
20
42.2740908
40
0.996477
50
179.9169422
51
221.6424919
0
ARC
8
DEFAULT_255_2_778
10
9.0865161
20
42.2729553
40
0.9975959
50
221.4982452
51
268.2672879
0
ARC
8
DEFAULT_255_2_778
10
9.0876278
20
42.2940945
40
1.0187592
50
268.2407388
51
270.0005446
0
LINE
8
DEFAULT_255_2_778
10
8.0875375
20
46.0754353
11
8.0875375
21
42.2755353
0
ARC
8
DEFAULT_255_2_778
10
14.2875241
20
45.2753384
40
0.5000969
50
89.9996485
51
180.0003515
0
ARC
8
DEFAULT_255_2_778
10
13.2873302
20
41.7754323
40
0.5000969
50
269.9996485
51
0.0003515
0
ARC
8
DEFAULT_255_2_778
10
8.3873241
20
41.7754323
40
0.5000969
50
179.9996485
51
270.0003515
0
LINE
8
DEFAULT_255_2_778
10
14.8875272
20
46.0754353
11
14.8875272
21
45.7754353
0
LINE
8
DEFAULT_255_2_778
10
14.8875272
20
45.7754353
11
14.2875272
21
45.7754353
0
LINE
8
DEFAULT_255_2_778
10
13.7874272
20
45.2753353
11
13.7874272
21
41.7754353
0
LINE
8
DEFAULT_255_2_778
10
13.2873272
20
41.2753353
11
8.3873272
21
41.2753353
0
LINE
8
DEFAULT_255_2_778
10
7.8872272
20
41.7754353
11
7.8872272
21
46.0754353
0
ARC
8
DEFAULT_255_2_778
10
12.6890285
20
42.2717162
40
0.9963226
50
269.9183951
51
311.6458612
0
ARC
8
DEFAULT_255_2_778
10
12.690048
20
42.2743783
40
0.9976376
50
311.5005114
51
358.267068
0
ARC
8
DEFAULT_255_2_778
10
12.6689503
20
42.2754849
40
1.0187592
50
358.2407388
51
0.0005446
0
LINE
8
DEFAULT_255_2_778
10
13.6877095
20
42.2754946
11
13.6877095
21
46.0754946
0
LINE
8
DEFAULT_255_2_778
10
5.8875095
20
51.3252946
11
5.8875095
21
53.0453946
0
LINE
8
DEFAULT_255_2_778
10
8.6376095
20
53.0453946
11
8.6376095
21
51.3252946
0
ARC
8
DEFAULT_255_2_778
10
7.7673821
20
33.6885218
40
20.0070466
50
83.0522856
51
89.9936333
0
LINE
8
DEFAULT_255_2_778
10
7.7696053
20
53.6955682
11
7.7674373
21
53.6955683
0
ARC
8
DEFAULT_255_2_778
10
7.7673771
20
33.694191
40
20.0013773
50
89.9998277
51
96.936848
0
ARC
8
DEFAULT_255_2_778
10
7.7673771
20
70.6770204
40
20.0013773
50
263.063152
51
270.0001723
0
LINE
8
DEFAULT_255_2_778
10
7.7674373
20
50.675643
11
7.7696053
21
50.6756432
0
ARC
8
DEFAULT_255_2_778
10
7.7673821
20
70.6826895
40
20.0070465
50
270.0063667
51
276.9477144
0
LINE
8
DEFAULT_255_2_778
10
5.3517053
20
53.5491557
11
5.3517053
21
50.8220557
0
LINE
8
DEFAULT_255_2_778
10
5.8874605
20
47.5153281
11
5.8874605
21
49.2354281
0
LINE
8
DEFAULT_255_2_778
10
8.6375605
20
49.2354281
11
8.6375605
21
47.5153281
0
ARC
8
DEFAULT_255_2_778
10
7.7673821
20
29.8785218
40
20.0070466
50
83.0522856
51
89.9936333
0
LINE
8
DEFAULT_255_2_778
10
7.7696053
20
49.8855682
11
7.7674373
21
49.8855683
0
ARC
8
DEFAULT_255_2_778
10
7.7673771
20
29.884191
40
20.0013773
50
89.9998277
51
96.936848
0
ARC
8
DEFAULT_255_2_778
10
7.7673771
20
66.8670204
40
20.0013773
50
263.063152
51
270.0001723
0
LINE
8
DEFAULT_255_2_778
10
7.7674373
20
46.865643
11
7.7696053
21
46.8656432
0
ARC
8
DEFAULT_255_2_778
10
7.7673821
20
66.8726895
40
20.0070465
50
270.0063667
51
276.9477144
0
LINE
8
DEFAULT_255_2_778
10
5.3517053
20
49.7391557
11
5.3517053
21
47.0120557
0
ARC
8
DEFAULT_255_2_778
10
21.6876536
20
36.8000615
40
0.0998512
50
224.9559784
51
269.9657369
0
ARC
8
DEFAULT_255_2_778
10
21.6875997
20
36.800334
40
0.100006
50
180.0708858
51
225.0882496
0
LINE
8
DEFAULT_255_2_778
10
22.1376938
20
36.7002103
11
22.1376938
21
38.7102103
0
LINE
8
DEFAULT_255_2_778
10
24.1376938
20
38.7102103
11
24.1376938
21
36.7002103
0
LINE
8
DEFAULT_255_2_778
10
23.9376938
20
36.7002103
11
23.9376938
21
38.7102103
0
LINE
8
DEFAULT_255_2_778
10
21.5875938
20
36.8002103
11
21.5875938
21
38.7102103
0
LINE
8
DEFAULT_255_2_778
10
21.9376938
20
36.7002103
11
21.9376938
21
38.7102103
0
LINE
8
DEFAULT_255_2_778
10
22.7874938
20
36.5004103
11
22.7874938
21
36.2504103
0
LINE
8
DEFAULT_255_2_778
10
22.7874938
20
36.2504103
11
23.5375938
21
36.2504103
0
LINE
8
DEFAULT_255_2_778
10
23.5375938
20
36.2504103
11
23.5375938
21
36.5004103
0
LINE
8
DEFAULT_255_2_778
10
20.7877938
20
36.5004103
11
20.7877938
21
36.2504103
0
LINE
8
DEFAULT_255_2_778
10
20.7877938
20
36.2504103
11
20.0376938
21
36.2504103
0
LINE
8
DEFAULT_255_2_778
10
20.0376938
20
36.2504103
11
20.0376938
21
36.5004103
0
LINE
8
DEFAULT_255_2_778
10
26.4876938
20
32.4502103
11
26.4876938
21
33.2003103
0
LINE
8
DEFAULT_255_2_778
10
26.4876938
20
28.7103103
11
26.4876938
21
27.9602103
0
ARC
8
DEFAULT_255_2_778
10
9.0862054
20
58.2888127
40
0.9965117
50
89.91548
51
131.6387597
0
ARC
8
DEFAULT_255_2_778
10
9.0850475
20
58.2864027
40
0.9975466
50
131.4970855
51
178.270217
0
ARC
8
DEFAULT_255_2_778
10
9.1065761
20
58.2852332
40
1.0191008
50
178.2410303
51
180.000554
0
ARC
8
DEFAULT_255_2_778
10
8.3875508
20
58.7852478
40
0.5000754
50
89.9971846
51
179.9913517
0
ARC
8
DEFAULT_255_2_778
10
13.2873999
20
58.7852478
40
0.5000755
50
0.0086483
51
90.0028154
0
ARC
8
DEFAULT_255_2_778
10
14.287551
20
55.285399
40
0.5000756
50
179.9972098
51
269.9913379
0
ARC
8
DEFAULT_255_2_778
10
12.6913573
20
58.2866837
40
0.9963191
50
359.916016
51
41.6459452
0
ARC
8
DEFAULT_255_2_778
10
12.6887298
20
58.2876646
40
0.9976339
50
41.5035703
51
88.2692494
0
ARC
8
DEFAULT_255_2_778
10
12.687585
20
58.2665642
40
1.0187593
50
88.2407389
51
90.0005447
0
LINE
8
DEFAULT_255_2_778
10
26.1376754
20
33.2003233
11
26.1376754
21
32.4502233
0
LINE
8
DEFAULT_255_2_778
10
26.1376754
20
32.4502233
11
26.6376754
21
32.4502233
0
LINE
8
DEFAULT_255_2_778
10
26.1376754
20
27.9603233
11
26.1376754
21
28.7103233
0
LINE
8
DEFAULT_255_2_778
10
26.1376754
20
28.7103233
11
26.6376754
21
28.7103233
0
LINE
8
DEFAULT_255_2_778
10
22.4874754
20
38.7103233
11
22.4874754
21
37.7004233
0
LINE
8
DEFAULT_255_2_778
10
23.5875754
20
37.7004233
11
23.5875754
21
38.7103233
0
LINE
8
DEFAULT_255_2_778
10
8.0874754
20
58.2852233
11
8.0874754
21
54.4853233
0
LINE
8
DEFAULT_255_2_778
10
7.8874754
20
54.4853233
11
7.8874754
21
58.7853233
0
LINE
8
DEFAULT_255_2_778
10
8.3875754
20
59.2853233
11
13.2873754
21
59.2853233
0
LINE
8
DEFAULT_255_2_778
10
13.7874754
20
58.7853233
11
13.7874754
21
55.2854233
0
LINE
8
DEFAULT_255_2_778
10
14.2874754
20
54.7853233
11
14.8875754
21
54.7853233
0
LINE
8
DEFAULT_255_2_778
10
14.8875754
20
54.7853233
11
14.8875754
21
54.4853233
0
LINE
8
DEFAULT_255_2_778
10
13.6876754
20
54.4853233
11
13.6876754
21
58.2852233
0
LINE
8
DEFAULT_255_2_778
10
4.9376754
20
71.0802233
11
4.9376754
21
73.0053233
0
LINE
8
DEFAULT_255_2_778
10
4.9376754
20
73.0053233
11
0.8376754
21
73.0053233
0
LINE
8
DEFAULT_255_2_778
10
0.8376754
20
73.0053233
11
0.8376754
21
63.9552233
0
LINE
8
DEFAULT_255_2_778
10
0.8376754
20
63.9552233
11
4.9376754
21
63.9552233
0
LINE
8
DEFAULT_255_2_778
10
4.9376754
20
63.9552233
11
4.9376754
21
70.0803233
0
LINE
8
DEFAULT_255_2_778
10
4.3875609
20
68.2803481
11
1.3874609
21
68.2803481
0
LINE
8
DEFAULT_255_2_778
10
1.3874609
20
68.2803481
11
1.3874609
21
64.7804481
0
LINE
8
DEFAULT_255_2_778
10
1.3874609
20
64.7804481
11
4.3875609
21
64.7804481
0
LINE
8
DEFAULT_255_2_778
10
4.3875609
20
64.7804481
11
4.3875609
21
68.2803481
0
LINE
8
DEFAULT_255_2_778
10
3.5271609
20
70.0803481
11
3.5271609
21
68.2803481
0
LINE
8
DEFAULT_255_2_778
10
2.2481609
20
68.2803481
11
2.2481609
21
70.0803481
0
LINE
8
DEFAULT_255_2_778
10
34.6376609
20
127.5803481
11
0.1375609
21
127.5803481
0
LINE
8
DEFAULT_255_2_778
10
0.1375609
20
129.5803481
11
34.6376609
21
129.5803481
0
LINE
8
DEFAULT_255_2_778
10
34.6376609
20
107.7802481
11
0.1375609
21
107.7802481
0
LINE
8
DEFAULT_255_2_778
10
0.1375609
20
107.5802481
11
34.6376609
21
107.5802481
0
ARC
8
DEFAULT_255_2_778
10
11.3900961
20
90.7837551
40
2.0023845
50
156.5733489
51
180.0992821
0
ARC
8
DEFAULT_255_2_778
10
11.3829181
20
90.7847021
40
1.9954226
50
100.1929838
51
156.5163563
0
ARC
8
DEFAULT_255_2_778
10
11.3866941
20
90.7524817
40
2.0278038
50
89.9711642
51
100.1368845
0
ARC
8
DEFAULT_255_2_778
10
11.3911844
20
90.7779039
40
2.0023845
50
66.5733489
51
90.0992821
0
ARC
8
DEFAULT_255_2_778
10
11.3921314
20
90.7850819
40
1.9954226
50
10.1929838
51
66.5163563
0
ARC
8
DEFAULT_255_2_778
10
11.359911
20
90.7813059
40
2.0278038
50
359.9711642
51
10.1368845
0
ARC
8
DEFAULT_255_2_778
10
11.3853332
20
90.7768156
40
2.0023845
50
336.5733489
51
0.0992821
0
ARC
8
DEFAULT_255_2_778
10
11.3925112
20
90.7758686
40
1.9954226
50
280.1929838
51
336.5163563
0
ARC
8
DEFAULT_255_2_778
10
11.3887352
20
90.808089
40
2.0278038
50
269.9711642
51
280.1368845
0
ARC
8
DEFAULT_255_2_778
10
11.3842449
20
90.7826668
40
2.0023845
50
246.5733489
51
270.0992821
0
ARC
8
DEFAULT_255_2_778
10
11.3832979
20
90.7754888
40
1.9954226
50
190.1929838
51
246.5163563
0
ARC
8
DEFAULT_255_2_778
10
11.4155183
20
90.7792648
40
2.0278038
50
179.9711642
51
190.1368845
0
LINE
8
DEFAULT_255_2_778
10
9.3877146
20
90.7802854
11
9.3877146
21
90.7802854
0
ARC
8
DEFAULT_255_2_778
10
11.3322753
20
90.7865699
40
2.6946993
50
179.9982176
51
180.1342869
0
ARC
8
DEFAULT_255_2_778
10
11.3813219
20
90.7866498
40
2.743746
50
135.0005042
51
179.9999188
0
ARC
8
DEFAULT_255_2_778
10
11.3812877
20
90.7866157
40
2.7437461
50
90.0000812
51
134.9994958
0
ARC
8
DEFAULT_255_2_778
10
11.3813677
20
90.8356623
40
2.6946994
50
89.8657131
51
90.0017824
0
ARC
8
DEFAULT_255_2_778
10
11.3907376
20
90.7854034
40
2.7449524
50
70.2708351
51
90.0637518
0
ARC
8
DEFAULT_255_2_778
10
11.3840347
20
90.777619
40
2.7545452
50
11.1750745
51
70.1942558
0
ARC
8
DEFAULT_255_2_778
10
11.374003
20
90.7818123
40
2.7635806
50
359.9718437
51
11.0494777
0
ARC
8
DEFAULT_255_2_778
10
11.3923699
20
90.777394
40
2.7452152
50
340.2717902
51
0.0638707
0
ARC
8
DEFAULT_255_2_778
10
11.384842
20
90.7839846
40
2.7545284
50
281.175275
51
340.1956045
0
ARC
8
DEFAULT_255_2_778
10
11.3890425
20
90.7940134
40
2.7635594
50
269.9718222
51
281.0495419
0
ARC
8
DEFAULT_255_2_778
10
11.3813677
20
90.7251461
40
2.6946993
50
269.9982176
51
270.1342869
0
ARC
8
DEFAULT_255_2_778
10
11.3812877
20
90.7741927
40
2.743746
50
225.0005042
51
269.9999188
0
ARC
8
DEFAULT_255_2_778
10
11.3813219
20
90.7741586
40
2.7437461
50
180.0000812
51
224.9994958
0
ARC
8
DEFAULT_255_2_778
10
11.3322753
20
90.7742385
40
2.6946994
50
179.8657131
51
180.0017824
0
LINE
8
DEFAULT_255_2_778
10
8.6375834
20
90.7805542
11
8.6375834
21
90.7802542
0
ARC
8
DEFAULT_255_2_778
10
11.4368451
20
100.28098
40
3.6998426
50
53.7878308
51
67.0163783
0
ARC
8
DEFAULT_255_2_778
10
11.4386233
20
100.2811493
40
3.6989927
50
67.04071
51
90.0134917
0
LINE
8
DEFAULT_255_2_778
10
11.4377522
20
103.980142
11
11.4372588
21
103.9801419
0
ARC
8
DEFAULT_255_2_778
10
11.4369104
20
100.2807036
40
3.6994384
50
89.994605
51
112.9606888
0
ARC
8
DEFAULT_255_2_778
10
11.43889
20
100.2800054
40
3.7008538
50
112.9846915
51
126.2080106
0
LINE
8
DEFAULT_255_2_778
10
19.3341272
20
87.380342
11
19.3341272
21
87.226842
0
LINE
8
DEFAULT_255_2_778
10
20.2408272
20
87.226842
11
20.2408272
21
87.380342
0
ARC
8
DEFAULT_255_2_778
10
11.4313328
20
100.2780842
40
2.1786277
50
179.9397339
51
202.9100122
0
ARC
8
DEFAULT_255_2_778
10
11.440131
20
100.2835994
40
2.1888794
50
202.9533368
51
259.8484275
0
ARC
8
DEFAULT_255_2_778
10
11.4373334
20
100.2942953
40
2.1989197
50
259.9693021
51
270.0097168
0
ARC
8
DEFAULT_255_2_778
10
11.4399899
20
100.2737566
40
2.1783821
50
269.9399381
51
292.9113204
0
ARC
8
DEFAULT_255_2_778
10
11.4343582
20
100.2827981
40
2.1889033
50
292.9549685
51
349.8486007
0
ARC
8
DEFAULT_255_2_778
10
11.4236864
20
100.2800006
40
2.1989198
50
349.9693619
51
0.0097754
0
LINE
8
DEFAULT_255_2_778
10
13.6226063
20
106.2151757
11
12.3190063
21
106.2151757
0
LINE
8
DEFAULT_255_2_778
10
12.3190063
20
106.2151757
11
11.4377063
21
104.6885757
0
LINE
8
DEFAULT_255_2_778
10
11.4377063
20
104.6885757
11
10.5563063
21
106.2151757
0
LINE
8
DEFAULT_255_2_778
10
10.5563063
20
106.2151757
11
9.2527063
21
106.2151757
0
LINE
8
DEFAULT_255_2_778
10
9.2527063
20
106.2151757
11
9.2527063
21
100.2803757
0
LINE
8
DEFAULT_255_2_778
10
13.6226063
20
100.2803757
11
13.6226063
21
106.2151757
0
LINE
8
DEFAULT_255_2_778
10
8.0076063
20
119.5602757
11
8.8077063
21
119.5602757
0
LINE
8
DEFAULT_255_2_778
10
8.8077063
20
119.5602757
11
8.8077063
21
120.3603757
0
LINE
8
DEFAULT_255_2_778
10
8.8077063
20
120.3603757
11
8.0076063
21
120.3603757
0
LINE
8
DEFAULT_255_2_778
10
8.0076063
20
120.3603757
11
8.0076063
21
119.5602757
0
LINE
8
DEFAULT_255_2_778
10
8.00765
20
117.38045
11
8.00765
21
116.58035
0
LINE
8
DEFAULT_255_2_778
10
8.00765
20
116.58035
11
8.80775
21
116.58035
0
LINE
8
DEFAULT_255_2_778
10
8.80775
20
116.58035
11
8.80775
21
117.38045
0
LINE
8
DEFAULT_255_2_778
10
8.80775
20
117.38045
11
8.00765
21
117.38045
0
LINE
8
DEFAULT_255_2_778
10
8.00765
20
114.38025
11
8.00765
21
113.58015
0
LINE
8
DEFAULT_255_2_778
10
8.00765
20
113.58015
11
8.80775
21
113.58015
0
LINE
8
DEFAULT_255_2_778
10
8.80775
20
113.58015
11
8.80775
21
114.38025
0
LINE
8
DEFAULT_255_2_778
10
8.80775
20
114.38025
11
8.00765
21
114.38025
0
ARC
8
DEFAULT_255_2_778
10
18.4202428
20
119.3303085
40
0.8001903
50
350.0106189
51
355.0414404
0
ARC
8
DEFAULT_255_2_778
10
18.4208053
20
119.3302503
40
0.7996247
50
355.0421162
51
0.0003184
0
ARC
8
DEFAULT_255_2_778
10
18.4187099
20
119.3301098
40
0.8017203
50
0.0103544
51
39.9400612
0
ARC
8
DEFAULT_255_2_778
10
18.4208588
20
119.3310039
40
0.7994991
50
39.9897989
51
90.0183932
0
ARC
8
DEFAULT_255_2_778
10
15.9837786
20
119.3301344
40
0.8003686
50
90.0197948
51
169.9864784
0
ARC
8
DEFAULT_255_2_778
10
14.8551615
20
112.9304975
40
0.8001903
50
170.0106189
51
175.0414404
0
ARC
8
DEFAULT_255_2_778
10
14.8545989
20
112.9305558
40
0.7996247
50
175.0421162
51
180.0003184
0
ARC
8
DEFAULT_255_2_778
10
14.8566944
20
112.9306962
40
0.8017203
50
180.0103544
51
219.9400612
0
ARC
8
DEFAULT_255_2_778
10
14.8545455
20
112.9298021
40
0.7994991
50
219.9897989
51
270.0183932
0
ARC
8
DEFAULT_255_2_778
10
17.2916259
20
112.9306715
40
0.8003686
50
270.0197735
51
349.9864792
0
LINE
8
DEFAULT_255_2_778
10
18.4206021
20
120.130503
11
15.9835021
21
120.130503
0
LINE
8
DEFAULT_255_2_778
10
15.1956021
20
119.469303
11
14.6881021
21
116.590603
0
LINE
8
DEFAULT_255_2_778
10
14.6881021
20
116.590603
11
15.1485021
21
116.130303
0
LINE
8
DEFAULT_255_2_778
10
15.1485021
20
116.130303
11
14.4910021
21
115.472803
0
LINE
8
DEFAULT_255_2_778
10
14.4910021
20
115.472803
11
14.0671021
21
113.069303
0
LINE
8
DEFAULT_255_2_778
10
14.8548021
20
112.130303
11
17.2919021
21
112.130303
0
LINE
8
DEFAULT_255_2_778
10
18.0798021
20
112.791503
11
18.5873021
21
115.670203
0
LINE
8
DEFAULT_255_2_778
10
18.5873021
20
115.670203
11
18.1269021
21
116.130503
0
LINE
8
DEFAULT_255_2_778
10
18.1269021
20
116.130503
11
18.7844021
21
116.788003
0
LINE
8
DEFAULT_255_2_778
10
18.7844021
20
116.788003
11
19.2083021
21
119.191503
0
ARC
8
DEFAULT_255_2_778
10
23.2335104
20
119.3303033
40
0.8002105
50
90.0102839
51
169.9959743
0
ARC
8
DEFAULT_255_2_778
10
22.1057465
20
112.9303839
40
0.8009213
50
170.0108005
51
175.0370523
0
ARC
8
DEFAULT_255_2_778
10
22.1048667
20
112.930468
40
0.8000375
50
175.0375997
51
180.0001209
0
ARC
8
DEFAULT_255_2_778
10
22.1059933
20
112.930516
40
0.8011641
50
180.0035587
51
219.9555683
0
ARC
8
DEFAULT_255_2_778
10
22.1042566
20
112.9294838
40
0.7991701
50
219.9787955
51
270.0051101
0
LINE
8
DEFAULT_255_2_778
10
22.1043279
20
112.1303137
11
22.1046668
21
112.1303137
0
ARC
8
DEFAULT_255_2_778
10
24.5414683
20
112.9307085
40
0.8003948
50
270.0142057
51
349.9849041
0
ARC
8
DEFAULT_255_2_778
10
25.6692871
20
119.3304436
40
0.8009213
50
350.0108005
51
355.0370523
0
ARC
8
DEFAULT_255_2_778
10
25.6701668
20
119.3303595
40
0.8000375
50
355.0375997
51
0.0001209
0
ARC
8
DEFAULT_255_2_778
10
25.6690402
20
119.3303114
40
0.8011641
50
0.0035587
51
39.9555683
0
ARC
8
DEFAULT_255_2_778
10
25.6708008
20
119.3313946
40
0.7991191
50
39.9770979
51
89.9996622
0
LINE
8
DEFAULT_255_2_778
10
25.6708055
20
120.1305138
11
25.6704668
21
120.1305137
0
LINE
8
DEFAULT_255_2_778
10
15.3484668
20
115.7305137
11
14.8547668
21
112.9304137
0
LINE
8
DEFAULT_255_2_778
10
14.8547668
20
112.9304137
11
17.2918668
21
112.9304137
0
LINE
8
DEFAULT_255_2_778
10
17.2918668
20
112.9304137
11
17.7855668
21
115.7305137
0
LINE
8
DEFAULT_255_2_778
10
17.7855668
20
115.7305137
11
15.3484668
21
115.7305137
0
LINE
8
DEFAULT_255_2_778
10
18.4202668
20
119.3304137
11
15.9832668
21
119.3304137
0
LINE
8
DEFAULT_255_2_778
10
15.9832668
20
119.3304137
11
15.4895668
21
116.5303137
0
LINE
8
DEFAULT_255_2_778
10
15.4895668
20
116.5303137
11
17.9265668
21
116.5303137
0
LINE
8
DEFAULT_255_2_778
10
17.9265668
20
116.5303137
11
18.4202668
21
119.3304137
0
LINE
8
DEFAULT_255_2_778
10
22.5985668
20
115.7305137
11
22.1048668
21
112.9304137
0
LINE
8
DEFAULT_255_2_778
10
22.1048668
20
112.9304137
11
24.5419668
21
112.9304137
0
LINE
8
DEFAULT_255_2_778
10
24.5419668
20
112.9304137
11
25.0356668
21
115.7305137
0
LINE
8
DEFAULT_255_2_778
10
25.0356668
20
115.7305137
11
22.5985668
21
115.7305137
0
LINE
8
DEFAULT_255_2_778
10
25.6704668
20
119.3304137
11
23.2333668
21
119.3304137
0
LINE
8
DEFAULT_255_2_778
10
23.2333668
20
119.3304137
11
22.7396668
21
116.5303137
0
LINE
8
DEFAULT_255_2_778
10
22.7396668
20
116.5303137
11
25.1766668
21
116.5303137
0
LINE
8
DEFAULT_255_2_778
10
25.1766668
20
116.5303137
11
25.6704668
21
119.3304137
0
LINE
8
DEFAULT_255_2_778
10
25.6704668
20
120.1305137
11
23.2333668
21
120.1305137
0
LINE
8
DEFAULT_255_2_778
10
22.4454668
20
119.4693137
11
21.9379668
21
116.5906137
0
LINE
8
DEFAULT_255_2_778
10
21.9379668
20
116.5906137
11
22.3983668
21
116.1303137
0
LINE
8
DEFAULT_255_2_778
10
22.3983668
20
116.1303137
11
21.7408668
21
115.4728137
0
LINE
8
DEFAULT_255_2_778
10
21.7408668
20
115.4728137
11
21.3169668
21
113.0693137
0
LINE
8
DEFAULT_255_2_778
10
22.1046668
20
112.1303137
11
24.5416668
21
112.1303137
0
LINE
8
DEFAULT_255_2_778
10
25.3296668
20
112.7915137
11
25.8370668
21
115.6702137
0
LINE
8
DEFAULT_255_2_778
10
25.8370668
20
115.6702137
11
25.3767668
21
116.1305137
0
LINE
8
DEFAULT_255_2_778
10
25.3767668
20
116.1305137
11
26.0342668
21
116.7880137
0
LINE
8
DEFAULT_255_2_778
10
26.0342668
20
116.7880137
11
26.4580668
21
119.1915137
0
LINE
8
DEFAULT_255_2_778
10
11.2604668
20
56.3125137
11
10.5145668
21
57.0583137
0
LINE
8
DEFAULT_255_2_778
10
9.7316032
20
55.5292968
11
12.0438032
21
57.8414968
0
ARC
8
DEFAULT_255_2_778
10
10.8892223
20
56.6887095
40
1.9516044
50
156.1319169
51
180.100711
0
ARC
8
DEFAULT_255_2_778
10
10.883105
20
56.6894124
40
1.9457268
50
100.1292829
51
156.0779549
0
ARC
8
DEFAULT_255_2_778
10
10.8866407
20
56.6584386
40
1.9768408
50
89.971592
51
100.0722797
0
ARC
8
DEFAULT_255_2_778
10
10.8910513
20
56.6836777
40
1.9516044
50
66.1319169
51
90.100711
0
ARC
8
DEFAULT_255_2_778
10
10.8917541
20
56.689795
40
1.9457268
50
10.1292829
51
66.0779549
0
ARC
8
DEFAULT_255_2_778
10
10.8607804
20
56.6862593
40
1.9768408
50
359.971592
51
10.0722797
0
ARC
8
DEFAULT_255_2_778
10
10.8860195
20
56.6818487
40
1.9516044
50
336.1319169
51
0.100711
0
ARC
8
DEFAULT_255_2_778
10
10.8921367
20
56.6811459
40
1.9457268
50
280.1292829
51
336.0779549
0
ARC
8
DEFAULT_255_2_778
10
10.888601
20
56.7121196
40
1.9768408
50
269.971592
51
280.0722797
0
ARC
8
DEFAULT_255_2_778
10
10.8841905
20
56.6868805
40
1.9516044
50
246.1319169
51
270.100711
0
ARC
8
DEFAULT_255_2_778
10
10.8834876
20
56.6807633
40
1.9457268
50
190.1292829
51
246.0779549
0
ARC
8
DEFAULT_255_2_778
10
10.9144614
20
56.684299
40
1.9768408
50
179.971592
51
190.0722797
0
LINE
8
DEFAULT_255_2_778
10
8.9376209
20
56.6852791
11
8.9376209
21
56.6852791
0
LINE
8
DEFAULT_255_2_778
10
9.7316032
20
42.7191968
11
12.0438032
21
45.0313968
0
ARC
8
DEFAULT_255_2_778
10
10.8892223
20
43.8788095
40
1.9516044
50
156.1319169
51
180.100711
0
ARC
8
DEFAULT_255_2_778
10
10.883105
20
43.8795124
40
1.9457268
50
100.1292829
51
156.0779549
0
ARC
8
DEFAULT_255_2_778
10
10.8866407
20
43.8485386
40
1.9768408
50
89.971592
51
100.0722797
0
ARC
8
DEFAULT_255_2_778
10
10.8910513
20
43.8737777
40
1.9516044
50
66.1319169
51
90.100711
0
ARC
8
DEFAULT_255_2_778
10
10.8917541
20
43.879895
40
1.9457268
50
10.1292829
51
66.0779549
0
ARC
8
DEFAULT_255_2_778
10
10.8607804
20
43.8763593
40
1.9768408
50
359.971592
51
10.0722797
0
ARC
8
DEFAULT_255_2_778
10
10.8860195
20
43.8719487
40
1.9516044
50
336.1319169
51
0.100711
0
ARC
8
DEFAULT_255_2_778
10
10.8921367
20
43.8712459
40
1.9457268
50
280.1292829
51
336.0779549
0
ARC
8
DEFAULT_255_2_778
10
10.888601
20
43.9022196
40
1.9768408
50
269.971592
51
280.0722797
0
ARC
8
DEFAULT_255_2_778
10
10.8841905
20
43.8769805
40
1.9516044
50
246.1319169
51
270.100711
0
ARC
8
DEFAULT_255_2_778
10
10.8834876
20
43.8708633
40
1.9457268
50
190.1292829
51
246.0779549
0
ARC
8
DEFAULT_255_2_778
10
10.9144614
20
43.874399
40
1.9768408
50
179.971592
51
190.0722797
0
LINE
8
DEFAULT_255_2_778
10
8.9376209
20
43.8753791
11
8.9376209
21
43.8753791
0
ARC
8
DEFAULT_255_2_778
10
10.1340262
20
14.6517464
40
0.9699945
50
235.0112997
51
270.2186044
0
ARC
8
DEFAULT_255_2_778
10
10.0933595
20
14.6017601
40
0.9057355
50
180.1518956
51
235.3057063
0
ARC
8
DEFAULT_255_2_778
10
10.1109462
20
14.589641
40
0.9233702
50
101.0387219
51
179.3969802
0
ARC
8
DEFAULT_255_2_778
10
10.1370088
20
14.5233744
40
0.9934846
50
89.9585748
51
101.7822579
0
ARC
8
DEFAULT_255_2_778
10
10.1415228
20
14.5467339
40
0.9701325
50
55.0144808
51
90.2241708
0
ARC
8
DEFAULT_255_2_778
10
10.1822588
20
14.59704
40
0.9055714
50
0.1467188
51
55.3011545
0
ARC
8
DEFAULT_255_2_778
10
10.16447
20
14.6090077
40
0.9234075
50
281.0406744
51
359.4013006
0
ARC
8
DEFAULT_255_2_778
10
10.1384435
20
14.6752433
40
0.9934846
50
269.9586846
51
281.7823706
0
LINE
8
DEFAULT_255_2_778
10
11.2603271
20
43.5023589
11
10.5145271
21
44.2482589
0
LINE
8
DEFAULT_255_2_778
10
10.1377271
20
13.6817589
11
10.1377271
21
13.6817589
0
ARC
8
DEFAULT_255_2_778
10
10.0830755
20
15.5553048
40
1.0045775
50
359.7839664
51
34.3104177
0
ARC
8
DEFAULT_255_2_778
10
10.1350749
20
15.5967333
40
0.9382869
50
34.0106566
51
89.8491132
0
ARC
8
DEFAULT_255_2_778
10
10.147108
20
15.5795118
40
0.955553
50
90.5733625
51
168.2479946
0
ARC
8
DEFAULT_255_2_778
10
10.2143017
20
15.5523292
40
1.0269561
50
167.5267463
51
180.0453108
0
ARC
8
DEFAULT_255_2_778
10
10.1374167
20
15.979535
40
2.0003821
50
28.9730712
51
89.9962994
0
ARC
8
DEFAULT_255_2_778
10
10.1375983
20
15.9794956
40
2.0004214
50
90.0015001
51
151.0262646
0
LINE
8
DEFAULT_255_2_778
10
11.0876459
20
14.599317
11
11.0876459
21
15.551517
0
LINE
8
DEFAULT_255_2_778
10
9.1873459
20
15.551517
11
9.1873459
21
15.551517
0
LINE
8
DEFAULT_255_2_778
10
9.1873459
20
15.551517
11
9.1873459
21
14.599317
0
ARC
8
DEFAULT_255_2_778
10
10.1443984
20
17.9829091
40
1.7430494
50
359.9150996
51
26.4073297
0
ARC
8
DEFAULT_255_2_778
10
10.1366562
20
17.9789651
40
1.7517379
50
26.4102442
51
81.0301954
0
ARC
8
DEFAULT_255_2_778
10
10.1381518
20
17.9669684
40
1.7633578
50
81.1389729
51
90.0196879
0
ARC
8
DEFAULT_255_2_778
10
10.1349603
20
17.987309
40
1.7430191
50
89.9150094
51
116.4077285
0
ARC
8
DEFAULT_255_2_778
10
10.1389858
20
17.9794828
40
1.7518189
50
116.4118039
51
170.9035829
0
ARC
8
DEFAULT_255_2_778
10
10.1509571
20
17.9809471
40
1.7634112
50
171.0120569
51
180.020173
0
ARC
8
DEFAULT_255_2_778
10
10.1304586
20
13.97786
40
1.7429146
50
179.9156383
51
206.408534
0
ARC
8
DEFAULT_255_2_778
10
10.1384701
20
13.9819445
40
1.7519065
50
206.4116398
51
260.9013675
0
ARC
8
DEFAULT_255_2_778
10
10.1369237
20
13.9936115
40
1.7631853
50
261.0109393
51
270.0202184
0
ARC
8
DEFAULT_255_2_778
10
10.1401116
20
13.9731007
40
1.7426763
50
269.9156431
51
296.4116975
0
ARC
8
DEFAULT_255_2_778
10
10.1358692
20
13.9813651
40
1.7519652
50
296.415734
51
350.9019772
0
ARC
8
DEFAULT_255_2_778
10
10.1243068
20
13.9798077
40
1.7631392
50
351.0113634
51
0.0200996
0
LINE
8
DEFAULT_255_2_778
10
11.8874459
20
13.9804262
11
11.8874459
21
17.9803262
0
LINE
8
DEFAULT_255_2_778
10
8.3875459
20
17.9803262
11
8.3875459
21
13.9804262
0
ARC
8
DEFAULT_255_2_778
10
9.7468422
20
52.1110899
40
1.2193642
50
220.1187402
51
255.9966087
0
ARC
8
DEFAULT_255_2_778
10
5.5230926
20
50.974218
40
0.1757527
50
276.6945733
51
338.3804988
0
LINE
8
DEFAULT_255_2_778
10
10.0853813
20
50.8102635
11
9.4517813
21
50.9279635
0
LINE
8
DEFAULT_255_2_778
10
8.8143813
20
51.3253635
11
5.8512813
21
51.3253635
0
LINE
8
DEFAULT_255_2_778
10
5.8512813
20
51.3253635
11
5.6864813
21
50.9094635
0
ARC
8
DEFAULT_255_2_778
10
5.5230035
20
49.5866934
40
0.1758781
50
21.6438317
51
83.2809936
0
ARC
8
DEFAULT_255_2_778
10
9.746842
20
48.4499371
40
1.2193642
50
104.0033793
51
139.881251
0
LINE
8
DEFAULT_255_2_778
10
5.6864813
20
49.6515635
11
5.8512813
21
49.2356635
0
LINE
8
DEFAULT_255_2_778
10
5.8512813
20
49.2356635
11
8.8143813
21
49.2356635
0
LINE
8
DEFAULT_255_2_778
10
9.4517813
20
49.6330635
11
10.0853813
21
49.7507635
0
ARC
8
DEFAULT_255_2_778
10
9.7468422
20
48.3010899
40
1.2193642
50
220.1187402
51
255.9966087
0
ARC
8
DEFAULT_255_2_778
10
5.5230926
20
47.164218
40
0.1757527
50
276.6945733
51
338.3804988
0
LINE
8
DEFAULT_255_2_778
10
10.0853813
20
47.0002635
11
9.4517813
21
47.1179635
0
LINE
8
DEFAULT_255_2_778
10
8.8143813
20
47.5153635
11
5.8512813
21
47.5153635
0
LINE
8
DEFAULT_255_2_778
10
5.8512813
20
47.5153635
11
5.6864813
21
47.0994635
0
ARC
8
DEFAULT_255_2_778
10
30.8899941
20
90.5868857
40
3.2024221
50
180.0000042
51
180.1145491
0
ARC
8
DEFAULT_255_2_778
10
30.8809713
20
90.5869275
40
3.1933994
50
134.997936
51
180.0007556
0
ARC
8
DEFAULT_255_2_778
10
30.8810631
20
90.5869231
40
3.1934674
50
90.0029003
51
134.9990439
0
ARC
8
DEFAULT_255_2_778
10
30.8809011
20
90.5907215
40
3.1896688
50
89.8782598
51
89.9999929
0
ARC
8
DEFAULT_255_2_778
10
30.8848636
20
90.5868857
40
3.2024212
50
359.8854509
51
359.9999958
0
ARC
8
DEFAULT_255_2_778
10
30.8933883
20
90.5868215
40
3.1938965
50
0.001147
51
44.9958346
0
ARC
8
DEFAULT_255_2_778
10
30.8938125
20
90.5867244
40
3.1936652
50
45.0024467
51
89.9987778
0
ARC
8
DEFAULT_255_2_778
10
30.8938808
20
90.5779694
40
3.2024202
50
90.0000042
51
90.1145491
0
ARC
8
DEFAULT_255_2_778
10
30.8972221
20
90.5883925
40
3.9097518
50
180.0000059
51
180.1159071
0
ARC
8
DEFAULT_255_2_778
10
30.8792067
20
90.5884653
40
3.8917363
50
134.9969849
51
180.0010779
0
ARC
8
DEFAULT_255_2_778
10
30.8794963
20
90.5887549
40
3.8917363
50
89.9989221
51
135.0030151
0
ARC
8
DEFAULT_255_2_778
10
30.8795691
20
90.5707394
40
3.9097518
50
89.8840929
51
89.9999941
0
ARC
8
DEFAULT_255_2_778
10
30.8777025
20
90.5884085
40
3.9097518
50
359.8840929
51
359.9999941
0
ARC
8
DEFAULT_255_2_778
10
30.895718
20
90.5884813
40
3.8917363
50
359.9989221
51
45.0030151
0
ARC
8
DEFAULT_255_2_778
10
30.8954283
20
90.5887709
40
3.8917363
50
44.9969849
51
90.0010779
0
ARC
8
DEFAULT_255_2_778
10
30.8953555
20
90.5707555
40
3.9097518
50
90.0000059
51
90.1159071
0
ARC
8
DEFAULT_255_2_778
10
30.8813438
20
90.582814
40
3.2024212
50
270.0000042
51
270.1145491
0
ARC
8
DEFAULT_255_2_778
10
30.881306
20
90.5735602
40
3.1931674
50
224.9962098
51
270.000683
0
ARC
8
DEFAULT_255_2_778
10
30.8810072
20
90.5738589
40
3.1931674
50
179.999317
51
225.0037902
0
ARC
8
DEFAULT_255_2_778
10
30.890261
20
90.5738968
40
3.2024212
50
179.8854509
51
179.9999958
0
ARC
8
DEFAULT_255_2_778
10
30.8938495
20
90.5835904
40
3.2031976
50
269.8854652
51
269.9999958
0
ARC
8
DEFAULT_255_2_778
10
30.8938945
20
90.5740243
40
3.1936314
50
269.9991876
51
315.0003389
0
ARC
8
DEFAULT_255_2_778
10
30.8935629
20
90.5739179
40
3.1937906
50
315.0058954
51
359.9964922
0
ARC
8
DEFAULT_255_2_778
10
30.8976846
20
90.5737219
40
3.1896688
50
0.0000071
51
0.1217402
0
ARC
8
DEFAULT_255_2_778
10
30.8795378
20
90.5895708
40
3.9089795
50
270.0000059
51
270.1159188
0
ARC
8
DEFAULT_255_2_778
10
30.8796423
20
90.572999
40
3.8924078
50
225.0031612
51
269.9984671
0
ARC
8
DEFAULT_255_2_778
10
30.8797723
20
90.5726233
40
3.8922341
50
180.0004853
51
224.9978978
0
ARC
8
DEFAULT_255_2_778
10
30.8972891
20
90.57259
40
3.9097508
50
179.8840929
51
179.9999941
0
ARC
8
DEFAULT_255_2_778
10
30.8953555
20
90.590343
40
3.9097518
50
269.8840929
51
269.9999941
0
ARC
8
DEFAULT_255_2_778
10
30.8953945
20
90.5726507
40
3.8920595
50
269.9994205
51
314.9989626
0
ARC
8
DEFAULT_255_2_778
10
30.8955434
20
90.5725895
40
3.8919109
50
314.9980498
51
0.0000131
0
ARC
8
DEFAULT_255_2_778
10
30.8777035
20
90.57259
40
3.9097508
50
0.0000059
51
0.1159071
0
LINE
8
DEFAULT_255_2_778
10
10.1875463
20
54.4852992
11
10.1875463
21
50.2802992
0
LINE
8
DEFAULT_255_2_778
10
10.1875463
20
46.0754992
11
10.1875463
21
50.2804992
0
LINE
8
DEFAULT_255_2_778
10
11.1876463
20
54.4852992
11
11.1876463
21
50.2802992
0
LINE
8
DEFAULT_255_2_778
10
11.1876463
20
46.0754992
11
11.1876463
21
50.2804992
0
LINE
8
DEFAULT_255_2_778
10
14.9876463
20
46.0754992
11
14.9876463
21
50.2804992
0
LINE
8
DEFAULT_255_2_778
10
14.9876463
20
54.4852992
11
14.9876463
21
50.2802992
0
LINE
8
DEFAULT_255_2_778
10
14.9876463
20
54.4852992
11
15.5876463
21
54.4852992
0
LINE
8
DEFAULT_255_2_778
10
15.5876463
20
54.4852992
11
15.5876463
21
50.2802992
0
ARC
8
DEFAULT_255_2_778
10
27.2876304
20
38.7804275
40
0.1999877
50
359.967808
51
90.032192
0
LINE
8
DEFAULT_255_2_778
10
14.987618
20
46.0754152
11
15.587718
21
46.0754152
0
LINE
8
DEFAULT_255_2_778
10
15.587718
20
46.0754152
11
15.587718
21
50.2804152
0
LINE
8
DEFAULT_255_2_778
10
10.187518
20
54.4852152
11
4.487618
21
54.4852152
0
LINE
8
DEFAULT_255_2_778
10
4.487618
20
54.4852152
11
4.487618
21
50.2802152
0
LINE
8
DEFAULT_255_2_778
10
10.187518
20
46.0754152
11
4.487618
21
46.0754152
0
LINE
8
DEFAULT_255_2_778
10
4.487618
20
46.0754152
11
4.487618
21
50.2804152
0
LINE
8
DEFAULT_255_2_778
10
11.187618
20
54.4852152
11
10.187818
21
54.4852152
0
LINE
8
DEFAULT_255_2_778
10
11.187618
20
46.0754152
11
10.187818
21
46.0754152
0
LINE
8
DEFAULT_255_2_778
10
14.987618
20
54.4852152
11
11.187618
21
54.4852152
0
LINE
8
DEFAULT_255_2_778
10
14.987618
20
46.0754152
11
11.187618
21
46.0754152
0
LINE
8
DEFAULT_255_2_778
10
15.387418
20
38.9804152
11
14.687318
21
38.9804152
0
LINE
8
DEFAULT_255_2_778
10
14.687318
20
38.9804152
11
14.687318
21
38.0802152
0
LINE
8
DEFAULT_255_2_778
10
14.687318
20
38.0802152
11
9.887518
21
38.0802152
0
LINE
8
DEFAULT_255_2_778
10
9.887518
20
38.0802152
11
9.887518
21
30.5804152
0
LINE
8
DEFAULT_255_2_778
10
15.387418
20
22.1804152
11
9.887518
21
22.1804152
0
LINE
8
DEFAULT_255_2_778
10
9.887518
20
22.1804152
11
9.887518
21
30.5804152
0
LINE
8
DEFAULT_255_2_778
10
15.387618
20
22.1804152
11
15.387618
21
30.5804152
0
LINE
8
DEFAULT_255_2_778
10
15.387618
20
38.9804152
11
15.387618
21
30.5804152
0
LINE
8
DEFAULT_255_2_778
10
27.487618
20
30.5804152
11
27.487618
21
38.7803152
0
LINE
8
DEFAULT_255_2_778
10
27.287518
20
38.9804152
11
15.387618
21
38.9804152
0
ARC
8
DEFAULT_255_2_778
10
27.2875287
20
22.3804046
40
0.200009
50
270.0025728
51
359.9974618
0
LINE
8
DEFAULT_255_2_778
10
27.4875377
20
30.5803957
11
27.4875377
21
22.3803957
0
LINE
8
DEFAULT_255_2_778
10
27.2875377
20
22.1803957
11
15.3876377
21
22.1803957
0
LINE
8
DEFAULT_255_2_778
10
20.3874543
20
25.4604841
11
20.3874543
21
30.5803841
0
LINE
8
DEFAULT_255_2_778
10
20.3874543
20
35.7003841
11
20.3874543
21
30.5803841
0
LINE
8
DEFAULT_255_2_778
10
24.4874543
20
38.7102841
11
24.4874543
21
36.7002841
0
LINE
8
DEFAULT_255_2_778
10
24.4874543
20
36.7002841
11
16.8875543
21
36.7002841
0
LINE
8
DEFAULT_255_2_778
10
16.8875543
20
36.7002841
11
16.8875543
21
30.5801841
0
LINE
8
DEFAULT_255_2_778
10
24.4874543
20
22.4502841
11
24.4874543
21
24.4603841
0
LINE
8
DEFAULT_255_2_778
10
24.4874543
20
24.4603841
11
16.8875543
21
24.4603841
0
LINE
8
DEFAULT_255_2_778
10
16.8875543
20
24.4603841
11
16.8875543
21
30.5803841
0
ENDSEC
0
EOF