0
SECTION
2
HEADER
9
$MEASUREMENT
70
1
0
ENDSEC
0
SECTION
2
TABLES
0
TABLE
2
LTYPE
0
LTYPE
72
65
70
64
2
CONTINUOUS
3
______
73
0
40
0
0
ENDTAB
0
TABLE
2
LAYER
0
LAYER
2
DEFAULT_255_2_778
70
0
62
255
6
CONTINUOUS
0
ENDTAB
0
ENDSEC
0
SECTION
2
ENTITIES
0
ARC
8
DEFAULT_255_2_778
10
77.4544257
20
89.0341727
40
0.9962817
50
48.352397
51
90.0818679
0
ARC
8
DEFAULT_255_2_778
10
77.4553214
20
89.0314077
40
0.9977557
50
1.7308645
51
48.4963478
0
ARC
8
DEFAULT_255_2_778
10
77.4339784
20
89.0302631
40
1.0191238
50
359.9994553
51
1.7589451
0
ARC
8
DEFAULT_255_2_778
10
77.4566262
20
40.5289089
40
0.996477
50
318.3575081
51
0.0830578
0
ARC
8
DEFAULT_255_2_778
10
77.4541236
20
40.5277733
40
0.9975959
50
271.7327121
51
318.5017548
0
ARC
8
DEFAULT_255_2_778
10
77.4530118
20
40.5489126
40
1.0187592
50
269.9994554
51
271.7592612
0
ARC
8
DEFAULT_255_2_778
10
53.9514786
20
40.5264341
40
0.9962817
50
228.352397
51
270.0818679
0
ARC
8
DEFAULT_255_2_778
10
53.9505828
20
40.5291991
40
0.9977557
50
181.7308645
51
228.4963478
0
ARC
8
DEFAULT_255_2_778
10
53.9719259
20
40.5303437
40
1.0191238
50
179.9994553
51
181.7589451
0
ARC
8
DEFAULT_255_2_778
10
53.9526451
20
89.0303049
40
0.999843
50
134.9876198
51
180.0029524
0
ARC
8
DEFAULT_255_2_778
10
53.9529266
20
89.0306684
40
0.9997849
50
90.0013999
51
135.0137564
0
LINE
8
DEFAULT_255_2_778
10
78.4531021
20
89.0302534
11
78.4531021
21
40.5303534
0
LINE
8
DEFAULT_255_2_778
10
77.4530021
20
39.5301534
11
53.9529021
21
39.5301534
0
LINE
8
DEFAULT_255_2_778
10
52.9528021
20
40.5303534
11
52.9528021
21
89.0302534
0
LINE
8
DEFAULT_255_2_778
10
53.9529021
20
90.0304534
11
77.4530021
21
90.0304534
0
LINE
8
DEFAULT_255_2_778
10
13.3532021
20
129.7803534
11
2.8532021
21
129.7803534
0
LINE
8
DEFAULT_255_2_778
10
2.8532021
20
129.7803534
11
2.8532021
21
107.5802534
0
LINE
8
DEFAULT_255_2_778
10
2.8532021
20
107.5802534
11
0.1531021
21
107.5802534
0
LINE
8
DEFAULT_255_2_778
10
0.1531021
20
107.5802534
11
0.1531021
21
1.7802534
0
LINE
8
DEFAULT_255_2_778
10
0.1531021
20
1.7802534
11
2.1531021
21
-0.2197466
0
LINE
8
DEFAULT_255_2_778
10
2.1531021
20
-0.2197466
11
4.1531021
21
-0.2197466
0
LINE
8
DEFAULT_255_2_778
10
4.1531021
20
-0.2197466
11
4.1705021
21
0.2803534
0
LINE
8
DEFAULT_255_2_778
10
4.1705021
20
0.2803534
11
6.1356021
21
0.2803534
0
LINE
8
DEFAULT_255_2_778
10
6.1356021
20
0.2803534
11
6.1531021
21
-0.2197466
0
LINE
8
DEFAULT_255_2_778
10
6.1531021
20
-0.2197466
11
8.1530021
21
-0.2197466
0
LINE
8
DEFAULT_255_2_778
10
8.1530021
20
-0.2197466
11
8.1705021
21
0.2803534
0
LINE
8
DEFAULT_255_2_778
10
8.1705021
20
0.2803534
11
10.1356021
21
0.2803534
0
LINE
8
DEFAULT_255_2_778
10
10.1356021
20
0.2803534
11
10.1530021
21
-0.2197466
0
LINE
8
DEFAULT_255_2_778
10
10.1530021
20
-0.2197466
11
13.3532021
21
-0.2197466
0
LINE
8
DEFAULT_255_2_778
10
13.3532021
20
-0.2197466
11
13.3532021
21
129.7803534
0
LINE
8
DEFAULT_255_2_778
10
13.5532021
20
-0.0197466
11
13.3532021
21
-0.0197466
0
LINE
8
DEFAULT_255_2_778
10
2.8532021
20
129.5803534
11
2.1531021
21
129.5803534
0
LINE
8
DEFAULT_255_2_778
10
2.1531021
20
129.5803534
11
0.1531021
21
127.5803534
0
LINE
8
DEFAULT_255_2_778
10
0.1531021
20
127.5803534
11
0.1531021
21
107.7802534
0
LINE
8
DEFAULT_255_2_778
10
0.1531021
20
107.7802534
11
2.6531021
21
107.7802534
0
LINE
8
DEFAULT_255_2_778
10
2.6531021
20
107.7802534
11
2.6531021
21
129.5803534
0
LINE
8
DEFAULT_255_2_778
10
13.3531532
20
129.5803037
11
13.5531532
21
129.5803037
0
LINE
8
DEFAULT_255_2_778
10
17.4531532
20
32.1303037
11
20.4532532
21
32.1303037
0
LINE
8
DEFAULT_255_2_778
10
20.4532532
20
32.1303037
11
20.4532532
21
19.4303037
0
LINE
8
DEFAULT_255_2_778
10
20.4532532
20
19.4303037
11
17.4531532
21
19.4303037
0
LINE
8
DEFAULT_255_2_778
10
17.4531532
20
19.4303037
11
17.4531532
21
32.1303037
0
LINE
8
DEFAULT_255_2_778
10
18.5532375
20
31.8188498
11
17.5531375
21
31.8318498
0
LINE
8
DEFAULT_255_2_778
10
17.5531375
20
31.8318498
11
17.5531375
21
19.7287498
0
LINE
8
DEFAULT_255_2_778
10
17.5531375
20
19.7287498
11
18.5532375
21
19.7417498
0
ARC
8
DEFAULT_255_2_778
10
95.9449204
20
126.7834245
40
2.9939808
50
14.968649
51
37.4744963
0
ARC
8
DEFAULT_255_2_778
10
95.9384852
20
126.7785094
40
3.0020782
50
37.4742202
51
81.9556108
0
ARC
8
DEFAULT_255_2_778
10
95.9396557
20
126.7700208
40
3.0103203
50
82.0002792
51
90.0009204
0
LINE
8
DEFAULT_255_2_778
10
19.4904074
20
31.8067412
11
18.5530074
21
31.8189412
0
LINE
8
DEFAULT_255_2_778
10
18.5530074
20
31.8189412
11
18.5530074
21
19.7414412
0
LINE
8
DEFAULT_255_2_778
10
18.5530074
20
19.7414412
11
19.4904074
21
19.7536412
0
LINE
8
DEFAULT_255_2_778
10
19.4904074
20
19.7536412
11
19.4904074
21
31.8067412
0
LINE
8
DEFAULT_255_2_778
10
18.5532074
20
111.5333412
11
17.5531074
21
111.5177412
0
LINE
8
DEFAULT_255_2_778
10
17.5531074
20
111.5177412
11
17.5531074
21
123.6436412
0
LINE
8
DEFAULT_255_2_778
10
17.5531074
20
123.6436412
11
19.4907074
21
123.6131412
0
LINE
8
DEFAULT_255_2_778
10
19.4907074
20
123.6131412
11
19.4907074
21
111.5479412
0
LINE
8
DEFAULT_255_2_778
10
19.4907074
20
111.5479412
11
18.5532074
21
111.5330412
0
LINE
8
DEFAULT_255_2_778
10
18.5532074
20
111.5330412
11
18.5532074
21
123.6277412
0
LINE
8
DEFAULT_255_2_778
10
17.4531074
20
123.9304412
11
20.4532074
21
123.9304412
0
LINE
8
DEFAULT_255_2_778
10
20.4532074
20
123.9304412
11
20.4532074
21
111.2304412
0
LINE
8
DEFAULT_255_2_778
10
20.4532074
20
111.2304412
11
17.4531074
21
111.2304412
0
LINE
8
DEFAULT_255_2_778
10
17.4531074
20
111.2304412
11
17.4531074
21
123.9304412
0
LINE
8
DEFAULT_255_2_778
10
99.4205074
20
125.3803412
11
98.8373074
21
127.5567412
0
LINE
8
DEFAULT_255_2_778
10
99.4204814
20
125.3803534
11
100.6531814
21
120.7802534
0
LINE
8
DEFAULT_255_2_778
10
100.6531814
20
120.7802534
11
100.6531814
21
-0.2197466
0
LINE
8
DEFAULT_255_2_778
10
100.6531814
20
-0.2197466
11
90.1531814
21
-0.2197466
0
LINE
8
DEFAULT_255_2_778
10
90.1531814
20
-0.2197466
11
90.1531814
21
0.2803534
0
LINE
8
DEFAULT_255_2_778
10
90.1531814
20
0.2803534
11
88.1532814
21
0.2803534
0
LINE
8
DEFAULT_255_2_778
10
88.1532814
20
0.2803534
11
88.1532814
21
-0.2197466
0
LINE
8
DEFAULT_255_2_778
10
88.1532814
20
-0.2197466
11
86.1532814
21
-0.2197466
0
LINE
8
DEFAULT_255_2_778
10
86.1532814
20
-0.2197466
11
86.1532814
21
0.2803534
0
LINE
8
DEFAULT_255_2_778
10
86.1532814
20
0.2803534
11
56.1531814
21
0.2803534
0
LINE
8
DEFAULT_255_2_778
10
56.1531814
20
0.2803534
11
56.1531814
21
-0.2197466
0
LINE
8
DEFAULT_255_2_778
10
56.1531814
20
-0.2197466
11
54.1531814
21
-0.2197466
0
LINE
8
DEFAULT_255_2_778
10
54.1531814
20
-0.2197466
11
54.1531814
21
0.2803534
0
LINE
8
DEFAULT_255_2_778
10
54.1531814
20
0.2803534
11
52.1532814
21
0.2803534
0
LINE
8
DEFAULT_255_2_778
10
52.1532814
20
0.2803534
11
52.1532814
21
-0.2197466
0
LINE
8
DEFAULT_255_2_778
10
52.1532814
20
-0.2197466
11
50.1532814
21
-0.2197466
0
LINE
8
DEFAULT_255_2_778
10
50.1532814
20
-0.2197466
11
50.1532814
21
0.2803534
0
LINE
8
DEFAULT_255_2_778
10
50.1532814
20
0.2803534
11
48.1532814
21
0.2803534
0
LINE
8
DEFAULT_255_2_778
10
48.1532814
20
0.2803534
11
48.1532814
21
-0.2197466
0
LINE
8
DEFAULT_255_2_778
10
48.1532814
20
-0.2197466
11
46.1532814
21
-0.2197466
0
LINE
8
DEFAULT_255_2_778
10
46.1532814
20
-0.2197466
11
46.1532814
21
0.2803534
0
LINE
8
DEFAULT_255_2_778
10
46.1532814
20
0.2803534
11
44.1532814
21
0.2803534
0
LINE
8
DEFAULT_255_2_778
10
44.1532814
20
0.2803534
11
44.1532814
21
-0.2197466
0
LINE
8
DEFAULT_255_2_778
10
44.1532814
20
-0.2197466
11
42.1532814
21
-0.2197466
0
LINE
8
DEFAULT_255_2_778
10
42.1532814
20
-0.2197466
11
42.1532814
21
0.2803534
0
LINE
8
DEFAULT_255_2_778
10
42.1532814
20
0.2803534
11
40.1532814
21
0.2803534
0
LINE
8
DEFAULT_255_2_778
10
40.1532814
20
0.2803534
11
40.1532814
21
-0.2197466
0
LINE
8
DEFAULT_255_2_778
10
40.1532814
20
-0.2197466
11
38.1533814
21
-0.2197466
0
LINE
8
DEFAULT_255_2_778
10
38.1533814
20
-0.2197466
11
38.1533814
21
0.2803534
0
LINE
8
DEFAULT_255_2_778
10
38.1533814
20
0.2803534
11
36.1533814
21
0.2803534
0
LINE
8
DEFAULT_255_2_778
10
36.1533814
20
0.2803534
11
36.1533814
21
-0.2197466
0
LINE
8
DEFAULT_255_2_778
10
36.1533814
20
-0.2197466
11
34.1533814
21
-0.2197466
0
LINE
8
DEFAULT_255_2_778
10
34.1533814
20
-0.2197466
11
34.1533814
21
0.2803534
0
LINE
8
DEFAULT_255_2_778
10
34.1533814
20
0.2803534
11
20.1531814
21
0.2803534
0
LINE
8
DEFAULT_255_2_778
10
20.1531814
20
0.2803534
11
20.1531814
21
-0.2197466
0
LINE
8
DEFAULT_255_2_778
10
20.1531814
20
-0.2197466
11
18.1531814
21
-0.2197466
0
LINE
8
DEFAULT_255_2_778
10
18.1531814
20
-0.2197466
11
18.1531814
21
0.2803534
0
LINE
8
DEFAULT_255_2_778
10
18.1531814
20
0.2803534
11
16.1532814
21
0.2803534
0
LINE
8
DEFAULT_255_2_778
10
16.1532814
20
0.2803534
11
16.1532814
21
-0.2197466
0
LINE
8
DEFAULT_255_2_778
10
16.1532814
20
-0.2197466
11
13.5531814
21
-0.2197466
0
LINE
8
DEFAULT_255_2_778
10
13.5531814
20
-0.2197466
11
13.5531814
21
129.7803534
0
LINE
8
DEFAULT_255_2_778
10
13.5531814
20
129.7803534
11
16.1532814
21
129.7803534
0
LINE
8
DEFAULT_255_2_778
10
16.1532814
20
129.7803534
11
16.1532814
21
129.2802534
0
LINE
8
DEFAULT_255_2_778
10
16.1532814
20
129.2802534
11
18.1531814
21
129.2802534
0
LINE
8
DEFAULT_255_2_778
10
18.1531814
20
129.2802534
11
18.1531814
21
129.7803534
0
LINE
8
DEFAULT_255_2_778
10
18.1531814
20
129.7803534
11
20.1531814
21
129.7803534
0
LINE
8
DEFAULT_255_2_778
10
20.1531814
20
129.7803534
11
20.1531814
21
129.2802534
0
LINE
8
DEFAULT_255_2_778
10
20.1531814
20
129.2802534
11
86.1532814
21
129.2802534
0
LINE
8
DEFAULT_255_2_778
10
86.1532814
20
129.2802534
11
86.1532814
21
129.7803534
0
LINE
8
DEFAULT_255_2_778
10
86.1532814
20
129.7803534
11
88.1532814
21
129.7803534
0
LINE
8
DEFAULT_255_2_778
10
88.1532814
20
129.7803534
11
88.1532814
21
129.2802534
0
LINE
8
DEFAULT_255_2_778
10
88.1532814
20
129.2802534
11
90.1531814
21
129.2802534
0
LINE
8
DEFAULT_255_2_778
10
90.1531814
20
129.2802534
11
90.1531814
21
129.7803534
0
LINE
8
DEFAULT_255_2_778
10
90.1531814
20
129.7803534
11
95.9396814
21
129.7803534
0
ENDSEC
0
EOF