0
SECTION
2
HEADER
9
$MEASUREMENT
70
1
0
ENDSEC
0
SECTION
2
TABLES
0
TABLE
2
LTYPE
0
LTYPE
72
65
70
64
2
CONTINUOUS
3
______
73
0
40
0
0
ENDTAB
0
TABLE
2
LAYER
0
LAYER
2
DEFAULT_255_2_778
70
0
62
255
6
CONTINUOUS
0
ENDTAB
0
ENDSEC
0
SECTION
2
ENTITIES
0
LINE
8
DEFAULT_255_2_778
10
34.7125609
20
129.7803534
11
0.2124609
21
129.7803534
0
LINE
8
DEFAULT_255_2_778
10
0.2124609
20
129.7803534
11
0.2124609
21
-0.2197466
0
LINE
8
DEFAULT_255_2_778
10
0.2124609
20
-0.2197466
11
34.7125609
21
-0.2197466
0
LINE
8
DEFAULT_255_2_778
10
34.7125609
20
-0.2197466
11
34.7125609
21
129.7803534
0
LINE
8
DEFAULT_255_2_778
10
0.2124609
20
1.7803135
11
34.7125609
21
1.7803135
0
LINE
8
DEFAULT_255_2_778
10
15.7162609
20
4.6203135
11
15.7162609
21
5.6204135
0
LINE
8
DEFAULT_255_2_778
10
15.3574609
20
5.6204135
11
15.3574609
21
5.6715135
0
LINE
8
DEFAULT_255_2_778
10
25.6161127
20
4.6203042
11
25.6161127
21
5.6204042
0
LINE
8
DEFAULT_255_2_778
10
14.1324127
20
34.1602042
11
13.1323127
21
35.1604042
0
LINE
8
DEFAULT_255_2_778
10
13.1323127
20
35.1604042
11
13.1323127
21
42.7904042
0
LINE
8
DEFAULT_255_2_778
10
13.1323127
20
42.7904042
11
14.1324127
21
43.7905042
0
LINE
8
DEFAULT_255_2_778
10
25.9712127
20
5.6204042
11
25.9712127
21
5.6715042
0
LINE
8
DEFAULT_255_2_778
10
9.1024127
20
67.9756042
11
15.3725127
21
67.9756042
0
LINE
8
DEFAULT_255_2_778
10
15.3725127
20
67.9756042
11
15.3725127
21
69.6155042
0
LINE
8
DEFAULT_255_2_778
10
15.3725127
20
78.5356042
11
15.3725127
21
80.1755042
0
LINE
8
DEFAULT_255_2_778
10
15.3725127
20
80.1755042
11
9.1024127
21
80.1755042
0
LINE
8
DEFAULT_255_2_778
10
18.6324866
20
66.4102488
11
17.6323866
21
67.4103488
0
LINE
8
DEFAULT_255_2_778
10
17.6323866
20
67.4103488
11
17.6323866
21
80.7403488
0
LINE
8
DEFAULT_255_2_778
10
17.6323866
20
80.7403488
11
9.1024866
21
80.7403488
0
LINE
8
DEFAULT_255_2_778
10
9.1024866
20
80.7403488
11
9.1024866
21
67.4103488
0
LINE
8
DEFAULT_255_2_778
10
9.1024866
20
67.4103488
11
17.6323866
21
67.4103488
0
LINE
8
DEFAULT_255_2_778
10
17.6323241
20
80.740179
11
18.6325241
21
81.740279
0
LINE
8
DEFAULT_255_2_778
10
18.6325241
20
81.740279
11
18.6325241
21
66.410279
0
LINE
8
DEFAULT_255_2_778
10
18.6325241
20
66.410279
11
8.1023241
21
66.410279
0
LINE
8
DEFAULT_255_2_778
10
8.1023241
20
66.410279
11
8.1023241
21
81.740279
0
LINE
8
DEFAULT_255_2_778
10
8.1023241
20
81.740279
11
18.6322241
21
81.740279
0
LINE
8
DEFAULT_255_2_778
10
9.1024544
20
67.4104395
11
8.1023544
21
66.4102395
0
LINE
8
DEFAULT_255_2_778
10
8.1023544
20
81.7402395
11
9.1024544
21
80.7401395
0
LINE
8
DEFAULT_255_2_778
10
27.6624544
20
29.6715395
11
13.6625544
21
29.6715395
0
LINE
8
DEFAULT_255_2_778
10
13.6625544
20
29.6715395
11
13.6625544
21
5.6714395
0
LINE
8
DEFAULT_255_2_778
10
13.6625544
20
5.6714395
11
27.6624544
21
5.6714395
0
LINE
8
DEFAULT_255_2_778
10
27.6624544
20
5.6714395
11
27.6624544
21
29.6715395
0
LINE
8
DEFAULT_255_2_778
10
28.0974544
20
3.6201395
11
28.0974544
21
31.6202395
0
LINE
8
DEFAULT_255_2_778
10
28.0974544
20
31.6202395
11
13.2275544
21
31.6202395
0
LINE
8
DEFAULT_255_2_778
10
13.2275544
20
31.6202395
11
13.2275544
21
3.6201395
0
LINE
8
DEFAULT_255_2_778
10
13.2275544
20
3.6201395
11
28.0974544
21
3.6201395
0
LINE
8
DEFAULT_255_2_778
10
26.6660439
20
5.6204
11
14.6661439
21
5.6204
0
LINE
8
DEFAULT_255_2_778
10
26.6660439
20
5.6714371
11
26.6660439
21
4.6202371
0
LINE
8
DEFAULT_255_2_778
10
26.6660439
20
4.6202371
11
14.6661439
21
4.6202371
0
LINE
8
DEFAULT_255_2_778
10
14.6661439
20
4.6202371
11
14.6661439
21
5.6714371
0
LINE
8
DEFAULT_255_2_778
10
25.6161439
20
29.6715371
11
25.6161439
21
30.6203371
0
LINE
8
DEFAULT_255_2_778
10
15.7162586
20
29.6716175
11
15.7162586
21
30.6204175
0
LINE
8
DEFAULT_255_2_778
10
26.6660586
20
29.6716175
11
26.6660586
21
30.6204175
0
LINE
8
DEFAULT_255_2_778
10
26.6660586
20
30.6204175
11
14.6661586
21
30.6204175
0
LINE
8
DEFAULT_255_2_778
10
14.6661586
20
30.6204175
11
14.6661586
21
29.6716175
0
LINE
8
DEFAULT_255_2_778
10
13.1325586
20
42.7904175
11
9.8025586
21
42.7904175
0
LINE
8
DEFAULT_255_2_778
10
10.8674586
20
39.2204175
11
12.0673586
21
39.2204175
0
LINE
8
DEFAULT_255_2_778
10
12.0673586
20
39.2204175
11
12.0673586
21
40.7203175
0
LINE
8
DEFAULT_255_2_778
10
12.0673586
20
40.7203175
11
10.8674586
21
40.7203175
0
LINE
8
DEFAULT_255_2_778
10
10.8674586
20
40.7203175
11
10.8674586
21
39.2204175
0
LINE
8
DEFAULT_255_2_778
10
9.8025586
20
35.1603175
11
13.1325586
21
35.1603175
0
LINE
8
DEFAULT_255_2_778
10
8.8024609
20
43.7902
11
8.8024609
21
34.1602
0
LINE
8
DEFAULT_255_2_778
10
8.8024609
20
34.1602
11
9.8025609
21
35.1603
0
LINE
8
DEFAULT_255_2_778
10
9.8025609
20
35.1603
11
9.8025609
21
42.7904
0
LINE
8
DEFAULT_255_2_778
10
9.8025609
20
42.7904
11
8.8024609
21
43.7905
0
LINE
8
DEFAULT_255_2_778
10
8.8024609
20
43.7905
11
14.1324609
21
43.7905
0
LINE
8
DEFAULT_255_2_778
10
14.1324609
20
43.7905
11
14.1324609
21
34.1605
0
LINE
8
DEFAULT_255_2_778
10
14.1324609
20
34.1605
11
8.8024609
21
34.1605
0
LINE
8
DEFAULT_255_2_778
10
0.2124609
20
107.7792
11
34.7125609
21
107.7792
0
LINE
8
DEFAULT_255_2_778
10
0.2124609
20
107.8792
11
34.7125609
21
107.8792
0
LINE
8
DEFAULT_255_2_778
10
15.3725609
20
75.9953
11
15.3725609
21
77.2354
0
LINE
8
DEFAULT_255_2_778
10
15.3725609
20
70.9153
11
15.3725609
21
72.1554
0
LINE
8
DEFAULT_255_2_778
10
15.3725609
20
73.4553
11
15.3725609
21
74.6954
0
LINE
8
DEFAULT_255_2_778
10
15.4725375
20
78.5353489
11
14.4724375
21
78.5353489
0
LINE
8
DEFAULT_255_2_778
10
14.4724375
20
78.5353489
11
14.4724375
21
77.2354489
0
LINE
8
DEFAULT_255_2_778
10
14.4724375
20
77.2354489
11
15.4725375
21
77.2354489
0
LINE
8
DEFAULT_255_2_778
10
15.4725375
20
77.2354489
11
15.4725375
21
78.5353489
0
LINE
8
DEFAULT_255_2_778
10
15.4725375
20
75.9953489
11
14.4724375
21
75.9953489
0
LINE
8
DEFAULT_255_2_778
10
14.4724375
20
75.9953489
11
14.4724375
21
74.6954489
0
LINE
8
DEFAULT_255_2_778
10
14.4724375
20
74.6954489
11
15.4725375
21
74.6954489
0
LINE
8
DEFAULT_255_2_778
10
15.4725375
20
74.6954489
11
15.4725375
21
75.9953489
0
LINE
8
DEFAULT_255_2_778
10
15.4725375
20
70.9153489
11
14.4724375
21
70.9153489
0
LINE
8
DEFAULT_255_2_778
10
14.4724375
20
70.9153489
11
14.4724375
21
69.6154489
0
LINE
8
DEFAULT_255_2_778
10
14.4724375
20
69.6154489
11
15.4725375
21
69.6154489
0
LINE
8
DEFAULT_255_2_778
10
15.4725375
20
69.6154489
11
15.4725375
21
70.9153489
0
LINE
8
DEFAULT_255_2_778
10
15.4725375
20
73.4553489
11
14.4724375
21
73.4553489
0
LINE
8
DEFAULT_255_2_778
10
14.4724375
20
73.4553489
11
14.4724375
21
72.1554489
0
LINE
8
DEFAULT_255_2_778
10
14.4724375
20
72.1554489
11
15.4725375
21
72.1554489
0
LINE
8
DEFAULT_255_2_778
10
15.4725375
20
72.1554489
11
15.4725375
21
73.4553489
0
ARC
8
DEFAULT_255_2_778
10
11.5084446
20
88.2721096
40
2.1786749
50
179.9394393
51
202.9087173
0
ARC
8
DEFAULT_255_2_778
10
11.5169935
20
88.2775285
40
2.1886597
50
202.9522706
51
259.850198
0
ARC
8
DEFAULT_255_2_778
10
11.5142932
20
88.2885593
40
2.199047
50
259.970101
51
270.0098403
0
ARC
8
DEFAULT_255_2_778
10
11.5169669
20
88.2682968
40
2.1787856
50
269.9396227
51
292.9081287
0
ARC
8
DEFAULT_255_2_778
10
11.5115923
20
88.2768247
40
2.1887338
50
292.9508278
51
349.8481603
0
ARC
8
DEFAULT_255_2_778
10
11.5008056
20
88.274038
40
2.1988655
50
349.9691775
51
0.0097553
0
LINE
8
DEFAULT_255_2_778
10
12.3674709
20
94.2143124
11
11.5162709
21
92.7400124
0
LINE
8
DEFAULT_255_2_778
10
11.5162709
20
92.7400124
11
10.6651709
21
94.2143124
0
LINE
8
DEFAULT_255_2_778
10
10.6651709
20
94.2143124
11
9.3297709
21
94.2143124
0
LINE
8
DEFAULT_255_2_778
10
9.3297709
20
94.2143124
11
9.3297709
21
88.2744124
0
LINE
8
DEFAULT_255_2_778
10
13.6996709
20
88.2744124
11
13.6996709
21
94.2143124
0
LINE
8
DEFAULT_255_2_778
10
13.6996709
20
94.2143124
11
12.3674709
21
94.2143124
0
ARC
8
DEFAULT_255_2_778
10
11.5136963
20
88.2737855
40
3.7008151
50
53.7919442
51
67.0182141
0
ARC
8
DEFAULT_255_2_778
10
11.5156409
20
88.2743838
40
3.6995053
50
67.0423214
51
90.0131991
0
ARC
8
DEFAULT_255_2_778
10
11.5139364
20
88.2743838
40
3.6995054
50
89.9868009
51
112.9576786
0
ARC
8
DEFAULT_255_2_778
10
11.5158809
20
88.2737855
40
3.700815
50
112.9817859
51
126.2080558
0
ARC
8
DEFAULT_255_2_778
10
23.5086123
20
88.2721096
40
2.1786749
50
179.9394393
51
202.9087173
0
ARC
8
DEFAULT_255_2_778
10
23.5171612
20
88.2775285
40
2.1886597
50
202.9522706
51
259.850198
0
ARC
8
DEFAULT_255_2_778
10
23.5144609
20
88.2885593
40
2.199047
50
259.970101
51
270.0098403
0
ARC
8
DEFAULT_255_2_778
10
23.5171346
20
88.2682968
40
2.1787856
50
269.9396227
51
292.9081287
0
ARC
8
DEFAULT_255_2_778
10
23.51176
20
88.2768247
40
2.1887338
50
292.9508278
51
349.8481603
0
ARC
8
DEFAULT_255_2_778
10
23.5009733
20
88.274038
40
2.1988655
50
349.9691775
51
0.0097553
0
LINE
8
DEFAULT_255_2_778
10
25.7000386
20
94.2143124
11
24.3676386
21
94.2143124
0
LINE
8
DEFAULT_255_2_778
10
24.3676386
20
94.2143124
11
23.5164386
21
92.7400124
0
LINE
8
DEFAULT_255_2_778
10
23.5164386
20
92.7400124
11
22.6653386
21
94.2143124
0
LINE
8
DEFAULT_255_2_778
10
22.6653386
20
94.2143124
11
21.3299386
21
94.2143124
0
LINE
8
DEFAULT_255_2_778
10
21.3299386
20
94.2143124
11
21.3299386
21
88.2744124
0
LINE
8
DEFAULT_255_2_778
10
25.6998386
20
88.2744124
11
25.6998386
21
94.2143124
0
ARC
8
DEFAULT_255_2_778
10
23.5138963
20
88.2737855
40
3.7008151
50
53.7919442
51
67.0182141
0
ARC
8
DEFAULT_255_2_778
10
23.5158409
20
88.2743838
40
3.6995053
50
67.0423214
51
90.0131991
0
ARC
8
DEFAULT_255_2_778
10
23.5141364
20
88.2743838
40
3.6995054
50
89.9868009
51
112.9576786
0
ARC
8
DEFAULT_255_2_778
10
23.5160809
20
88.2737855
40
3.700815
50
112.9817859
51
126.2080558
0
ARC
8
DEFAULT_255_2_778
10
23.5138963
20
100.2739855
40
3.7008151
50
53.7919442
51
67.0182141
0
ARC
8
DEFAULT_255_2_778
10
23.5158409
20
100.2745838
40
3.6995053
50
67.0423214
51
90.0131991
0
ARC
8
DEFAULT_255_2_778
10
23.5141364
20
100.2745838
40
3.6995054
50
89.9868009
51
112.9576786
0
ARC
8
DEFAULT_255_2_778
10
23.5160809
20
100.2739855
40
3.700815
50
112.9817859
51
126.2080558
0
ARC
8
DEFAULT_255_2_778
10
23.5086123
20
100.2720096
40
2.1786749
50
179.9394393
51
202.9087173
0
ARC
8
DEFAULT_255_2_778
10
23.5171612
20
100.2774285
40
2.1886597
50
202.9522706
51
259.850198
0
ARC
8
DEFAULT_255_2_778
10
23.5144609
20
100.2884593
40
2.199047
50
259.970101
51
270.0098403
0
ARC
8
DEFAULT_255_2_778
10
23.5171346
20
100.2681968
40
2.1787856
50
269.9396227
51
292.9081287
0
ARC
8
DEFAULT_255_2_778
10
23.51176
20
100.2767247
40
2.1887338
50
292.9508278
51
349.8481603
0
ARC
8
DEFAULT_255_2_778
10
23.5009733
20
100.273938
40
2.1988655
50
349.9691775
51
0.0097553
0
LINE
8
DEFAULT_255_2_778
10
25.7000386
20
106.2142124
11
24.3676386
21
106.2142124
0
LINE
8
DEFAULT_255_2_778
10
24.3676386
20
106.2142124
11
23.5164386
21
104.7399124
0
LINE
8
DEFAULT_255_2_778
10
23.5164386
20
104.7399124
11
22.6653386
21
106.2142124
0
LINE
8
DEFAULT_255_2_778
10
22.6653386
20
106.2142124
11
21.3299386
21
106.2142124
0
LINE
8
DEFAULT_255_2_778
10
21.3299386
20
106.2142124
11
21.3299386
21
100.2743124
0
LINE
8
DEFAULT_255_2_778
10
25.6998386
20
100.2743124
11
25.6998386
21
106.2142124
0
LINE
8
DEFAULT_255_2_778
10
13.6911417
20
110.2792552
11
13.6911417
21
111.6791552
0
LINE
8
DEFAULT_255_2_778
10
13.6911417
20
111.6791552
11
12.2412417
21
111.6791552
0
LINE
8
DEFAULT_255_2_778
10
12.2412417
20
111.6791552
11
12.2412417
21
110.2792552
0
LINE
8
DEFAULT_255_2_778
10
12.2412417
20
110.2792552
11
13.6911417
21
110.2792552
0
LINE
8
DEFAULT_255_2_778
10
13.6911417
20
114.6792552
11
12.2412417
21
114.6792552
0
LINE
8
DEFAULT_255_2_778
10
12.2412417
20
114.6792552
11
12.2412417
21
113.2793552
0
LINE
8
DEFAULT_255_2_778
10
12.2412417
20
113.2793552
11
13.6911417
21
113.2793552
0
LINE
8
DEFAULT_255_2_778
10
13.6911417
20
113.2793552
11
13.6911417
21
114.6792552
0
LINE
8
DEFAULT_255_2_778
10
22.6911417
20
110.2792552
11
22.6911417
21
111.6791552
0
LINE
8
DEFAULT_255_2_778
10
22.6911417
20
111.6791552
11
21.2412417
21
111.6791552
0
LINE
8
DEFAULT_255_2_778
10
21.2412417
20
111.6791552
11
21.2412417
21
110.2792552
0
LINE
8
DEFAULT_255_2_778
10
21.2412417
20
110.2792552
11
22.6911417
21
110.2792552
0
LINE
8
DEFAULT_255_2_778
10
22.6911417
20
114.6792552
11
21.2412417
21
114.6792552
0
LINE
8
DEFAULT_255_2_778
10
21.2412417
20
114.6792552
11
21.2412417
21
113.2793552
0
LINE
8
DEFAULT_255_2_778
10
21.2412417
20
113.2793552
11
22.6911417
21
113.2793552
0
LINE
8
DEFAULT_255_2_778
10
22.6911417
20
113.2793552
11
22.6911417
21
114.6792552
0
LINE
8
DEFAULT_255_2_778
10
22.6911417
20
116.2792552
11
22.6911417
21
117.6791552
0
LINE
8
DEFAULT_255_2_778
10
22.6911417
20
117.6791552
11
21.2412417
21
117.6791552
0
LINE
8
DEFAULT_255_2_778
10
21.2412417
20
117.6791552
11
21.2412417
21
116.2792552
0
LINE
8
DEFAULT_255_2_778
10
21.2412417
20
116.2792552
11
22.6911417
21
116.2792552
0
LINE
8
DEFAULT_255_2_778
10
22.6911417
20
120.6792552
11
21.2412417
21
120.6792552
0
LINE
8
DEFAULT_255_2_778
10
21.2412417
20
120.6792552
11
21.2412417
21
119.2793552
0
LINE
8
DEFAULT_255_2_778
10
21.2412417
20
119.2793552
11
22.6911417
21
119.2793552
0
LINE
8
DEFAULT_255_2_778
10
22.6911417
20
119.2793552
11
22.6911417
21
120.6792552
0
LINE
8
DEFAULT_255_2_778
10
13.6911417
20
122.2794552
11
13.6911417
21
123.6793552
0
LINE
8
DEFAULT_255_2_778
10
13.6911417
20
123.6793552
11
12.2412417
21
123.6793552
0
LINE
8
DEFAULT_255_2_778
10
12.2412417
20
123.6793552
11
12.2412417
21
122.2794552
0
LINE
8
DEFAULT_255_2_778
10
12.2412417
20
122.2794552
11
13.6911417
21
122.2794552
0
LINE
8
DEFAULT_255_2_778
10
13.6911417
20
116.2792552
11
13.6911417
21
117.6791552
0
LINE
8
DEFAULT_255_2_778
10
13.6911417
20
117.6791552
11
12.2412417
21
117.6791552
0
LINE
8
DEFAULT_255_2_778
10
12.2412417
20
117.6791552
11
12.2412417
21
116.2792552
0
LINE
8
DEFAULT_255_2_778
10
12.2412417
20
116.2792552
11
13.6911417
21
116.2792552
0
LINE
8
DEFAULT_255_2_778
10
13.6911417
20
120.6792552
11
12.2412417
21
120.6792552
0
LINE
8
DEFAULT_255_2_778
10
12.2412417
20
120.6792552
11
12.2412417
21
119.2793552
0
LINE
8
DEFAULT_255_2_778
10
12.2412417
20
119.2793552
11
13.6911417
21
119.2793552
0
LINE
8
DEFAULT_255_2_778
10
13.6911417
20
119.2793552
11
13.6911417
21
120.6792552
0
ENDSEC
0
EOF