0
SECTION
2
HEADER
9
$MEASUREMENT
70
1
0
ENDSEC
0
SECTION
2
TABLES
0
TABLE
2
LTYPE
0
LTYPE
72
65
70
64
2
CONTINUOUS
3
______
73
0
40
0
0
ENDTAB
0
TABLE
2
LAYER
0
LAYER
2
DEFAULT_255_2_778
70
0
62
255
6
CONTINUOUS
0
LAYER
2
DEFAULT_255_1_388
70
0
62
255
6
CONTINUOUS
0
ENDTAB
0
ENDSEC
0
SECTION
2
ENTITIES
0
ARC
8
DEFAULT_255_2_778
10
3.5700693
20
20.2426538
40
0.7914215
50
129.1312896
51
180.1450914
0
ARC
8
DEFAULT_255_2_778
10
3.5703345
20
20.2431409
40
0.7912112
50
89.854026
51
129.1684493
0
ARC
8
DEFAULT_255_2_778
10
25.7993937
20
20.2428275
40
0.7915249
50
39.4792447
51
90.147911
0
ARC
8
DEFAULT_255_2_778
10
25.7999935
20
20.2426741
40
0.7911595
50
359.8533901
51
39.5154338
0
ARC
8
DEFAULT_255_2_778
10
25.7996693
20
-1.9863985
40
0.7914836
50
309.4761667
51
0.1482649
0
ARC
8
DEFAULT_255_2_778
10
25.799398
20
-1.9868295
40
0.7913235
50
269.8517415
51
309.511178
0
ARC
8
DEFAULT_255_2_778
10
3.570342
20
-1.9867714
40
0.7913815
50
219.1282118
51
270.1454017
0
ARC
8
DEFAULT_255_2_778
10
3.5700247
20
-1.9863889
40
0.7913769
50
179.8524075
51
219.1641908
0
LINE
8
DEFAULT_255_2_778
10
3.5723503
20
21.0343497
11
25.7973503
21
21.0343497
0
LINE
8
DEFAULT_255_2_778
10
26.5911503
20
20.2406497
11
26.5911503
21
-1.9843503
0
LINE
8
DEFAULT_255_2_778
10
25.7973503
20
-2.7781503
11
3.5723503
21
-2.7781503
0
LINE
8
DEFAULT_255_2_778
10
2.7786503
20
-1.9843503
11
2.7786503
21
20.2406497
0
LINE
8
DEFAULT_255_1_388
10
9.562032
20
-0.2223532
11
9.7364199
21
-0.2223532
0
LINE
8
DEFAULT_255_1_388
10
8.7235242
20
-0.0434475
11
8.7235242
21
0.0830516
0
LINE
8
DEFAULT_255_1_388
10
9.7364199
20
0.2529217
11
9.562032
21
0.2529217
0
LINE
8
DEFAULT_255_1_388
10
8.8979121
20
0.0785337
11
8.8979121
21
-0.0488688
0
ARC
8
DEFAULT_255_1_388
10
9.1198433
20
-0.1551671
40
0.6202263
50
340.1774904
51
353.7812217
0
ARC
8
DEFAULT_255_1_388
10
9.2966286
20
-0.2210107
40
0.4315926
50
311.4560052
51
340.4420756
0
ARC
8
DEFAULT_255_1_388
10
9.2928826
20
-0.2085335
40
0.4434573
50
282.4332229
51
310.7514507
0
ARC
8
DEFAULT_255_1_388
10
9.2434644
20
-0.0043297
40
0.6535262
50
269.9358869
51
282.8096729
0
ARC
8
DEFAULT_255_1_388
10
9.2376583
20
0.1469329
40
0.8048043
50
269.9995752
51
270.3612856
0
ARC
8
DEFAULT_255_1_388
10
9.2317073
20
-0.1329219
40
0.5249831
50
250.7885263
51
270.6488451
0
ARC
8
DEFAULT_255_1_388
10
9.2127898
20
-0.2046147
40
0.4510942
50
219.3628377
51
250.0611024
0
ARC
8
DEFAULT_255_1_388
10
9.3060772
20
-0.1253347
40
0.5735046
50
193.5480293
51
219.5755675
0
ARC
8
DEFAULT_255_1_388
10
9.5728981
20
-0.056048
40
0.849146
50
181.1220183
51
193.8754971
0
ARC
8
DEFAULT_255_1_388
10
9.8052214
20
-0.0436086
40
1.0816971
50
179.9914644
51
181.5398227
0
ARC
8
DEFAULT_255_1_388
10
9.5975525
20
0.0872586
40
0.8740384
50
169.5837606
51
180.275782
0
ARC
8
DEFAULT_255_1_388
10
9.3908873
20
0.1254439
40
0.6638751
50
155.0367033
51
169.6002779
0
ARC
8
DEFAULT_255_1_388
10
9.2631331
20
0.1870336
40
0.5220662
50
136.7831557
51
155.2472983
0
ARC
8
DEFAULT_255_1_388
10
9.2193122
20
0.2242577
40
0.4646502
50
121.7633063
51
136.4281161
0
ARC
8
DEFAULT_255_1_388
10
9.2344962
20
0.1962049
40
0.4964979
50
95.6460018
51
121.5489589
0
ARC
8
DEFAULT_255_1_388
10
9.2521936
20
0.0714704
40
0.6223912
50
89.9245727
51
96.1375919
0
ARC
8
DEFAULT_255_1_388
10
9.2578641
20
0.0848721
40
0.6090084
50
76.6779212
51
90.456405
0
ARC
8
DEFAULT_255_1_388
10
9.3021454
20
0.263806
40
0.42469
50
47.4858803
51
76.9287069
0
ARC
8
DEFAULT_255_1_388
10
9.2856068
20
0.2525623
40
0.4441778
50
16.5424081
51
46.8934505
0
ARC
8
DEFAULT_255_1_388
10
9.1047118
20
0.1931265
40
0.6345318
50
5.4072971
51
17.0363711
0
ARC
8
DEFAULT_255_1_388
10
8.9428843
20
0.1671304
40
0.6250632
50
7.8888693
51
15.9242022
0
ARC
8
DEFAULT_255_1_388
10
9.1663828
20
0.2320309
40
0.3923364
50
15.7650676
51
27.9410069
0
ARC
8
DEFAULT_255_1_388
10
9.2905997
20
0.2985317
40
0.2514401
50
27.8167196
51
46.4007942
0
ARC
8
DEFAULT_255_1_388
10
9.2961839
20
0.2978882
40
0.2480958
50
47.4372362
51
75.0695672
0
ARC
8
DEFAULT_255_1_388
10
9.2614675
20
0.1770277
40
0.3738281
50
74.7009379
51
87.8124314
0
ARC
8
DEFAULT_255_1_388
10
9.2532292
20
0.0586659
40
0.4924321
50
87.3802571
51
90.0251599
0
ARC
8
DEFAULT_255_1_388
10
9.2488939
20
0.1906997
40
0.3604218
50
89.3451886
51
108.5744412
0
ARC
8
DEFAULT_255_1_388
10
9.2334931
20
0.2484836
40
0.3007661
50
109.2998307
51
143.3037387
0
ARC
8
DEFAULT_255_1_388
10
9.3192221
20
0.1825584
40
0.4089031
50
143.075267
51
163.1918576
0
ARC
8
DEFAULT_255_1_388
10
9.5388055
20
0.1132652
40
0.6391492
50
162.9375929
51
174.6208776
0
ARC
8
DEFAULT_255_1_388
10
9.8342437
20
0.0808711
40
0.9363344
50
174.342123
51
180.1430283
0
ARC
8
DEFAULT_255_1_388
10
9.7294978
20
-0.0534883
40
0.8315986
50
179.6817261
51
189.150555
0
ARC
8
DEFAULT_255_1_388
10
9.4481727
20
-0.1003441
40
0.5464044
50
188.9911061
51
203.5772363
0
ARC
8
DEFAULT_255_1_388
10
9.3267019
20
-0.1507461
40
0.4149206
50
203.9075402
51
215.1312435
0
ARC
8
DEFAULT_255_1_388
10
9.2228817
20
-0.2312093
40
0.2837747
50
213.9071511
51
263.8848919
0
ARC
8
DEFAULT_255_1_388
10
9.236981
20
-0.1429481
40
0.3730641
50
263.1757928
51
270.1031044
0
ARC
8
DEFAULT_255_1_388
10
9.240589
20
-0.0026489
40
0.5133712
50
269.6722503
51
279.0606936
0
ARC
8
DEFAULT_255_1_388
10
9.2706045
20
-0.184085
40
0.3294739
50
278.8749101
51
293.6349581
0
ARC
8
DEFAULT_255_1_388
10
9.3066249
20
-0.2686749
40
0.2375405
50
293.8553806
51
310.0518171
0
ARC
8
DEFAULT_255_1_388
10
9.3071758
20
-0.2756979
40
0.2318463
50
311.0644687
51
332.0111037
0
ARC
8
DEFAULT_255_1_388
10
9.1730431
20
-0.2017298
40
0.3850112
50
331.6586806
51
343.2877423
0
ARC
8
DEFAULT_255_1_388
10
8.9409896
20
-0.1304194
40
0.6277712
50
343.1446576
51
351.0103568
0
ARC
8
DEFAULT_255_1_388
10
8.777722
20
-0.1004127
40
0.7937327
50
350.71248
51
351.1626997
0
LINE
8
DEFAULT_255_1_388
10
10.8459971
20
0.2953892
11
10.6716091
21
0.2953892
0
LINE
8
DEFAULT_255_1_388
10
9.8927366
20
-0.2584958
11
10.0671245
21
-0.2584958
0
ARC
8
DEFAULT_255_1_388
10
10.7456818
20
1.3017821
40
1.4087688
50
248.9196578
51
254.1442424
0
ARC
8
DEFAULT_255_1_388
10
10.5566699
20
0.8151805
40
0.8867498
50
241.6337352
51
249.0064643
0
ARC
8
DEFAULT_255_1_388
10
10.3847012
20
0.5000764
40
0.5277799
50
230.4982261
51
241.8087583
0
ARC
8
DEFAULT_255_1_388
10
10.2964783
20
0.3876686
40
0.3849419
50
227.4062979
51
229.9877433
0
ARC
8
DEFAULT_255_1_388
10
10.2416129
20
0.3341155
40
0.3084129
50
200.6782127
51
228.1765252
0
ARC
8
DEFAULT_255_1_388
10
10.2497498
20
0.3324277
40
0.315461
50
179.506278
51
199.8695278
0
ARC
8
DEFAULT_255_1_388
10
10.2487087
20
0.3407671
40
0.3144584
50
132.4834401
51
181.0242352
0
ARC
8
DEFAULT_255_1_388
10
10.3156291
20
0.2775788
40
0.4063094
50
129.2526113
51
133.4249077
0
ARC
8
DEFAULT_255_1_388
10
10.3321884
20
0.2527619
40
0.436014
50
101.9878945
51
128.8741833
0
ARC
8
DEFAULT_255_1_388
10
10.3770299
20
0.059136
40
0.6347415
50
89.5906376
51
102.3170567
0
ARC
8
DEFAULT_255_1_388
10
10.3849611
20
0.0949586
40
0.5989122
50
77.2359491
51
90.3248968
0
ARC
8
DEFAULT_255_1_388
10
10.4082542
20
0.2037554
40
0.4876594
50
63.8379856
51
77.0808925
0
ARC
8
DEFAULT_255_1_388
10
10.4395075
20
0.2619882
40
0.4216191
50
45.9863127
51
64.1608798
0
ARC
8
DEFAULT_255_1_388
10
10.4688469
20
0.295499
40
0.3771394
50
32.2747934
51
45.6544796
0
ARC
8
DEFAULT_255_1_388
10
10.4763275
20
0.2976426
40
0.3696765
50
359.6507495
51
32.6129943
0
ARC
8
DEFAULT_255_1_388
10
10.3702458
20
0.2981788
40
0.3013762
50
359.469654
51
14.983205
0
ARC
8
DEFAULT_255_1_388
10
10.449571
20
0.3194288
40
0.2192542
50
14.9781954
51
48.2004799
0
ARC
8
DEFAULT_255_1_388
10
10.4310821
20
0.2961937
40
0.2489048
50
48.5926661
51
74.1242559
0
ARC
8
DEFAULT_255_1_388
10
10.3935624
20
0.1723607
40
0.3782845
50
73.7889321
51
86.6653996
0
ARC
8
DEFAULT_255_1_388
10
10.3820438
20
0.0365955
40
0.5145025
50
86.2642725
51
90.0533288
0
ARC
8
DEFAULT_255_1_388
10
10.3788531
20
0.0810376
40
0.4700681
50
89.669455
51
99.2313411
0
ARC
8
DEFAULT_255_1_388
10
10.3515691
20
0.2435401
40
0.3052945
50
99.0695987
51
113.7659242
0
ARC
8
DEFAULT_255_1_388
10
10.3207685
20
0.3161772
40
0.226407
50
114.0402885
51
127.9848946
0
ARC
8
DEFAULT_255_1_388
10
10.2937161
20
0.3494884
40
0.1835045
50
127.7287217
51
176.7106493
0
ARC
8
DEFAULT_255_1_388
10
10.3700826
20
0.338121
40
0.2604907
50
175.1780759
51
180.0581213
0
ARC
8
DEFAULT_255_1_388
10
10.275217
20
0.3367411
40
0.1656287
50
179.6140658
51
228.124674
0
ARC
8
DEFAULT_255_1_388
10
10.3249527
20
0.382794
40
0.2332038
50
226.5785315
51
230.8792476
0
ARC
8
DEFAULT_255_1_388
10
10.3779014
20
0.4530908
40
0.3211664
50
231.4636401
51
241.9261664
0
ARC
8
DEFAULT_255_1_388
10
10.5125797
20
0.7009349
40
0.6032345
50
241.7177136
51
248.3259138
0
ARC
8
DEFAULT_255_1_388
10
10.6684392
20
1.0870771
40
1.0196417
50
248.2007377
51
252.4527713
0
ARC
8
DEFAULT_255_1_388
10
10.8037919
20
1.5055092
40
1.4594143
50
252.3388938
51
254.347037
0
ARC
8
DEFAULT_255_1_388
10
9.9553219
20
-1.5292905
40
1.6917621
50
71.0197462
51
74.4085467
0
ARC
8
DEFAULT_255_1_388
10
10.1460307
20
-0.9787856
40
1.1091618
50
66.1845203
51
71.086519
0
ARC
8
DEFAULT_255_1_388
10
10.3210856
20
-0.5846561
40
0.6779073
50
59.3537334
51
66.269255
0
ARC
8
DEFAULT_255_1_388
10
10.4210582
20
-0.4155223
40
0.4814366
50
49.1021732
51
59.3294421
0
ARC
8
DEFAULT_255_1_388
10
10.513157
20
-0.3105425
40
0.3417875
50
32.7924183
51
49.2503526
0
ARC
8
DEFAULT_255_1_388
10
10.5481185
20
-0.2855689
40
0.2988789
50
31.121225
51
32.3977355
0
ARC
8
DEFAULT_255_1_388
10
10.5393363
20
-0.2888272
40
0.3080861
50
8.1116803
51
30.7958224
0
ARC
8
DEFAULT_255_1_388
10
10.4481708
20
-0.3043563
40
0.4005385
50
359.8390945
51
8.4707348
0
ARC
8
DEFAULT_255_1_388
10
10.5185756
20
-0.3098249
40
0.3301608
50
337.4732479
51
0.7538283
0
ARC
8
DEFAULT_255_1_388
10
10.5386781
20
-0.3120446
40
0.3107929
50
307.5917028
51
336.4313755
0
ARC
8
DEFAULT_255_1_388
10
10.4875839
20
-0.2552491
40
0.3870096
50
307.6560665
51
308.4561779
0
ARC
8
DEFAULT_255_1_388
10
10.4610055
20
-0.2144168
40
0.435591
50
284.3733666
51
307.1426212
0
ARC
8
DEFAULT_255_1_388
10
10.4052949
20
-0.0094609
40
0.6479685
50
272.4384566
51
284.6464689
0
ARC
8
DEFAULT_255_1_388
10
10.3910334
20
0.1929434
40
0.8508149
50
269.9708517
51
272.8180721
0
ARC
8
DEFAULT_255_1_388
10
10.3862017
20
-0.0362717
40
0.6216151
50
248.2707343
51
270.4054609
0
ARC
8
DEFAULT_255_1_388
10
10.3800888
20
-0.0577327
40
0.5994203
50
246.1380358
51
248.054058
0
ARC
8
DEFAULT_255_1_388
10
10.3330031
20
-0.1566295
40
0.4899388
50
233.1671897
51
246.4951656
0
ARC
8
DEFAULT_255_1_388
10
10.2706666
20
-0.2407863
40
0.3852115
50
215.3403381
51
233.084328
0
ARC
8
DEFAULT_255_1_388
10
10.240003
20
-0.2630907
40
0.3472969
50
179.2419235
51
215.2648426
0
ARC
8
DEFAULT_255_1_388
10
10.3263581
20
-0.2615021
40
0.259251
50
179.3355796
51
199.1045873
0
ARC
8
DEFAULT_255_1_388
10
10.2889723
20
-0.2712777
40
0.2207454
50
199.8830064
51
232.7061328
0
ARC
8
DEFAULT_255_1_388
10
10.3420997
20
-0.2044544
40
0.306101
50
232.3736206
51
255.5136621
0
ARC
8
DEFAULT_255_1_388
10
10.3804503
20
-0.0644823
40
0.4512213
50
255.2447928
51
267.5318292
0
ARC
8
DEFAULT_255_1_388
10
10.390297
20
0.0741709
40
0.5901825
50
267.1564563
51
270.0294721
0
ARC
8
DEFAULT_255_1_388
10
10.3934295
20
0.0242623
40
0.5402814
50
269.6999944
51
278.1662446
0
ARC
8
DEFAULT_255_1_388
10
10.4222323
20
-0.1704026
40
0.3435003
50
278.0229022
51
290.6255326
0
ARC
8
DEFAULT_255_1_388
10
10.4613489
20
-0.2747453
40
0.2320666
50
290.6616368
51
307.0374127
0
ARC
8
DEFAULT_255_1_388
10
10.4951389
20
-0.316196
40
0.1786372
50
306.3942078
51
355.303191
0
ARC
8
DEFAULT_255_1_388
10
10.4375682
20
-0.3075814
40
0.2367516
50
354.3662092
51
0.0709489
0
ARC
8
DEFAULT_255_1_388
10
10.4535551
20
-0.3050439
40
0.2207761
50
359.4175379
51
16.1975911
0
ARC
8
DEFAULT_255_1_388
10
10.5047669
20
-0.2910046
40
0.1676828
50
16.4721294
51
52.6261798
0
ARC
8
DEFAULT_255_1_388
10
10.4124177
20
-0.4129394
40
0.3206412
50
52.7381828
51
62.4979144
0
ARC
8
DEFAULT_255_1_388
10
10.2565929
20
-0.7061764
40
0.6527035
50
62.2517425
51
68.1219454
0
ARC
8
DEFAULT_255_1_388
10
10.0631417
20
-1.1816049
40
1.1659797
50
68.006043
51
71.8055127
0
ARC
8
DEFAULT_255_1_388
10
9.8611325
20
-1.7874277
40
1.8045908
50
71.718361
51
73.9260743
0
LINE
8
DEFAULT_255_1_388
10
11.5769807
20
0.6821148
11
11.5769807
21
-0.6398
0
LINE
8
DEFAULT_255_1_388
10
11.5769807
20
-0.6398
11
11.4089177
21
-0.6398
0
LINE
8
DEFAULT_255_1_388
10
11.4089177
20
-0.6398
11
11.4089177
21
0.474295
0
LINE
8
DEFAULT_255_1_388
10
11.4089177
20
0.474295
11
11.0718882
21
0.3505066
0
LINE
8
DEFAULT_255_1_388
10
11.0718882
20
0.3505066
11
11.0718882
21
0.5023055
0
LINE
8
DEFAULT_255_1_388
10
11.0718882
20
0.5023055
11
11.5507773
21
0.6821148
0
LINE
8
DEFAULT_255_1_388
10
11.5507773
20
0.6821148
11
11.5769807
21
0.6821148
0
LINE
8
DEFAULT_255_1_388
10
12.1859832
20
0.6757898
11
12.393803
21
-0.2250639
0
LINE
8
DEFAULT_255_1_388
10
12.393803
20
-0.2250639
11
12.4191028
21
-0.3985483
0
LINE
8
DEFAULT_255_1_388
10
12.4191028
20
-0.3985483
11
12.4561489
21
-0.2422316
0
LINE
8
DEFAULT_255_1_388
10
12.4561489
20
-0.2422316
11
12.7163755
21
0.6757898
0
LINE
8
DEFAULT_255_1_388
10
12.7163755
20
0.6757898
11
12.8627529
21
0.6757898
0
LINE
8
DEFAULT_255_1_388
10
12.8627529
20
0.6757898
11
13.1166545
21
-0.2422316
0
LINE
8
DEFAULT_255_1_388
10
13.1166545
20
-0.2422316
11
13.1527971
21
-0.401259
0
LINE
8
DEFAULT_255_1_388
10
13.1527971
20
-0.401259
11
13.1808076
21
-0.2241604
0
LINE
8
DEFAULT_255_1_388
10
13.1808076
20
-0.2241604
11
13.3850132
21
0.6757898
0
LINE
8
DEFAULT_255_1_388
10
13.3850132
20
0.6757898
11
13.5594011
21
0.6757898
0
LINE
8
DEFAULT_255_1_388
10
13.5594011
20
0.6757898
11
13.2404429
21
-0.6398
0
LINE
8
DEFAULT_255_1_388
10
13.2404429
20
-0.6398
11
13.0823191
21
-0.6398
0
LINE
8
DEFAULT_255_1_388
10
13.0823191
20
-0.6398
11
12.8112498
21
0.3188819
0
LINE
8
DEFAULT_255_1_388
10
12.8112498
20
0.3188819
11
12.7904678
21
0.4191775
0
LINE
8
DEFAULT_255_1_388
10
12.7904678
20
0.4191775
11
12.7696858
21
0.3188819
0
LINE
8
DEFAULT_255_1_388
10
12.7696858
20
0.3188819
11
12.4886772
21
-0.6398
0
LINE
8
DEFAULT_255_1_388
10
12.4886772
20
-0.6398
11
12.3305535
21
-0.6398
0
LINE
8
DEFAULT_255_1_388
10
12.3305535
20
-0.6398
11
12.0124988
21
0.6757898
0
LINE
8
DEFAULT_255_1_388
10
12.0124988
20
0.6757898
11
12.1859832
21
0.6757898
0
LINE
8
DEFAULT_255_1_388
10
14.0193154
20
-0.0127263
11
14.0193154
21
-0.1491645
0
LINE
8
DEFAULT_255_1_388
10
14.0193154
20
-0.1491645
11
13.578376
21
-0.1491645
0
LINE
8
DEFAULT_255_1_388
10
13.578376
20
-0.1491645
11
13.578376
21
-0.0127263
0
LINE
8
DEFAULT_255_1_388
10
13.578376
20
-0.0127263
11
14.0193154
21
-0.0127263
0
LINE
8
DEFAULT_255_1_388
10
15.219249
20
0.6757898
11
15.219249
21
-0.6398
0
LINE
8
DEFAULT_255_1_388
10
15.219249
20
-0.6398
11
15.0448611
21
-0.6398
0
LINE
8
DEFAULT_255_1_388
10
15.0448611
20
-0.6398
11
14.3825483
21
0.3739993
0
LINE
8
DEFAULT_255_1_388
10
14.3825483
20
0.3739993
11
14.3825483
21
-0.6398
0
LINE
8
DEFAULT_255_1_388
10
14.3825483
20
-0.6398
11
14.2081604
21
-0.6398
0
LINE
8
DEFAULT_255_1_388
10
14.2081604
20
-0.6398
11
14.2081604
21
0.6757898
0
LINE
8
DEFAULT_255_1_388
10
14.2081604
20
0.6757898
11
14.3825483
21
0.6757898
0
LINE
8
DEFAULT_255_1_388
10
14.3825483
20
0.6757898
11
15.0466682
21
-0.3425273
0
LINE
8
DEFAULT_255_1_388
10
15.0466682
20
-0.3425273
11
15.0466682
21
0.6757898
0
LINE
8
DEFAULT_255_1_388
10
15.0466682
20
0.6757898
11
15.219249
21
0.6757898
0
LINE
8
DEFAULT_255_1_388
10
16.3206941
20
-0.2223532
11
16.495082
21
-0.2223532
0
LINE
8
DEFAULT_255_1_388
10
15.4821863
20
-0.0434475
11
15.4821863
21
0.0830516
0
LINE
8
DEFAULT_255_1_388
10
16.495082
20
0.2529217
11
16.3206941
21
0.2529217
0
LINE
8
DEFAULT_255_1_388
10
15.6565742
20
0.0785337
11
15.6565742
21
-0.0488688
0
ARC
8
DEFAULT_255_1_388
10
15.8785054
20
-0.1551671
40
0.6202263
50
340.1774904
51
353.7812217
0
ARC
8
DEFAULT_255_1_388
10
16.0552907
20
-0.2210107
40
0.4315926
50
311.4560052
51
340.4420756
0
ARC
8
DEFAULT_255_1_388
10
16.0515447
20
-0.2085335
40
0.4434573
50
282.4332229
51
310.7514507
0
ARC
8
DEFAULT_255_1_388
10
16.0021265
20
-0.0043297
40
0.6535262
50
269.9358869
51
282.8096729
0
ARC
8
DEFAULT_255_1_388
10
15.9963204
20
0.1469329
40
0.8048043
50
269.9995752
51
270.3612856
0
ARC
8
DEFAULT_255_1_388
10
15.9903694
20
-0.1329219
40
0.5249831
50
250.7885263
51
270.6488451
0
ARC
8
DEFAULT_255_1_388
10
15.9714519
20
-0.2046147
40
0.4510942
50
219.3628377
51
250.0611024
0
ARC
8
DEFAULT_255_1_388
10
16.0647393
20
-0.1253347
40
0.5735046
50
193.5480293
51
219.5755675
0
ARC
8
DEFAULT_255_1_388
10
16.3315602
20
-0.056048
40
0.849146
50
181.1220183
51
193.8754971
0
ARC
8
DEFAULT_255_1_388
10
16.5638835
20
-0.0436086
40
1.0816971
50
179.9914644
51
181.5398227
0
ARC
8
DEFAULT_255_1_388
10
16.3562146
20
0.0872586
40
0.8740384
50
169.5837606
51
180.275782
0
ARC
8
DEFAULT_255_1_388
10
16.1495494
20
0.1254439
40
0.6638751
50
155.0367033
51
169.6002779
0
ARC
8
DEFAULT_255_1_388
10
16.0217952
20
0.1870336
40
0.5220662
50
136.7831557
51
155.2472983
0
ARC
8
DEFAULT_255_1_388
10
15.9779743
20
0.2242577
40
0.4646502
50
121.7633063
51
136.4281161
0
ARC
8
DEFAULT_255_1_388
10
15.9931583
20
0.1962049
40
0.4964979
50
95.6460018
51
121.5489589
0
ARC
8
DEFAULT_255_1_388
10
16.0108557
20
0.0714704
40
0.6223912
50
89.9245727
51
96.1375919
0
ARC
8
DEFAULT_255_1_388
10
16.0165262
20
0.0848721
40
0.6090084
50
76.6779212
51
90.456405
0
ARC
8
DEFAULT_255_1_388
10
16.0608075
20
0.263806
40
0.42469
50
47.4858803
51
76.9287069
0
ARC
8
DEFAULT_255_1_388
10
16.0442689
20
0.2525623
40
0.4441778
50
16.5424081
51
46.8934505
0
ARC
8
DEFAULT_255_1_388
10
15.8633739
20
0.1931265
40
0.6345318
50
5.4072971
51
17.0363711
0
ARC
8
DEFAULT_255_1_388
10
15.7015464
20
0.1671304
40
0.6250632
50
7.8888693
51
15.9242022
0
ARC
8
DEFAULT_255_1_388
10
15.9250449
20
0.2320309
40
0.3923364
50
15.7650676
51
27.9410069
0
ARC
8
DEFAULT_255_1_388
10
16.0492619
20
0.2985317
40
0.2514401
50
27.8167196
51
46.4007942
0
ARC
8
DEFAULT_255_1_388
10
16.054846
20
0.2978882
40
0.2480958
50
47.4372362
51
75.0695672
0
ARC
8
DEFAULT_255_1_388
10
16.0201296
20
0.1770277
40
0.3738281
50
74.7009379
51
87.8124314
0
ARC
8
DEFAULT_255_1_388
10
16.0118913
20
0.0586659
40
0.4924321
50
87.3802571
51
90.0251599
0
ARC
8
DEFAULT_255_1_388
10
16.007556
20
0.1906997
40
0.3604218
50
89.3451886
51
108.5744412
0
ARC
8
DEFAULT_255_1_388
10
15.9921552
20
0.2484836
40
0.3007661
50
109.2998307
51
143.3037387
0
ARC
8
DEFAULT_255_1_388
10
16.0778842
20
0.1825584
40
0.4089031
50
143.075267
51
163.1918576
0
ARC
8
DEFAULT_255_1_388
10
16.2974676
20
0.1132652
40
0.6391492
50
162.9375929
51
174.6208776
0
ARC
8
DEFAULT_255_1_388
10
16.5929058
20
0.0808711
40
0.9363344
50
174.342123
51
180.1430283
0
ARC
8
DEFAULT_255_1_388
10
16.4881599
20
-0.0534883
40
0.8315986
50
179.6817261
51
189.150555
0
ARC
8
DEFAULT_255_1_388
10
16.2068349
20
-0.1003441
40
0.5464044
50
188.9911061
51
203.5772363
0
ARC
8
DEFAULT_255_1_388
10
16.085364
20
-0.1507461
40
0.4149206
50
203.9075402
51
215.1312435
0
ARC
8
DEFAULT_255_1_388
10
15.9815438
20
-0.2312093
40
0.2837747
50
213.9071511
51
263.8848919
0
ARC
8
DEFAULT_255_1_388
10
15.9956431
20
-0.1429481
40
0.3730641
50
263.1757928
51
270.1031044
0
ARC
8
DEFAULT_255_1_388
10
15.9992511
20
-0.0026489
40
0.5133712
50
269.6722503
51
279.0606936
0
ARC
8
DEFAULT_255_1_388
10
16.0292666
20
-0.184085
40
0.3294739
50
278.8749101
51
293.6349581
0
ARC
8
DEFAULT_255_1_388
10
16.065287
20
-0.2686749
40
0.2375405
50
293.8553806
51
310.0518171
0
ARC
8
DEFAULT_255_1_388
10
16.0658379
20
-0.2756979
40
0.2318463
50
311.0644687
51
332.0111037
0
ARC
8
DEFAULT_255_1_388
10
15.9317052
20
-0.2017298
40
0.3850112
50
331.6586806
51
343.2877423
0
ARC
8
DEFAULT_255_1_388
10
15.6996517
20
-0.1304194
40
0.6277712
50
343.1446576
51
351.0103568
0
ARC
8
DEFAULT_255_1_388
10
15.5363841
20
-0.1004127
40
0.7937327
50
350.71248
51
351.1626997
0
LINE
8
DEFAULT_255_1_388
10
17.5504453
20
-0.5033618
11
17.5504453
21
-0.6398
0
LINE
8
DEFAULT_255_1_388
10
17.5504453
20
-0.6398
11
16.6884448
21
-0.6398
0
LINE
8
DEFAULT_255_1_388
10
16.6884448
20
-0.6398
11
16.6884448
21
-0.5196259
0
LINE
8
DEFAULT_255_1_388
10
16.6884448
20
-0.5196259
11
17.1438413
21
-0.0136298
0
LINE
8
DEFAULT_255_1_388
10
16.8303044
20
0.2881607
11
16.663145
21
0.2881607
0
LINE
8
DEFAULT_255_1_388
10
17.2423298
20
-0.121154
11
16.8899397
21
-0.5033618
0
LINE
8
DEFAULT_255_1_388
10
16.8899397
20
-0.5033618
11
17.5504453
21
-0.5033618
0
ARC
8
DEFAULT_255_1_388
10
15.6262473
20
1.3283983
40
2.0258655
50
318.5132526
51
320.7829045
0
ARC
8
DEFAULT_255_1_388
10
16.221043
20
0.8442929
40
1.2589638
50
320.7372878
51
323.9739031
0
ARC
8
DEFAULT_255_1_388
10
16.6619361
20
0.5248554
40
0.7145141
50
323.8962701
51
328.64194
0
ARC
8
DEFAULT_255_1_388
10
16.8921619
20
0.3828545
40
0.4440242
50
328.8294576
51
331.7891185
0
ARC
8
DEFAULT_255_1_388
10
17.0043939
20
0.3249374
40
0.3177517
50
331.4254512
51
352.9365785
0
ARC
8
DEFAULT_255_1_388
10
17.0196939
20
0.321505
40
0.3021496
50
353.2257659
51
0.0166158
0
ARC
8
DEFAULT_255_1_388
10
17.04337
20
0.3240894
40
0.2784847
50
359.486299
51
15.9343185
0
ARC
8
DEFAULT_255_1_388
10
17.1003966
20
0.3394269
40
0.2194403
50
16.1712913
51
43.5286088
0
ARC
8
DEFAULT_255_1_388
10
17.1090911
20
0.3481191
40
0.2071504
50
43.4417391
51
83.1661095
0
ARC
8
DEFAULT_255_1_388
10
17.0940072
20
0.2652316
40
0.2912888
50
82.160179
51
90.1505708
0
ARC
8
DEFAULT_255_1_388
10
17.0904554
20
0.2048279
40
0.3517025
50
89.5460741
51
102.5418361
0
ARC
8
DEFAULT_255_1_388
10
17.0631274
20
0.3207933
40
0.2325748
50
102.1738499
51
129.206123
0
ARC
8
DEFAULT_255_1_388
10
17.0542727
20
0.3347664
40
0.2161591
50
129.72865
51
135.753947
0
ARC
8
DEFAULT_255_1_388
10
17.0679209
20
0.3238728
40
0.2335433
50
136.1757367
51
166.3673339
0
ARC
8
DEFAULT_255_1_388
10
17.1811898
20
0.2935148
40
0.3507873
50
165.9090694
51
178.8684636
0
ARC
8
DEFAULT_255_1_388
10
17.2787669
20
0.2882263
40
0.4484624
50
178.4391136
51
180.0083808
0
ARC
8
DEFAULT_255_1_388
10
17.1208371
20
0.2926197
40
0.4577138
50
163.2878482
51
180.5581842
0
ARC
8
DEFAULT_255_1_388
10
17.0306412
20
0.3174393
40
0.3641968
50
133.4540601
51
162.947111
0
ARC
8
DEFAULT_255_1_388
10
17.0507293
20
0.2960789
40
0.3935189
50
100.7869829
51
133.4382499
0
ARC
8
DEFAULT_255_1_388
10
17.0898538
20
0.1218399
40
0.5720313
50
89.660664
51
101.3702276
0
ARC
8
DEFAULT_255_1_388
10
17.0973147
20
0.1287263
40
0.5651495
50
78.2172678
51
90.412935
0
ARC
8
DEFAULT_255_1_388
10
17.1372613
20
0.3114511
40
0.378122
50
55.9269121
51
78.4888449
0
ARC
8
DEFAULT_255_1_388
10
17.1593328
20
0.3495187
40
0.3342379
50
47.929771
51
55.4049217
0
ARC
8
DEFAULT_255_1_388
10
17.1707859
20
0.3611618
40
0.3179217
50
4.334829
51
48.0560205
0
ARC
8
DEFAULT_255_1_388
10
17.047566
20
0.3420487
40
0.442341
50
359.9251713
51
5.5971671
0
ARC
8
DEFAULT_255_1_388
10
17.0957815
20
0.3483728
40
0.3941854
50
337.8914027
51
358.9967534
0
ARC
8
DEFAULT_255_1_388
10
16.7905385
20
0.4661295
40
0.7213271
50
326.9132501
51
338.3508308
0
ARC
8
DEFAULT_255_1_388
10
16.3421497
20
0.7535105
40
1.2538973
50
319.6471833
51
327.0959558
0
ARC
8
DEFAULT_255_1_388
10
15.9108155
20
1.109305
40
1.8129975
50
317.2588228
51
319.9045804
0
LINE
8
DEFAULT_255_1_388
10
18.5768945
20
0.6757898
11
18.5768945
21
0.5818191
0
LINE
8
DEFAULT_255_1_388
10
18.5768945
20
0.5818191
11
18.0320452
21
-0.6398
0
LINE
8
DEFAULT_255_1_388
10
18.0320452
20
-0.6398
11
17.8567537
21
-0.6398
0
LINE
8
DEFAULT_255_1_388
10
17.8567537
20
-0.6398
11
18.3997959
21
0.538448
0
LINE
8
DEFAULT_255_1_388
10
18.3997959
20
0.538448
11
17.6877871
21
0.538448
0
LINE
8
DEFAULT_255_1_388
10
17.6877871
20
0.538448
11
17.6877871
21
0.6757898
0
LINE
8
DEFAULT_255_1_388
10
17.6877871
20
0.6757898
11
18.5768945
21
0.6757898
0
LINE
8
DEFAULT_255_1_388
10
19.3160103
20
0.6821148
11
19.3160103
21
-0.6398
0
LINE
8
DEFAULT_255_1_388
10
19.3160103
20
-0.6398
11
19.1479473
21
-0.6398
0
LINE
8
DEFAULT_255_1_388
10
19.1479473
20
-0.6398
11
19.1479473
21
0.474295
0
LINE
8
DEFAULT_255_1_388
10
19.1479473
20
0.474295
11
18.8109177
21
0.3505066
0
LINE
8
DEFAULT_255_1_388
10
18.8109177
20
0.3505066
11
18.8109177
21
0.5023055
0
LINE
8
DEFAULT_255_1_388
10
18.8109177
20
0.5023055
11
19.2898069
21
0.6821148
0
LINE
8
DEFAULT_255_1_388
10
19.2898069
20
0.6821148
11
19.3160103
21
0.6821148
0
ARC
8
DEFAULT_255_2_778
10
15.2718323
20
18.799189
40
0.3782009
50
0.4397807
51
91.3045231
0
ARC
8
DEFAULT_255_2_778
10
15.2696879
20
18.7969064
40
0.3803695
50
269.0259909
51
0.7811192
0
ARC
8
DEFAULT_255_2_778
10
15.4288293
20
18.7844643
40
0.7639615
50
290.7362057
51
357.8000295
0
ARC
8
DEFAULT_255_2_778
10
15.3436031
20
18.8020235
40
0.8499188
50
356.8376875
51
0.0046095
0
ARC
8
DEFAULT_255_2_778
10
15.3422443
20
18.8020748
40
0.8512778
50
0.0011515
51
85.3589632
0
ARC
8
DEFAULT_255_2_778
10
15.3422371
20
18.7830092
40
0.8702827
50
85.4600549
51
90.0075769
0
ARC
8
DEFAULT_255_2_778
10
20.173385
20
18.7927426
40
0.3845507
50
1.3931151
51
90.158378
0
ARC
8
DEFAULT_255_2_778
10
20.2329096
20
18.7863635
40
0.8684198
50
359.7643557
51
42.1181505
0
ARC
8
DEFAULT_255_2_778
10
20.2353156
20
18.7867931
40
0.866348
50
42.2037872
51
87.9292218
0
ARC
8
DEFAULT_255_2_778
10
20.2305626
20
18.7455097
40
0.9077821
50
87.7235759
51
90.0025578
0
ARC
8
DEFAULT_255_2_778
10
12.9264947
20
18.7996344
40
0.3777354
50
0.3727528
51
91.1638813
0
ARC
8
DEFAULT_255_2_778
10
12.9805692
20
18.7863595
40
0.8684602
50
359.7646302
51
42.1161032
0
ARC
8
DEFAULT_255_2_778
10
12.9830774
20
18.7869127
40
0.8662296
50
42.2002176
51
87.9268901
0
ARC
8
DEFAULT_255_2_778
10
12.9783626
20
18.7458749
40
0.9074169
50
87.7231194
51
90.002558
0
ARC
8
DEFAULT_255_2_778
10
17.559042
20
18.3945858
40
1.2841942
50
233.3100129
51
270.0348017
0
ARC
8
DEFAULT_255_2_778
10
17.5711133
20
18.4149622
40
1.3077482
50
187.7860459
51
233.4193197
0
ARC
8
DEFAULT_255_2_778
10
17.5893588
20
18.4165185
40
1.3260368
50
179.9838663
51
187.7458681
0
ARC
8
DEFAULT_255_2_778
10
17.5478523
20
18.4171375
40
1.2845303
50
143.7084173
51
180.0109545
0
ARC
8
DEFAULT_255_2_778
10
17.5629238
20
18.4120899
40
1.2996747
50
94.9692901
51
143.9223324
0
ARC
8
DEFAULT_255_2_778
10
17.5597032
20
18.4127347
40
1.2987573
50
89.9947559
51
94.8302073
0
ARC
8
DEFAULT_255_2_778
10
17.5619339
20
18.4069304
40
1.3045632
50
58.1407344
51
90.0927508
0
ARC
8
DEFAULT_255_2_778
10
17.5700831
20
18.4125662
40
1.2954809
50
3.5056409
51
58.315291
0
ARC
8
DEFAULT_255_2_778
10
17.5711163
20
18.4166563
40
1.2942058
50
359.9971467
51
3.3277024
0
ARC
8
DEFAULT_255_2_778
10
17.3826088
20
18.4145483
40
1.4827147
50
0.006083
51
0.0789681
0
ARC
8
DEFAULT_255_2_778
10
17.5604187
20
18.4147022
40
1.3049047
50
315.0308293
51
0.0001529
0
ARC
8
DEFAULT_255_2_778
10
17.5609377
20
18.4144521
40
1.3043608
50
270.000667
51
315.0224921
0
LINE
8
DEFAULT_255_2_778
10
17.5609529
20
17.1100914
11
17.5598221
21
17.1100919
0
ARC
8
DEFAULT_255_2_778
10
17.5640812
20
18.4129112
40
0.7580313
50
269.6780691
51
315.5292436
0
ARC
8
DEFAULT_255_2_778
10
17.5610107
20
18.4121878
40
0.7597205
50
315.7303962
51
0.2857903
0
ARC
8
DEFAULT_255_2_778
10
17.8487376
20
18.4164382
40
0.4719845
50
359.944048
51
0.0186519
0
ARC
8
DEFAULT_255_2_778
10
17.5687772
20
18.4154605
40
0.7519457
50
0.086204
51
85.4319233
0
ARC
8
DEFAULT_255_2_778
10
17.5599609
20
18.3730338
40
0.7949581
50
85.0420495
51
90.0100075
0
ARC
8
DEFAULT_255_2_778
10
17.5579396
20
18.4297519
40
0.7382424
50
89.8538973
51
89.9999976
0
ARC
8
DEFAULT_255_2_778
10
17.558077
20
18.4168044
40
0.7511899
50
90.01048
51
134.9443097
0
ARC
8
DEFAULT_255_2_778
10
17.5582947
20
18.4166222
40
0.7514726
50
134.9462486
51
180.0023145
0
ARC
8
DEFAULT_255_2_778
10
17.5708624
20
18.4126875
40
0.7640503
50
179.7072119
51
222.5790813
0
ARC
8
DEFAULT_255_2_778
10
17.5579296
20
18.4016475
40
0.7470579
50
222.6267201
51
270.1451401
0
ARC
8
DEFAULT_255_2_778
10
9.564442
20
18.3945858
40
1.2841942
50
233.3100129
51
270.0348017
0
ARC
8
DEFAULT_255_2_778
10
9.5765133
20
18.4149622
40
1.3077482
50
187.7860459
51
233.4193197
0
ARC
8
DEFAULT_255_2_778
10
9.5947588
20
18.4165185
40
1.3260368
50
179.9838663
51
187.7458681
0
ARC
8
DEFAULT_255_2_778
10
9.5535129
20
18.4169961
40
1.2847909
50
143.1940819
51
180.0046489
0
ARC
8
DEFAULT_255_2_778
10
9.5683078
20
18.4123006
40
1.2994598
50
94.9233187
51
143.4191345
0
ARC
8
DEFAULT_255_2_778
10
9.5651008
20
18.413012
40
1.2984798
50
89.9946509
51
94.7850278
0
ARC
8
DEFAULT_255_2_778
10
9.5673902
20
18.4068441
40
1.3046496
50
58.1428905
51
90.0952196
0
ARC
8
DEFAULT_255_2_778
10
9.5758177
20
18.4129453
40
1.2950254
50
3.2656058
51
58.3171105
0
ARC
8
DEFAULT_255_2_778
10
9.5763693
20
18.4169485
40
1.2942527
50
359.997494
51
3.0900664
0
ARC
8
DEFAULT_255_2_778
10
9.5936718
20
18.4147448
40
1.276952
50
359.9949307
51
0.0963391
0
ARC
8
DEFAULT_255_2_778
10
9.5663093
20
18.4147585
40
1.3043147
50
315.0200668
51
359.994431
0
ARC
8
DEFAULT_255_2_778
10
9.5663338
20
18.41452
40
1.3041287
50
270.0008363
51
315.026719
0
LINE
8
DEFAULT_255_2_778
10
9.5663529
20
17.1103914
11
9.5652221
21
17.1103919
0
ARC
8
DEFAULT_255_2_778
10
9.5694412
20
18.4129135
40
0.7580334
50
269.6810953
51
315.6152252
0
ARC
8
DEFAULT_255_2_778
10
9.5663839
20
18.4122381
40
0.7597504
50
315.8129036
51
0.3254485
0
ARC
8
DEFAULT_255_2_778
10
9.5738176
20
18.4151565
40
0.7523058
50
0.1093155
51
85.7820321
0
ARC
8
DEFAULT_255_2_778
10
9.5653381
20
18.3736263
40
0.7943655
50
85.3923987
51
90.0083732
0
ARC
8
DEFAULT_255_2_778
10
9.5633385
20
18.4288348
40
0.7391595
50
89.8539942
51
89.9999859
0
ARC
8
DEFAULT_255_2_778
10
9.563405
20
18.4169783
40
0.7510159
50
90.0050654
51
134.9497993
0
ARC
8
DEFAULT_255_2_778
10
9.5632746
20
18.4167963
40
0.7510526
50
134.9329452
51
180.0155944
0
ARC
8
DEFAULT_255_2_778
10
9.5762945
20
18.4126612
40
0.7640826
50
179.7052536
51
222.5741919
0
ARC
8
DEFAULT_255_2_778
10
9.5632805
20
18.4016163
40
0.7470269
50
222.6256588
51
270.1489141
0
LINE
8
DEFAULT_255_2_778
10
14.0768221
20
19.6326919
11
14.0768221
21
17.1698919
0
LINE
8
DEFAULT_255_2_778
10
14.0768221
20
17.1698919
11
14.6203221
21
17.1698919
0
LINE
8
DEFAULT_255_2_778
10
14.6203221
20
17.1698919
11
14.6203221
21
19.1772919
0
LINE
8
DEFAULT_255_2_778
10
14.6203221
20
19.1772919
11
15.2632221
21
19.1772919
0
LINE
8
DEFAULT_255_2_778
10
15.2632221
20
18.4165919
11
14.7986221
21
18.4165919
0
LINE
8
DEFAULT_255_2_778
10
14.7986221
20
18.4165919
11
15.6397221
21
17.1695919
0
LINE
8
DEFAULT_255_2_778
10
15.6397221
20
17.1695919
11
16.3126221
21
17.1695919
0
LINE
8
DEFAULT_255_2_778
10
16.3126221
20
17.1695919
11
15.6993221
21
18.0699919
0
LINE
8
DEFAULT_255_2_778
10
15.3421221
20
19.6532919
11
14.6200221
21
19.6532919
0
LINE
8
DEFAULT_255_2_778
10
14.6200221
20
19.6532919
11
14.0766221
21
19.6326919
0
LINE
8
DEFAULT_255_2_778
10
14.0766221
20
19.6326919
11
14.0768221
21
19.6326919
0
LINE
8
DEFAULT_255_2_778
10
19.0142221
20
19.6326919
11
19.0142221
21
17.1698919
0
LINE
8
DEFAULT_255_2_778
10
19.0142221
20
17.1698919
11
19.5577221
21
17.1698919
0
LINE
8
DEFAULT_255_2_778
10
19.5577221
20
17.1698919
11
19.5577221
21
19.1772919
0
LINE
8
DEFAULT_255_2_778
10
19.5577221
20
19.1772919
11
20.1723221
21
19.1772919
0
LINE
8
DEFAULT_255_2_778
10
20.5578221
20
18.8020919
11
20.5578221
21
17.1698919
0
LINE
8
DEFAULT_255_2_778
10
20.5578221
20
17.1698919
11
21.1013221
21
17.1698919
0
LINE
8
DEFAULT_255_2_778
10
21.1013221
20
17.1698919
11
21.1013221
21
18.7827919
0
LINE
8
DEFAULT_255_2_778
10
20.2305221
20
19.6532919
11
19.5577221
21
19.6532919
0
LINE
8
DEFAULT_255_2_778
10
19.5577221
20
19.6532919
11
19.0142221
21
19.6326919
0
LINE
8
DEFAULT_255_2_778
10
19.0142221
20
19.6326919
11
19.0142221
21
19.6326919
0
LINE
8
DEFAULT_255_2_778
10
11.0196221
20
19.6326919
11
11.0196221
21
17.1698919
0
LINE
8
DEFAULT_255_2_778
10
11.0196221
20
17.1698919
11
11.5628221
21
17.1698919
0
LINE
8
DEFAULT_255_2_778
10
11.5628221
20
17.1698919
11
11.5628221
21
19.1772919
0
LINE
8
DEFAULT_255_2_778
10
11.5628221
20
19.1772919
11
12.1671221
21
19.1772919
0
LINE
8
DEFAULT_255_2_778
10
12.1671221
20
19.1772919
11
12.1671221
21
17.1698919
0
LINE
8
DEFAULT_255_2_778
10
12.1671221
20
17.1698919
11
12.7105221
21
17.1698919
0
LINE
8
DEFAULT_255_2_778
10
12.7105221
20
17.1698919
11
12.7105221
21
19.1772919
0
LINE
8
DEFAULT_255_2_778
10
12.7105221
20
19.1772919
11
12.9188221
21
19.1772919
0
LINE
8
DEFAULT_255_2_778
10
13.3042221
20
18.8020919
11
13.3042221
21
17.1698919
0
LINE
8
DEFAULT_255_2_778
10
13.3042221
20
17.1698919
11
13.8490221
21
17.1698919
0
LINE
8
DEFAULT_255_2_778
10
13.8490221
20
17.1698919
11
13.8490221
21
18.7827919
0
LINE
8
DEFAULT_255_2_778
10
12.9783221
20
19.6532919
11
11.5731221
21
19.6532919
0
LINE
8
DEFAULT_255_2_778
10
11.5731221
20
19.6532919
11
11.0193221
21
19.6326919
0
LINE
8
DEFAULT_255_2_778
10
11.0193221
20
19.6326919
11
11.0196221
21
19.6326919
0
LINE
8
DEFAULT_255_2_778
10
17.5598221
20
17.1100919
11
17.5598221
21
17.1103919
0
LINE
8
DEFAULT_255_2_778
10
9.5652221
20
17.1103919
11
9.5652221
21
17.1103919
0
LINE
8
DEFAULT_255_1_388
10
10.632132
20
14.9912468
11
10.8065199
21
14.9912468
0
LINE
8
DEFAULT_255_1_388
10
9.7936242
20
15.1701525
11
9.7936242
21
15.2966516
0
LINE
8
DEFAULT_255_1_388
10
10.8065199
20
15.4665217
11
10.632132
21
15.4665217
0
LINE
8
DEFAULT_255_1_388
10
9.9680121
20
15.2921337
11
9.9680121
21
15.1647312
0
ARC
8
DEFAULT_255_1_388
10
10.1899433
20
15.0584329
40
0.6202263
50
340.1774904
51
353.7812217
0
ARC
8
DEFAULT_255_1_388
10
10.3667286
20
14.9925893
40
0.4315926
50
311.4560052
51
340.4420756
0
ARC
8
DEFAULT_255_1_388
10
10.3629826
20
15.0050665
40
0.4434573
50
282.4332229
51
310.7514507
0
ARC
8
DEFAULT_255_1_388
10
10.3135644
20
15.2092703
40
0.6535262
50
269.9358869
51
282.8096729
0
ARC
8
DEFAULT_255_1_388
10
10.3077583
20
15.3605329
40
0.8048043
50
269.9995752
51
270.3612856
0
ARC
8
DEFAULT_255_1_388
10
10.3018073
20
15.0806781
40
0.5249831
50
250.7885263
51
270.6488451
0
ARC
8
DEFAULT_255_1_388
10
10.2828898
20
15.0089853
40
0.4510942
50
219.3628377
51
250.0611024
0
ARC
8
DEFAULT_255_1_388
10
10.3761772
20
15.0882653
40
0.5735046
50
193.5480293
51
219.5755675
0
ARC
8
DEFAULT_255_1_388
10
10.6429981
20
15.157552
40
0.849146
50
181.1220183
51
193.8754971
0
ARC
8
DEFAULT_255_1_388
10
10.8753214
20
15.1699914
40
1.0816971
50
179.9914644
51
181.5398227
0
ARC
8
DEFAULT_255_1_388
10
10.6676525
20
15.3008586
40
0.8740384
50
169.5837606
51
180.275782
0
ARC
8
DEFAULT_255_1_388
10
10.4609873
20
15.3390439
40
0.6638751
50
155.0367033
51
169.6002779
0
ARC
8
DEFAULT_255_1_388
10
10.3332331
20
15.4006336
40
0.5220662
50
136.7831557
51
155.2472983
0
ARC
8
DEFAULT_255_1_388
10
10.2894122
20
15.4378577
40
0.4646502
50
121.7633063
51
136.4281161
0
ARC
8
DEFAULT_255_1_388
10
10.3045962
20
15.4098049
40
0.4964979
50
95.6460018
51
121.5489589
0
ARC
8
DEFAULT_255_1_388
10
10.3222936
20
15.2850704
40
0.6223912
50
89.9245727
51
96.1375919
0
ARC
8
DEFAULT_255_1_388
10
10.3279641
20
15.2984721
40
0.6090084
50
76.6779212
51
90.456405
0
ARC
8
DEFAULT_255_1_388
10
10.3722454
20
15.477406
40
0.42469
50
47.4858803
51
76.9287069
0
ARC
8
DEFAULT_255_1_388
10
10.3557068
20
15.4661623
40
0.4441778
50
16.5424081
51
46.8934505
0
ARC
8
DEFAULT_255_1_388
10
10.1748118
20
15.4067265
40
0.6345318
50
5.4072971
51
17.0363711
0
ARC
8
DEFAULT_255_1_388
10
10.0129843
20
15.3807304
40
0.6250632
50
7.8888693
51
15.9242022
0
ARC
8
DEFAULT_255_1_388
10
10.2364828
20
15.4456309
40
0.3923364
50
15.7650676
51
27.9410069
0
ARC
8
DEFAULT_255_1_388
10
10.3606997
20
15.5121317
40
0.2514401
50
27.8167196
51
46.4007942
0
ARC
8
DEFAULT_255_1_388
10
10.3662839
20
15.5114882
40
0.2480958
50
47.4372362
51
75.0695672
0
ARC
8
DEFAULT_255_1_388
10
10.3315675
20
15.3906277
40
0.3738281
50
74.7009379
51
87.8124314
0
ARC
8
DEFAULT_255_1_388
10
10.3233292
20
15.2722659
40
0.4924321
50
87.3802571
51
90.0251599
0
ARC
8
DEFAULT_255_1_388
10
10.3189939
20
15.4042997
40
0.3604218
50
89.3451886
51
108.5744412
0
ARC
8
DEFAULT_255_1_388
10
10.3035931
20
15.4620836
40
0.3007661
50
109.2998307
51
143.3037387
0
ARC
8
DEFAULT_255_1_388
10
10.3893221
20
15.3961584
40
0.4089031
50
143.075267
51
163.1918576
0
ARC
8
DEFAULT_255_1_388
10
10.6089055
20
15.3268652
40
0.6391492
50
162.9375929
51
174.6208776
0
ARC
8
DEFAULT_255_1_388
10
10.9043437
20
15.2944711
40
0.9363344
50
174.342123
51
180.1430283
0
ARC
8
DEFAULT_255_1_388
10
10.7995978
20
15.1601117
40
0.8315986
50
179.6817261
51
189.150555
0
ARC
8
DEFAULT_255_1_388
10
10.5182727
20
15.1132559
40
0.5464044
50
188.9911061
51
203.5772363
0
ARC
8
DEFAULT_255_1_388
10
10.3968019
20
15.0628539
40
0.4149206
50
203.9075402
51
215.1312435
0
ARC
8
DEFAULT_255_1_388
10
10.2929817
20
14.9823907
40
0.2837747
50
213.9071511
51
263.8848919
0
ARC
8
DEFAULT_255_1_388
10
10.307081
20
15.0706519
40
0.3730641
50
263.1757928
51
270.1031044
0
ARC
8
DEFAULT_255_1_388
10
10.310689
20
15.2109511
40
0.5133712
50
269.6722503
51
279.0606936
0
ARC
8
DEFAULT_255_1_388
10
10.3407045
20
15.029515
40
0.3294739
50
278.8749101
51
293.6349581
0
ARC
8
DEFAULT_255_1_388
10
10.3767249
20
14.9449251
40
0.2375405
50
293.8553806
51
310.0518171
0
ARC
8
DEFAULT_255_1_388
10
10.3772758
20
14.9379021
40
0.2318463
50
311.0644687
51
332.0111037
0
ARC
8
DEFAULT_255_1_388
10
10.2431431
20
15.0118702
40
0.3850112
50
331.6586806
51
343.2877423
0
ARC
8
DEFAULT_255_1_388
10
10.0110896
20
15.0831806
40
0.6277712
50
343.1446576
51
351.0103568
0
ARC
8
DEFAULT_255_1_388
10
9.847822
20
15.1131873
40
0.7937327
50
350.71248
51
351.1626997
0
LINE
8
DEFAULT_255_1_388
10
11.9160971
20
15.5089892
11
11.7417091
21
15.5089892
0
LINE
8
DEFAULT_255_1_388
10
10.9628366
20
14.9551042
11
11.1372245
21
14.9551042
0
ARC
8
DEFAULT_255_1_388
10
11.8157818
20
16.5153821
40
1.4087688
50
248.9196578
51
254.1442424
0
ARC
8
DEFAULT_255_1_388
10
11.6267699
20
16.0287805
40
0.8867498
50
241.6337352
51
249.0064643
0
ARC
8
DEFAULT_255_1_388
10
11.4548012
20
15.7136764
40
0.5277799
50
230.4982261
51
241.8087583
0
ARC
8
DEFAULT_255_1_388
10
11.3665783
20
15.6012686
40
0.3849419
50
227.4062979
51
229.9877433
0
ARC
8
DEFAULT_255_1_388
10
11.3117129
20
15.5477155
40
0.3084129
50
200.6782127
51
228.1765252
0
ARC
8
DEFAULT_255_1_388
10
11.3198498
20
15.5460277
40
0.315461
50
179.506278
51
199.8695278
0
ARC
8
DEFAULT_255_1_388
10
11.3188087
20
15.5543671
40
0.3144584
50
132.4834401
51
181.0242352
0
ARC
8
DEFAULT_255_1_388
10
11.3857291
20
15.4911788
40
0.4063094
50
129.2526113
51
133.4249077
0
ARC
8
DEFAULT_255_1_388
10
11.4022884
20
15.4663619
40
0.436014
50
101.9878945
51
128.8741833
0
ARC
8
DEFAULT_255_1_388
10
11.4471299
20
15.272736
40
0.6347415
50
89.5906376
51
102.3170567
0
ARC
8
DEFAULT_255_1_388
10
11.4550611
20
15.3085586
40
0.5989122
50
77.2359491
51
90.3248968
0
ARC
8
DEFAULT_255_1_388
10
11.4783542
20
15.4173554
40
0.4876594
50
63.8379856
51
77.0808925
0
ARC
8
DEFAULT_255_1_388
10
11.5096075
20
15.4755882
40
0.4216191
50
45.9863127
51
64.1608798
0
ARC
8
DEFAULT_255_1_388
10
11.5389469
20
15.509099
40
0.3771394
50
32.2747934
51
45.6544796
0
ARC
8
DEFAULT_255_1_388
10
11.5464275
20
15.5112426
40
0.3696765
50
359.6507495
51
32.6129943
0
ARC
8
DEFAULT_255_1_388
10
11.4403458
20
15.5117788
40
0.3013762
50
359.469654
51
14.983205
0
ARC
8
DEFAULT_255_1_388
10
11.519671
20
15.5330288
40
0.2192542
50
14.9781954
51
48.2004799
0
ARC
8
DEFAULT_255_1_388
10
11.5011821
20
15.5097937
40
0.2489048
50
48.5926661
51
74.1242559
0
ARC
8
DEFAULT_255_1_388
10
11.4636624
20
15.3859607
40
0.3782845
50
73.7889321
51
86.6653996
0
ARC
8
DEFAULT_255_1_388
10
11.4521438
20
15.2501955
40
0.5145025
50
86.2642725
51
90.0533288
0
ARC
8
DEFAULT_255_1_388
10
11.4489531
20
15.2946376
40
0.4700681
50
89.669455
51
99.2313411
0
ARC
8
DEFAULT_255_1_388
10
11.4216691
20
15.4571401
40
0.3052945
50
99.0695987
51
113.7659242
0
ARC
8
DEFAULT_255_1_388
10
11.3908685
20
15.5297772
40
0.226407
50
114.0402885
51
127.9848946
0
ARC
8
DEFAULT_255_1_388
10
11.3638161
20
15.5630884
40
0.1835045
50
127.7287217
51
176.7106493
0
ARC
8
DEFAULT_255_1_388
10
11.4401826
20
15.551721
40
0.2604907
50
175.1780759
51
180.0581213
0
ARC
8
DEFAULT_255_1_388
10
11.345317
20
15.5503411
40
0.1656287
50
179.6140658
51
228.124674
0
ARC
8
DEFAULT_255_1_388
10
11.3950527
20
15.596394
40
0.2332038
50
226.5785315
51
230.8792476
0
ARC
8
DEFAULT_255_1_388
10
11.4480014
20
15.6666908
40
0.3211664
50
231.4636401
51
241.9261664
0
ARC
8
DEFAULT_255_1_388
10
11.5826797
20
15.9145349
40
0.6032345
50
241.7177136
51
248.3259138
0
ARC
8
DEFAULT_255_1_388
10
11.7385392
20
16.3006771
40
1.0196417
50
248.2007377
51
252.4527713
0
ARC
8
DEFAULT_255_1_388
10
11.8738919
20
16.7191092
40
1.4594143
50
252.3388938
51
254.347037
0
ARC
8
DEFAULT_255_1_388
10
11.0254219
20
13.6843095
40
1.6917621
50
71.0197462
51
74.4085467
0
ARC
8
DEFAULT_255_1_388
10
11.2161307
20
14.2348144
40
1.1091618
50
66.1845203
51
71.086519
0
ARC
8
DEFAULT_255_1_388
10
11.3911856
20
14.6289439
40
0.6779073
50
59.3537334
51
66.269255
0
ARC
8
DEFAULT_255_1_388
10
11.4911582
20
14.7980777
40
0.4814366
50
49.1021732
51
59.3294421
0
ARC
8
DEFAULT_255_1_388
10
11.583257
20
14.9030575
40
0.3417875
50
32.7924183
51
49.2503526
0
ARC
8
DEFAULT_255_1_388
10
11.6182185
20
14.9280311
40
0.2988789
50
31.121225
51
32.3977355
0
ARC
8
DEFAULT_255_1_388
10
11.6094363
20
14.9247728
40
0.3080861
50
8.1116803
51
30.7958224
0
ARC
8
DEFAULT_255_1_388
10
11.5182708
20
14.9092437
40
0.4005385
50
359.8390945
51
8.4707348
0
ARC
8
DEFAULT_255_1_388
10
11.5886756
20
14.9037751
40
0.3301608
50
337.4732479
51
0.7538283
0
ARC
8
DEFAULT_255_1_388
10
11.6087781
20
14.9015554
40
0.3107929
50
307.5917028
51
336.4313755
0
ARC
8
DEFAULT_255_1_388
10
11.5576839
20
14.9583509
40
0.3870096
50
307.6560665
51
308.4561779
0
ARC
8
DEFAULT_255_1_388
10
11.5311055
20
14.9991832
40
0.435591
50
284.3733666
51
307.1426212
0
ARC
8
DEFAULT_255_1_388
10
11.4753949
20
15.2041391
40
0.6479685
50
272.4384566
51
284.6464689
0
ARC
8
DEFAULT_255_1_388
10
11.4611334
20
15.4065434
40
0.8508149
50
269.9708517
51
272.8180721
0
ARC
8
DEFAULT_255_1_388
10
11.4563017
20
15.1773283
40
0.6216151
50
248.2707343
51
270.4054609
0
ARC
8
DEFAULT_255_1_388
10
11.4501888
20
15.1558673
40
0.5994203
50
246.1380358
51
248.054058
0
ARC
8
DEFAULT_255_1_388
10
11.4031031
20
15.0569705
40
0.4899388
50
233.1671897
51
246.4951656
0
ARC
8
DEFAULT_255_1_388
10
11.3407666
20
14.9728137
40
0.3852115
50
215.3403381
51
233.084328
0
ARC
8
DEFAULT_255_1_388
10
11.310103
20
14.9505093
40
0.3472969
50
179.2419235
51
215.2648426
0
ARC
8
DEFAULT_255_1_388
10
11.3964581
20
14.9520979
40
0.259251
50
179.3355796
51
199.1045873
0
ARC
8
DEFAULT_255_1_388
10
11.3590723
20
14.9423223
40
0.2207454
50
199.8830064
51
232.7061328
0
ARC
8
DEFAULT_255_1_388
10
11.4121997
20
15.0091456
40
0.306101
50
232.3736206
51
255.5136621
0
ARC
8
DEFAULT_255_1_388
10
11.4505503
20
15.1491177
40
0.4512213
50
255.2447928
51
267.5318292
0
ARC
8
DEFAULT_255_1_388
10
11.460397
20
15.2877709
40
0.5901825
50
267.1564563
51
270.0294721
0
ARC
8
DEFAULT_255_1_388
10
11.4635295
20
15.2378623
40
0.5402814
50
269.6999944
51
278.1662446
0
ARC
8
DEFAULT_255_1_388
10
11.4923323
20
15.0431974
40
0.3435003
50
278.0229022
51
290.6255326
0
ARC
8
DEFAULT_255_1_388
10
11.5314489
20
14.9388547
40
0.2320666
50
290.6616368
51
307.0374127
0
ARC
8
DEFAULT_255_1_388
10
11.5652389
20
14.897404
40
0.1786372
50
306.3942078
51
355.303191
0
ARC
8
DEFAULT_255_1_388
10
11.5076682
20
14.9060186
40
0.2367516
50
354.3662092
51
0.0709489
0
ARC
8
DEFAULT_255_1_388
10
11.5236551
20
14.9085561
40
0.2207761
50
359.4175379
51
16.1975911
0
ARC
8
DEFAULT_255_1_388
10
11.5748669
20
14.9225954
40
0.1676828
50
16.4721294
51
52.6261798
0
ARC
8
DEFAULT_255_1_388
10
11.4825177
20
14.8006606
40
0.3206412
50
52.7381828
51
62.4979144
0
ARC
8
DEFAULT_255_1_388
10
11.3266929
20
14.5074236
40
0.6527035
50
62.2517425
51
68.1219454
0
ARC
8
DEFAULT_255_1_388
10
11.1332417
20
14.0319951
40
1.1659797
50
68.006043
51
71.8055127
0
ARC
8
DEFAULT_255_1_388
10
10.9312325
20
13.4261723
40
1.8045908
50
71.718361
51
73.9260743
0
LINE
8
DEFAULT_255_1_388
10
12.6470807
20
15.8957148
11
12.6470807
21
14.5738
0
LINE
8
DEFAULT_255_1_388
10
12.6470807
20
14.5738
11
12.4790177
21
14.5738
0
LINE
8
DEFAULT_255_1_388
10
12.4790177
20
14.5738
11
12.4790177
21
15.687895
0
LINE
8
DEFAULT_255_1_388
10
12.4790177
20
15.687895
11
12.1419882
21
15.5641066
0
LINE
8
DEFAULT_255_1_388
10
12.1419882
20
15.5641066
11
12.1419882
21
15.7159055
0
LINE
8
DEFAULT_255_1_388
10
12.1419882
20
15.7159055
11
12.6208773
21
15.8957148
0
LINE
8
DEFAULT_255_1_388
10
12.6208773
20
15.8957148
11
12.6470807
21
15.8957148
0
LINE
8
DEFAULT_255_1_388
10
13.5018527
20
15.2008737
11
13.5018527
21
15.0644355
0
LINE
8
DEFAULT_255_1_388
10
13.5018527
20
15.0644355
11
13.0609132
21
15.0644355
0
LINE
8
DEFAULT_255_1_388
10
13.0609132
20
15.0644355
11
13.0609132
21
15.2008737
0
LINE
8
DEFAULT_255_1_388
10
13.0609132
20
15.2008737
11
13.5018527
21
15.2008737
0
LINE
8
DEFAULT_255_1_388
10
14.5635409
20
15.5089892
11
14.389153
21
15.5089892
0
LINE
8
DEFAULT_255_1_388
10
13.6102804
20
14.9551042
11
13.7846684
21
14.9551042
0
ARC
8
DEFAULT_255_1_388
10
14.4632257
20
16.5153821
40
1.4087688
50
248.9196578
51
254.1442424
0
ARC
8
DEFAULT_255_1_388
10
14.2742137
20
16.0287805
40
0.8867498
50
241.6337352
51
249.0064643
0
ARC
8
DEFAULT_255_1_388
10
14.102245
20
15.7136764
40
0.5277799
50
230.4982261
51
241.8087583
0
ARC
8
DEFAULT_255_1_388
10
14.0140221
20
15.6012686
40
0.3849419
50
227.4062979
51
229.9877433
0
ARC
8
DEFAULT_255_1_388
10
13.9591568
20
15.5477155
40
0.3084129
50
200.6782127
51
228.1765252
0
ARC
8
DEFAULT_255_1_388
10
13.9672937
20
15.5460277
40
0.315461
50
179.506278
51
199.8695278
0
ARC
8
DEFAULT_255_1_388
10
13.9662526
20
15.5543671
40
0.3144584
50
132.4834401
51
181.0242352
0
ARC
8
DEFAULT_255_1_388
10
14.033173
20
15.4911788
40
0.4063094
50
129.2526113
51
133.4249077
0
ARC
8
DEFAULT_255_1_388
10
14.0497322
20
15.4663619
40
0.436014
50
101.9878945
51
128.8741833
0
ARC
8
DEFAULT_255_1_388
10
14.0945738
20
15.272736
40
0.6347415
50
89.5906376
51
102.3170567
0
ARC
8
DEFAULT_255_1_388
10
14.1025049
20
15.3085586
40
0.5989122
50
77.2359491
51
90.3248968
0
ARC
8
DEFAULT_255_1_388
10
14.125798
20
15.4173554
40
0.4876594
50
63.8379856
51
77.0808925
0
ARC
8
DEFAULT_255_1_388
10
14.1570514
20
15.4755882
40
0.4216191
50
45.9863127
51
64.1608798
0
ARC
8
DEFAULT_255_1_388
10
14.1863907
20
15.509099
40
0.3771394
50
32.2747934
51
45.6544796
0
ARC
8
DEFAULT_255_1_388
10
14.1938714
20
15.5112426
40
0.3696765
50
359.6507495
51
32.6129943
0
ARC
8
DEFAULT_255_1_388
10
14.0877897
20
15.5117788
40
0.3013762
50
359.469654
51
14.983205
0
ARC
8
DEFAULT_255_1_388
10
14.1671149
20
15.5330288
40
0.2192542
50
14.9781954
51
48.2004799
0
ARC
8
DEFAULT_255_1_388
10
14.148626
20
15.5097937
40
0.2489048
50
48.5926661
51
74.1242559
0
ARC
8
DEFAULT_255_1_388
10
14.1111062
20
15.3859607
40
0.3782845
50
73.7889321
51
86.6653996
0
ARC
8
DEFAULT_255_1_388
10
14.0995877
20
15.2501955
40
0.5145025
50
86.2642725
51
90.0533288
0
ARC
8
DEFAULT_255_1_388
10
14.0963969
20
15.2946376
40
0.4700681
50
89.669455
51
99.2313411
0
ARC
8
DEFAULT_255_1_388
10
14.0691129
20
15.4571401
40
0.3052945
50
99.0695987
51
113.7659242
0
ARC
8
DEFAULT_255_1_388
10
14.0383124
20
15.5297772
40
0.226407
50
114.0402885
51
127.9848946
0
ARC
8
DEFAULT_255_1_388
10
14.01126
20
15.5630884
40
0.1835045
50
127.7287217
51
176.7106493
0
ARC
8
DEFAULT_255_1_388
10
14.0876265
20
15.551721
40
0.2604907
50
175.1780759
51
180.0581213
0
ARC
8
DEFAULT_255_1_388
10
13.9927608
20
15.5503411
40
0.1656287
50
179.6140658
51
228.124674
0
ARC
8
DEFAULT_255_1_388
10
14.0424966
20
15.596394
40
0.2332038
50
226.5785315
51
230.8792476
0
ARC
8
DEFAULT_255_1_388
10
14.0954452
20
15.6666908
40
0.3211664
50
231.4636401
51
241.9261664
0
ARC
8
DEFAULT_255_1_388
10
14.2301236
20
15.9145349
40
0.6032345
50
241.7177136
51
248.3259138
0
ARC
8
DEFAULT_255_1_388
10
14.3859831
20
16.3006771
40
1.0196417
50
248.2007377
51
252.4527713
0
ARC
8
DEFAULT_255_1_388
10
14.5213357
20
16.7191092
40
1.4594143
50
252.3388938
51
254.347037
0
ARC
8
DEFAULT_255_1_388
10
13.6728658
20
13.6843095
40
1.6917621
50
71.0197462
51
74.4085467
0
ARC
8
DEFAULT_255_1_388
10
13.8635746
20
14.2348144
40
1.1091618
50
66.1845203
51
71.086519
0
ARC
8
DEFAULT_255_1_388
10
14.0386295
20
14.6289439
40
0.6779073
50
59.3537334
51
66.269255
0
ARC
8
DEFAULT_255_1_388
10
14.1386021
20
14.7980777
40
0.4814366
50
49.1021732
51
59.3294421
0
ARC
8
DEFAULT_255_1_388
10
14.2307009
20
14.9030575
40
0.3417875
50
32.7924183
51
49.2503526
0
ARC
8
DEFAULT_255_1_388
10
14.2656623
20
14.9280311
40
0.2988789
50
31.121225
51
32.3977355
0
ARC
8
DEFAULT_255_1_388
10
14.2568801
20
14.9247728
40
0.3080861
50
8.1116803
51
30.7958224
0
ARC
8
DEFAULT_255_1_388
10
14.1657147
20
14.9092437
40
0.4005385
50
359.8390945
51
8.4707348
0
ARC
8
DEFAULT_255_1_388
10
14.2361194
20
14.9037751
40
0.3301608
50
337.4732479
51
0.7538283
0
ARC
8
DEFAULT_255_1_388
10
14.2562219
20
14.9015554
40
0.3107929
50
307.5917028
51
336.4313755
0
ARC
8
DEFAULT_255_1_388
10
14.2051277
20
14.9583509
40
0.3870096
50
307.6560665
51
308.4561779
0
ARC
8
DEFAULT_255_1_388
10
14.1785494
20
14.9991832
40
0.435591
50
284.3733666
51
307.1426212
0
ARC
8
DEFAULT_255_1_388
10
14.1228388
20
15.2041391
40
0.6479685
50
272.4384566
51
284.6464689
0
ARC
8
DEFAULT_255_1_388
10
14.1085773
20
15.4065434
40
0.8508149
50
269.9708517
51
272.8180721
0
ARC
8
DEFAULT_255_1_388
10
14.1037455
20
15.1773283
40
0.6216151
50
248.2707343
51
270.4054609
0
ARC
8
DEFAULT_255_1_388
10
14.0976327
20
15.1558673
40
0.5994203
50
246.1380358
51
248.054058
0
ARC
8
DEFAULT_255_1_388
10
14.0505469
20
15.0569705
40
0.4899388
50
233.1671897
51
246.4951656
0
ARC
8
DEFAULT_255_1_388
10
13.9882105
20
14.9728137
40
0.3852115
50
215.3403381
51
233.084328
0
ARC
8
DEFAULT_255_1_388
10
13.9575469
20
14.9505093
40
0.3472969
50
179.2419235
51
215.2648426
0
ARC
8
DEFAULT_255_1_388
10
14.043902
20
14.9520979
40
0.259251
50
179.3355796
51
199.1045873
0
ARC
8
DEFAULT_255_1_388
10
14.0065161
20
14.9423223
40
0.2207454
50
199.8830064
51
232.7061328
0
ARC
8
DEFAULT_255_1_388
10
14.0596436
20
15.0091456
40
0.306101
50
232.3736206
51
255.5136621
0
ARC
8
DEFAULT_255_1_388
10
14.0979942
20
15.1491177
40
0.4512213
50
255.2447928
51
267.5318292
0
ARC
8
DEFAULT_255_1_388
10
14.1078409
20
15.2877709
40
0.5901825
50
267.1564563
51
270.0294721
0
ARC
8
DEFAULT_255_1_388
10
14.1109734
20
15.2378623
40
0.5402814
50
269.6999944
51
278.1662446
0
ARC
8
DEFAULT_255_1_388
10
14.1397761
20
15.0431974
40
0.3435003
50
278.0229022
51
290.6255326
0
ARC
8
DEFAULT_255_1_388
10
14.1788928
20
14.9388547
40
0.2320666
50
290.6616368
51
307.0374127
0
ARC
8
DEFAULT_255_1_388
10
14.2126828
20
14.897404
40
0.1786372
50
306.3942078
51
355.303191
0
ARC
8
DEFAULT_255_1_388
10
14.1551121
20
14.9060186
40
0.2367516
50
354.3662092
51
0.0709489
0
ARC
8
DEFAULT_255_1_388
10
14.171099
20
14.9085561
40
0.2207761
50
359.4175379
51
16.1975911
0
ARC
8
DEFAULT_255_1_388
10
14.2223107
20
14.9225954
40
0.1676828
50
16.4721294
51
52.6261798
0
ARC
8
DEFAULT_255_1_388
10
14.1299615
20
14.8006606
40
0.3206412
50
52.7381828
51
62.4979144
0
ARC
8
DEFAULT_255_1_388
10
13.9741368
20
14.5074236
40
0.6527035
50
62.2517425
51
68.1219454
0
ARC
8
DEFAULT_255_1_388
10
13.7806856
20
14.0319951
40
1.1659797
50
68.006043
51
71.8055127
0
ARC
8
DEFAULT_255_1_388
10
13.5786764
20
13.4261723
40
1.8045908
50
71.718361
51
73.9260743
0
LINE
8
DEFAULT_255_1_388
10
14.7198576
20
15.0355214
11
14.7198576
21
15.0662426
0
LINE
8
DEFAULT_255_1_388
10
15.5493297
20
15.0843139
11
15.5493297
21
15.0147395
0
LINE
8
DEFAULT_255_1_388
10
15.5493297
20
15.0147395
11
14.887017
21
15.0147395
0
LINE
8
DEFAULT_255_1_388
10
15.4345771
20
14.8240874
11
15.5366798
21
14.7445737
0
LINE
8
DEFAULT_255_1_388
10
14.8924384
20
15.1520813
11
15.3821703
21
15.1520813
0
LINE
8
DEFAULT_255_1_388
10
15.3821703
20
15.1520813
11
15.3821703
21
15.1647312
0
ARC
8
DEFAULT_255_1_388
10
15.1630337
20
15.048021
40
0.4923176
50
252.326534
51
270.5809615
0
ARC
8
DEFAULT_255_1_388
10
15.1399801
20
14.964694
40
0.4059384
50
223.3000488
51
251.8562489
0
ARC
8
DEFAULT_255_1_388
10
15.1637581
20
14.9877898
40
0.4390832
50
190.9374369
51
223.3654369
0
ARC
8
DEFAULT_255_1_388
10
15.3578259
20
15.0316598
40
0.63798
50
179.6531919
51
191.4988561
0
ARC
8
DEFAULT_255_1_388
10
15.3715286
20
15.0698571
40
0.6516811
50
167.4005523
51
180.3177836
0
ARC
8
DEFAULT_255_1_388
10
15.2531957
20
15.0948853
40
0.5307402
50
154.1835149
51
167.2508278
0
ARC
8
DEFAULT_255_1_388
10
15.1821548
20
15.1322925
40
0.4505076
50
134.3150225
51
154.5315008
0
ARC
8
DEFAULT_255_1_388
10
15.1576883
20
15.153755
40
0.4180662
50
122.8617482
51
133.9707159
0
ARC
8
DEFAULT_255_1_388
10
15.1460491
20
15.1787882
40
0.3907416
50
89.8248474
51
123.4199325
0
ARC
8
DEFAULT_255_1_388
10
15.1516789
20
15.1060352
40
0.4635141
50
74.7874349
51
90.5482648
0
ARC
8
DEFAULT_255_1_388
10
15.1847252
20
15.2280987
40
0.3370565
50
39.8178888
51
74.7634383
0
ARC
8
DEFAULT_255_1_388
10
15.1270495
20
15.1831356
40
0.4101553
50
16.8990848
51
39.4830125
0
ARC
8
DEFAULT_255_1_388
10
14.9139109
20
15.1148711
40
0.6339427
50
4.9634768
51
17.2027767
0
ARC
8
DEFAULT_255_1_388
10
14.6418514
20
15.08616
40
0.9074803
50
359.8834402
51
5.2832409
0
ARC
8
DEFAULT_255_1_388
10
15.3210872
20
15.0221981
40
0.4341343
50
180.9844233
51
194.9402766
0
ARC
8
DEFAULT_255_1_388
10
15.2030037
20
14.989917
40
0.3117211
50
194.8030557
51
222.0412897
0
ARC
8
DEFAULT_255_1_388
10
15.168791
20
14.9559715
40
0.2635903
50
221.541578
51
268.8616004
0
ARC
8
DEFAULT_255_1_388
10
15.177003
20
15.032028
40
0.3398611
50
267.7321071
51
270.009808
0
ARC
8
DEFAULT_255_1_388
10
15.1790094
20
15.0547178
40
0.3625561
50
269.6921218
51
280.4122297
0
ARC
8
DEFAULT_255_1_388
10
15.1988505
20
14.9513767
40
0.2573323
50
280.2257165
51
298.633539
0
ARC
8
DEFAULT_255_1_388
10
15.2113919
20
14.9249578
40
0.2281403
50
299.0485543
51
300.4624141
0
ARC
8
DEFAULT_255_1_388
10
15.1354899
20
15.0514796
40
0.3756797
50
300.6578578
51
322.037749
0
ARC
8
DEFAULT_255_1_388
10
15.0984421
20
15.0838266
40
0.4247956
50
321.671786
51
322.3059078
0
ARC
8
DEFAULT_255_1_388
10
15.2007984
20
14.9544267
40
0.3960488
50
276.9729088
51
328.0035579
0
ARC
8
DEFAULT_255_1_388
10
15.1696454
20
15.1209609
40
0.5652345
50
269.8358003
51
278.0581296
0
ARC
8
DEFAULT_255_1_388
10
15.1440753
20
15.204782
40
0.2274263
50
89.2017936
51
117.2852353
0
ARC
8
DEFAULT_255_1_388
10
15.1500504
20
15.2000637
40
0.2343798
50
118.0546404
51
137.4544511
0
ARC
8
DEFAULT_255_1_388
10
15.1922147
20
15.1617556
40
0.2913471
50
137.5109688
51
158.8516701
0
ARC
8
DEFAULT_255_1_388
10
15.3202248
20
15.1100902
40
0.4293804
50
158.5845496
51
170.1719753
0
ARC
8
DEFAULT_255_1_388
10
15.4518584
20
15.0839519
40
0.5635533
50
169.8378964
51
173.0563877
0
ARC
8
DEFAULT_255_1_388
10
14.9233867
20
15.1414187
40
0.4593755
50
2.9089079
51
12.88469
0
ARC
8
DEFAULT_255_1_388
10
15.0775787
20
15.1777082
40
0.3009753
50
12.6957404
51
28.6405841
0
ARC
8
DEFAULT_255_1_388
10
15.1385284
20
15.2092577
40
0.232366
50
29.016559
51
41.1492981
0
ARC
8
DEFAULT_255_1_388
10
15.1613263
20
15.229108
40
0.2021373
50
41.1646967
51
85.001362
0
ARC
8
DEFAULT_255_1_388
10
15.1477267
20
15.1464775
40
0.2857091
50
83.728216
51
90.0968824
0
LINE
8
DEFAULT_255_1_388
10
16.2152567
20
15.5568781
11
16.2152567
21
15.401465
0
LINE
8
DEFAULT_255_1_388
10
15.909852
20
15.2677375
11
15.909852
21
14.5738
0
LINE
8
DEFAULT_255_1_388
10
15.909852
20
14.5738
11
15.7426925
21
14.5738
0
LINE
8
DEFAULT_255_1_388
10
15.7426925
20
14.5738
11
15.7426925
21
15.5514567
0
LINE
8
DEFAULT_255_1_388
10
15.7426925
20
15.5514567
11
15.9053341
21
15.5514567
0
LINE
8
DEFAULT_255_1_388
10
15.9053341
20
15.5514567
11
15.9080448
21
15.4385112
0
ARC
8
DEFAULT_255_1_388
10
16.1402727
20
14.9448068
40
0.4627735
50
80.6751522
51
86.893806
0
ARC
8
DEFAULT_255_1_388
10
16.1334557
20
14.8356103
40
0.5721798
50
86.8046851
51
90.0423898
0
ARC
8
DEFAULT_255_1_388
10
16.1292977
20
15.1123197
40
0.2954939
50
89.2758283
51
106.6212906
0
ARC
8
DEFAULT_255_1_388
10
16.1063001
20
15.1959009
40
0.2088351
50
107.1347109
51
157.6456887
0
ARC
8
DEFAULT_255_1_388
10
16.1831064
20
15.1531908
40
0.296292
50
155.6557383
51
157.256838
0
ARC
8
DEFAULT_255_1_388
10
16.1610678
20
15.2842472
40
0.296341
50
127.8167201
51
148.6300223
0
ARC
8
DEFAULT_255_1_388
10
16.1325425
20
15.3135066
40
0.2557782
50
91.3329934
51
126.7875218
0
ARC
8
DEFAULT_255_1_388
10
16.1410812
20
15.2331718
40
0.3363561
50
89.9858247
51
92.4688453
0
ARC
8
DEFAULT_255_1_388
10
16.1420305
20
15.2640114
40
0.3055179
50
85.3587643
51
90.1624243
0
ARC
8
DEFAULT_255_1_388
10
16.1515371
20
15.3769458
40
0.1921848
50
78.4019195
51
85.4592653
0
ARC
8
DEFAULT_255_1_388
10
16.1678431
20
15.4547142
40
0.1127267
50
67.7849217
51
78.573798
0
ARC
8
DEFAULT_255_1_388
10
16.1800066
20
15.4862374
40
0.0789473
50
63.4805074
51
67.3074739
0
LINE
8
DEFAULT_255_1_388
10
16.5504792
20
15.5514567
11
16.5504792
21
14.5738
0
LINE
8
DEFAULT_255_1_388
10
16.5504792
20
14.5738
11
16.3833197
21
14.5738
0
LINE
8
DEFAULT_255_1_388
10
16.3833197
20
14.5738
11
16.3833197
21
15.5514567
0
LINE
8
DEFAULT_255_1_388
10
16.3833197
20
15.5514567
11
16.5504792
21
15.5514567
0
ARC
8
DEFAULT_255_1_388
10
16.479856
20
15.8118428
40
0.1100948
50
161.4148232
51
180.5532607
0
ARC
8
DEFAULT_255_1_388
10
16.4658869
20
15.8156875
40
0.0956324
50
138.1830164
51
160.9307633
0
ARC
8
DEFAULT_255_1_388
10
16.4535057
20
15.8264313
40
0.0792417
50
104.6371663
51
138.0036136
0
ARC
8
DEFAULT_255_1_388
10
16.4655595
20
15.7851963
40
0.1221906
50
92.0601206
51
105.2198859
0
ARC
8
DEFAULT_255_1_388
10
16.4681959
20
15.7463583
40
0.161103
50
89.9790681
51
92.5006086
0
ARC
8
DEFAULT_255_1_388
10
16.4693135
20
15.7719998
40
0.1354654
50
78.0234649
51
90.4478111
0
ARC
8
DEFAULT_255_1_388
10
16.479672
20
15.8185203
40
0.0878096
50
55.0521508
51
78.336297
0
ARC
8
DEFAULT_255_1_388
10
16.4853254
20
15.8280168
40
0.0767913
50
42.0506198
51
54.4508489
0
ARC
8
DEFAULT_255_1_388
10
16.4701287
20
15.8140821
40
0.0974091
50
1.7493657
51
42.1498724
0
ARC
8
DEFAULT_255_1_388
10
16.4415193
20
15.8108166
40
0.1261276
50
359.9832635
51
2.8353994
0
ARC
8
DEFAULT_255_1_388
10
16.4601603
20
15.8097412
40
0.1074916
50
342.1062453
51
0.5535864
0
ARC
8
DEFAULT_255_1_388
10
16.4762027
20
15.8053197
40
0.0908695
50
316.7110111
51
341.6513114
0
ARC
8
DEFAULT_255_1_388
10
16.4837459
20
15.7985607
40
0.0807447
50
285.4398289
51
316.5320129
0
ARC
8
DEFAULT_255_1_388
10
16.4713629
20
15.8397023
40
0.1237022
50
272.3543902
51
285.8951677
0
ARC
8
DEFAULT_255_1_388
10
16.4683339
20
15.8812742
40
0.1653687
50
269.9725761
51
272.8112722
0
ARC
8
DEFAULT_255_1_388
10
16.4672391
20
15.8561727
40
0.1402709
50
258.8433431
51
270.4148607
0
ARC
8
DEFAULT_255_1_388
10
16.4571171
20
15.8071739
40
0.0902407
50
238.54281
51
259.1289544
0
ARC
8
DEFAULT_255_1_388
10
16.4494493
20
15.7932694
40
0.0743817
50
222.5056676
51
237.9918132
0
ARC
8
DEFAULT_255_1_388
10
16.4638086
20
15.8063295
40
0.0937918
50
184.1070774
51
222.4604165
0
ARC
8
DEFAULT_255_1_388
10
16.49405
20
15.8106538
40
0.1242838
50
179.9419581
51
185.0970785
0
LINE
8
DEFAULT_255_1_388
10
16.7754667
20
15.0355214
11
16.7754667
21
15.0662426
0
LINE
8
DEFAULT_255_1_388
10
17.6049389
20
15.0843139
11
17.6049389
21
15.0147395
0
LINE
8
DEFAULT_255_1_388
10
17.6049389
20
15.0147395
11
16.9426261
21
15.0147395
0
LINE
8
DEFAULT_255_1_388
10
17.4901862
20
14.8240874
11
17.592289
21
14.7445737
0
LINE
8
DEFAULT_255_1_388
10
16.9480475
20
15.1520813
11
17.4377794
21
15.1520813
0
LINE
8
DEFAULT_255_1_388
10
17.4377794
20
15.1520813
11
17.4377794
21
15.1647312
0
ARC
8
DEFAULT_255_1_388
10
17.2186428
20
15.048021
40
0.4923176
50
252.326534
51
270.5809615
0
ARC
8
DEFAULT_255_1_388
10
17.1955892
20
14.964694
40
0.4059384
50
223.3000488
51
251.8562489
0
ARC
8
DEFAULT_255_1_388
10
17.2193672
20
14.9877898
40
0.4390832
50
190.9374369
51
223.3654369
0
ARC
8
DEFAULT_255_1_388
10
17.413435
20
15.0316598
40
0.63798
50
179.6531919
51
191.4988561
0
ARC
8
DEFAULT_255_1_388
10
17.4271377
20
15.0698571
40
0.6516811
50
167.4005523
51
180.3177836
0
ARC
8
DEFAULT_255_1_388
10
17.3088049
20
15.0948853
40
0.5307402
50
154.1835149
51
167.2508278
0
ARC
8
DEFAULT_255_1_388
10
17.237764
20
15.1322925
40
0.4505076
50
134.3150225
51
154.5315008
0
ARC
8
DEFAULT_255_1_388
10
17.2132975
20
15.153755
40
0.4180662
50
122.8617482
51
133.9707159
0
ARC
8
DEFAULT_255_1_388
10
17.2016582
20
15.1787882
40
0.3907416
50
89.8248474
51
123.4199325
0
ARC
8
DEFAULT_255_1_388
10
17.207288
20
15.1060352
40
0.4635141
50
74.7874349
51
90.5482648
0
ARC
8
DEFAULT_255_1_388
10
17.2403344
20
15.2280987
40
0.3370565
50
39.8178888
51
74.7634383
0
ARC
8
DEFAULT_255_1_388
10
17.1826586
20
15.1831356
40
0.4101553
50
16.8990848
51
39.4830125
0
ARC
8
DEFAULT_255_1_388
10
16.96952
20
15.1148711
40
0.6339427
50
4.9634768
51
17.2027767
0
ARC
8
DEFAULT_255_1_388
10
16.6974605
20
15.08616
40
0.9074803
50
359.8834402
51
5.2832409
0
ARC
8
DEFAULT_255_1_388
10
17.3766963
20
15.0221981
40
0.4341343
50
180.9844233
51
194.9402766
0
ARC
8
DEFAULT_255_1_388
10
17.2586129
20
14.989917
40
0.3117211
50
194.8030557
51
222.0412897
0
ARC
8
DEFAULT_255_1_388
10
17.2244001
20
14.9559715
40
0.2635903
50
221.541578
51
268.8616004
0
ARC
8
DEFAULT_255_1_388
10
17.2326121
20
15.032028
40
0.3398611
50
267.7321071
51
270.009808
0
ARC
8
DEFAULT_255_1_388
10
17.2346185
20
15.0547178
40
0.3625561
50
269.6921218
51
280.4122297
0
ARC
8
DEFAULT_255_1_388
10
17.2544596
20
14.9513767
40
0.2573323
50
280.2257165
51
298.633539
0
ARC
8
DEFAULT_255_1_388
10
17.267001
20
14.9249578
40
0.2281403
50
299.0485543
51
300.4624141
0
ARC
8
DEFAULT_255_1_388
10
17.191099
20
15.0514796
40
0.3756797
50
300.6578578
51
322.037749
0
ARC
8
DEFAULT_255_1_388
10
17.1540512
20
15.0838266
40
0.4247956
50
321.671786
51
322.3059078
0
ARC
8
DEFAULT_255_1_388
10
17.2564075
20
14.9544267
40
0.3960488
50
276.9729088
51
328.0035579
0
ARC
8
DEFAULT_255_1_388
10
17.2252545
20
15.1209609
40
0.5652345
50
269.8358003
51
278.0581296
0
ARC
8
DEFAULT_255_1_388
10
17.1996844
20
15.204782
40
0.2274263
50
89.2017936
51
117.2852353
0
ARC
8
DEFAULT_255_1_388
10
17.2056595
20
15.2000637
40
0.2343798
50
118.0546404
51
137.4544511
0
ARC
8
DEFAULT_255_1_388
10
17.2478239
20
15.1617556
40
0.2913471
50
137.5109688
51
158.8516701
0
ARC
8
DEFAULT_255_1_388
10
17.3758339
20
15.1100902
40
0.4293804
50
158.5845496
51
170.1719753
0
ARC
8
DEFAULT_255_1_388
10
17.5074675
20
15.0839519
40
0.5635533
50
169.8378964
51
173.0563877
0
ARC
8
DEFAULT_255_1_388
10
16.9789959
20
15.1414187
40
0.4593755
50
2.9089079
51
12.88469
0
ARC
8
DEFAULT_255_1_388
10
17.1331878
20
15.1777082
40
0.3009753
50
12.6957404
51
28.6405841
0
ARC
8
DEFAULT_255_1_388
10
17.1941375
20
15.2092577
40
0.232366
50
29.016559
51
41.1492981
0
ARC
8
DEFAULT_255_1_388
10
17.2169354
20
15.229108
40
0.2021373
50
41.1646967
51
85.001362
0
ARC
8
DEFAULT_255_1_388
10
17.2033358
20
15.1464775
40
0.2857091
50
83.728216
51
90.0968824
0
LINE
8
DEFAULT_255_1_388
10
18.525671
20
15.2641232
11
18.3576081
21
15.2641232
0
LINE
8
DEFAULT_255_1_388
10
17.7576413
20
14.874687
11
17.9248007
21
14.874687
0
ARC
8
DEFAULT_255_1_388
10
18.2239371
20
14.8347935
40
0.1436198
50
359.3335374
51
18.5869869
0
ARC
8
DEFAULT_255_1_388
10
18.2474111
20
14.8410015
40
0.1194022
50
19.3538149
51
54.6486387
0
ARC
8
DEFAULT_255_1_388
10
18.1907098
20
14.7628077
40
0.2159877
50
54.3821575
51
65.0627557
0
ARC
8
DEFAULT_255_1_388
10
18.1042445
20
14.5809032
40
0.4173927
50
64.8282172
51
71.4204388
0
ARC
8
DEFAULT_255_1_388
10
18.0027341
20
14.2830782
40
0.7320403
50
71.3166092
51
75.8005927
0
ARC
8
DEFAULT_255_1_388
10
17.9081227
20
13.9185881
40
1.108605
50
75.6810806
51
78.0063886
0
ARC
8
DEFAULT_255_1_388
10
18.4085815
20
16.278753
40
1.3040363
50
254.69024
51
258.0465557
0
ARC
8
DEFAULT_255_1_388
10
18.2917684
20
15.8557742
40
0.8652254
50
249.9010634
51
254.7555005
0
ARC
8
DEFAULT_255_1_388
10
18.1788736
20
15.549168
40
0.5384962
50
243.3097375
51
249.970939
0
ARC
8
DEFAULT_255_1_388
10
18.108115
20
15.4080721
40
0.380652
50
234.4047808
51
243.2861752
0
ARC
8
DEFAULT_255_1_388
10
18.0380786
20
15.3113645
40
0.2612502
50
220.8665526
51
234.5497192
0
ARC
8
DEFAULT_255_1_388
10
17.9995785
20
15.2763203
40
0.2092097
50
214.3063391
51
220.5075055
0
ARC
8
DEFAULT_255_1_388
10
17.9966899
20
15.2728577
40
0.2048755
50
186.9131438
51
213.9617385
0
ARC
8
DEFAULT_255_1_388
10
18.0565289
20
15.2825431
40
0.2654563
50
179.8802037
51
187.4338578
0
ARC
8
DEFAULT_255_1_388
10
18.0391253
20
15.2848049
40
0.2480581
50
132.0053393
51
180.3942351
0
ARC
8
DEFAULT_255_1_388
10
18.1130166
20
15.2165997
40
0.3483116
50
129.2317021
51
133.5294826
0
ARC
8
DEFAULT_255_1_388
10
18.1190135
20
15.2060383
40
0.360291
50
100.440976
51
128.9081567
0
ARC
8
DEFAULT_255_1_388
10
18.1498253
20
15.0614357
40
0.5080996
50
89.6985063
51
100.9029043
0
ARC
8
DEFAULT_255_1_388
10
18.1562408
20
15.0433739
40
0.5261675
50
77.6967144
51
90.4074623
0
ARC
8
DEFAULT_255_1_388
10
18.193476
20
15.2039503
40
0.3613511
50
50.7278431
51
78.0397473
0
ARC
8
DEFAULT_255_1_388
10
18.2434803
20
15.2622173
40
0.2845966
50
25.754382
51
51.0957456
0
ARC
8
DEFAULT_255_1_388
10
18.243617
20
15.2678311
40
0.2820785
50
359.2468358
51
24.7393861
0
ARC
8
DEFAULT_255_1_388
10
18.2116057
20
15.2646204
40
0.1460032
50
359.8048924
51
45.1543866
0
ARC
8
DEFAULT_255_1_388
10
18.1657791
20
15.2254291
40
0.2061641
50
43.8053172
51
49.625485
0
ARC
8
DEFAULT_255_1_388
10
18.1667234
20
15.2255849
40
0.2054344
50
49.7979696
51
82.121802
0
ARC
8
DEFAULT_255_1_388
10
18.1533316
20
15.1528473
40
0.2793404
50
81.4458692
51
90.1707936
0
ARC
8
DEFAULT_255_1_388
10
18.1505893
20
15.0936478
40
0.3385438
50
89.6768097
51
99.1267111
0
ARC
8
DEFAULT_255_1_388
10
18.1312875
20
15.2099405
40
0.2206627
50
98.9679878
51
113.4573418
0
ARC
8
DEFAULT_255_1_388
10
18.1092555
20
15.2626193
40
0.1635691
50
113.7230234
51
127.4758155
0
ARC
8
DEFAULT_255_1_388
10
18.0903138
20
15.2851433
40
0.1341757
50
126.9086647
51
150.3160891
0
ARC
8
DEFAULT_255_1_388
10
18.0849469
20
15.290868
40
0.1266992
50
151.363328
51
180.0701537
0
ARC
8
DEFAULT_255_1_388
10
18.1159689
20
15.288523
40
0.1577364
50
179.2045432
51
180.0012892
0
ARC
8
DEFAULT_255_1_388
10
18.0790801
20
15.2870515
40
0.1208564
50
179.3040542
51
198.4225767
0
ARC
8
DEFAULT_255_1_388
10
18.0574942
20
15.2814337
40
0.0986126
50
199.2893055
51
238.6036855
0
ARC
8
DEFAULT_255_1_388
10
18.1253035
20
15.3878752
40
0.2248082
50
237.9844191
51
246.8751643
0
ARC
8
DEFAULT_255_1_388
10
18.2217895
20
15.6085861
40
0.4656832
50
246.6226408
51
251.8174794
0
ARC
8
DEFAULT_255_1_388
10
18.3378363
20
15.9570909
40
0.8329993
50
251.7140983
51
255.0775146
0
ARC
8
DEFAULT_255_1_388
10
18.4727887
20
16.4597708
40
1.3534786
50
255.0370864
51
257.4701577
0
ARC
8
DEFAULT_255_1_388
10
17.8980432
20
13.8703535
40
1.298957
50
73.6835762
51
77.5015749
0
ARC
8
DEFAULT_255_1_388
10
18.0205346
20
14.2865699
40
0.8650912
50
68.7042835
51
73.7249997
0
ARC
8
DEFAULT_255_1_388
10
18.122091
20
14.5482853
40
0.584363
50
63.5907059
51
68.6622978
0
ARC
8
DEFAULT_255_1_388
10
18.2088651
20
14.7213157
40
0.3907955
50
54.7106507
51
63.7018033
0
ARC
8
DEFAULT_255_1_388
10
18.2791039
20
14.8194287
40
0.2701345
50
41.0624597
51
54.8488532
0
ARC
8
DEFAULT_255_1_388
10
18.3174817
20
14.8546439
40
0.2180695
50
34.4952722
51
40.7097584
0
ARC
8
DEFAULT_255_1_388
10
18.3227782
20
14.8601204
40
0.2106083
50
9.3761233
51
34.0834046
0
ARC
8
DEFAULT_255_1_388
10
18.2492911
20
14.8460174
40
0.2854177
50
359.7695264
51
9.7660556
0
ARC
8
DEFAULT_255_1_388
10
18.2715204
20
14.8411841
40
0.2632121
50
335.8653103
51
0.8022272
0
ARC
8
DEFAULT_255_1_388
10
18.2799609
20
14.8426951
40
0.2561728
50
307.7357819
51
334.7849324
0
ARC
8
DEFAULT_255_1_388
10
18.235425
20
14.8926553
40
0.3229737
50
307.0217048
51
308.5596894
0
ARC
8
DEFAULT_255_1_388
10
18.2058835
20
14.9368063
40
0.3760237
50
282.9361285
51
306.5649033
0
ARC
8
DEFAULT_255_1_388
10
18.1651897
20
15.1018871
40
0.5460314
50
271.1026197
51
283.2199962
0
ARC
8
DEFAULT_255_1_388
10
18.1580085
20
15.2419744
40
0.6862456
50
269.9926344
51
271.4770056
0
ARC
8
DEFAULT_255_1_388
10
18.1550656
20
15.1202633
40
0.5645418
50
259.0723633
51
270.2897324
0
ARC
8
DEFAULT_255_1_388
10
18.131188
20
14.9945887
40
0.4366198
50
245.4965026
51
259.0225745
0
ARC
8
DEFAULT_255_1_388
10
18.0999097
20
14.9291491
40
0.3641037
50
228.9686619
51
245.7042678
0
ARC
8
DEFAULT_255_1_388
10
18.0700371
20
14.8923573
40
0.3167435
50
214.4015391
51
228.6759028
0
ARC
8
DEFAULT_255_1_388
10
18.0374869
20
14.8745429
40
0.2798456
50
179.9704983
51
215.1574389
0
ARC
8
DEFAULT_255_1_388
10
18.1163081
20
14.8828148
40
0.1916798
50
182.430239
51
203.0329751
0
ARC
8
DEFAULT_255_1_388
10
18.0955677
20
14.8764675
40
0.1701248
50
203.7987464
51
232.5483345
0
ARC
8
DEFAULT_255_1_388
10
18.1266761
20
14.9160049
40
0.2204299
50
232.3784541
51
256.3934343
0
ARC
8
DEFAULT_255_1_388
10
18.1525909
20
15.0161359
40
0.3238512
50
256.1048329
51
268.4627478
0
ARC
8
DEFAULT_255_1_388
10
18.1578328
20
15.1065297
40
0.4143627
50
268.0734924
51
270.0121004
0
ARC
8
DEFAULT_255_1_388
10
18.1599046
20
15.0751191
40
0.3829573
50
269.7031202
51
278.8338867
0
ARC
8
DEFAULT_255_1_388
10
18.180391
20
14.9479553
40
0.2541568
50
278.6727378
51
292.82331
0
ARC
8
DEFAULT_255_1_388
10
18.2029457
20
14.8915546
40
0.1934264
50
293.1457581
51
303.6656964
0
ARC
8
DEFAULT_255_1_388
10
18.232753
20
14.8492159
40
0.1416713
50
303.1245849
51
321.7434683
0
ARC
8
DEFAULT_255_1_388
10
18.2536612
20
14.830878
40
0.1139081
50
322.4747616
51
1.1293039
0
LINE
8
DEFAULT_255_1_388
10
4.8805318
20
12.7258382
11
4.8805318
21
12.5894
0
LINE
8
DEFAULT_255_1_388
10
4.8805318
20
12.5894
11
4.0185313
21
12.5894
0
LINE
8
DEFAULT_255_1_388
10
4.0185313
20
12.5894
11
4.0185313
21
12.7095741
0
LINE
8
DEFAULT_255_1_388
10
4.0185313
20
12.7095741
11
4.4739278
21
13.2155702
0
LINE
8
DEFAULT_255_1_388
10
4.1603909
20
13.5173607
11
3.9932315
21
13.5173607
0
LINE
8
DEFAULT_255_1_388
10
4.5724163
20
13.108046
11
4.2200262
21
12.7258382
0
LINE
8
DEFAULT_255_1_388
10
4.2200262
20
12.7258382
11
4.8805318
21
12.7258382
0
ARC
8
DEFAULT_255_1_388
10
2.9563337
20
14.5575983
40
2.0258655
50
318.5132526
51
320.7829045
0
ARC
8
DEFAULT_255_1_388
10
3.5511294
20
14.0734929
40
1.2589638
50
320.7372878
51
323.9739031
0
ARC
8
DEFAULT_255_1_388
10
3.9920226
20
13.7540554
40
0.7145141
50
323.8962701
51
328.64194
0
ARC
8
DEFAULT_255_1_388
10
4.2222484
20
13.6120545
40
0.4440242
50
328.8294576
51
331.7891185
0
ARC
8
DEFAULT_255_1_388
10
4.3344804
20
13.5541374
40
0.3177517
50
331.4254512
51
352.9365785
0
ARC
8
DEFAULT_255_1_388
10
4.3497804
20
13.550705
40
0.3021496
50
353.2257659
51
0.0166158
0
ARC
8
DEFAULT_255_1_388
10
4.3734564
20
13.5532894
40
0.2784847
50
359.486299
51
15.9343185
0
ARC
8
DEFAULT_255_1_388
10
4.4304831
20
13.5686269
40
0.2194403
50
16.1712913
51
43.5286088
0
ARC
8
DEFAULT_255_1_388
10
4.4391776
20
13.5773191
40
0.2071504
50
43.4417391
51
83.1661095
0
ARC
8
DEFAULT_255_1_388
10
4.4240937
20
13.4944316
40
0.2912888
50
82.160179
51
90.1505708
0
ARC
8
DEFAULT_255_1_388
10
4.4205418
20
13.4340279
40
0.3517025
50
89.5460741
51
102.5418361
0
ARC
8
DEFAULT_255_1_388
10
4.3932138
20
13.5499933
40
0.2325748
50
102.1738499
51
129.206123
0
ARC
8
DEFAULT_255_1_388
10
4.3843592
20
13.5639664
40
0.2161591
50
129.72865
51
135.753947
0
ARC
8
DEFAULT_255_1_388
10
4.3980074
20
13.5530728
40
0.2335433
50
136.1757367
51
166.3673339
0
ARC
8
DEFAULT_255_1_388
10
4.5112762
20
13.5227148
40
0.3507873
50
165.9090694
51
178.8684636
0
ARC
8
DEFAULT_255_1_388
10
4.6088534
20
13.5174263
40
0.4484624
50
178.4391136
51
180.0083808
0
ARC
8
DEFAULT_255_1_388
10
4.4509235
20
13.5218197
40
0.4577138
50
163.2878482
51
180.5581842
0
ARC
8
DEFAULT_255_1_388
10
4.3607276
20
13.5466393
40
0.3641968
50
133.4540601
51
162.947111
0
ARC
8
DEFAULT_255_1_388
10
4.3808158
20
13.5252789
40
0.3935189
50
100.7869829
51
133.4382499
0
ARC
8
DEFAULT_255_1_388
10
4.4199403
20
13.3510399
40
0.5720313
50
89.660664
51
101.3702276
0
ARC
8
DEFAULT_255_1_388
10
4.4274012
20
13.3579263
40
0.5651495
50
78.2172678
51
90.412935
0
ARC
8
DEFAULT_255_1_388
10
4.4673478
20
13.5406511
40
0.378122
50
55.9269121
51
78.4888449
0
ARC
8
DEFAULT_255_1_388
10
4.4894193
20
13.5787187
40
0.3342379
50
47.929771
51
55.4049217
0
ARC
8
DEFAULT_255_1_388
10
4.5008723
20
13.5903618
40
0.3179217
50
4.334829
51
48.0560205
0
ARC
8
DEFAULT_255_1_388
10
4.3776525
20
13.5712487
40
0.442341
50
359.9251713
51
5.5971671
0
ARC
8
DEFAULT_255_1_388
10
4.425868
20
13.5775728
40
0.3941854
50
337.8914027
51
358.9967534
0
ARC
8
DEFAULT_255_1_388
10
4.120625
20
13.6953295
40
0.7213271
50
326.9132501
51
338.3508308
0
ARC
8
DEFAULT_255_1_388
10
3.6722362
20
13.9827105
40
1.2538973
50
319.6471833
51
327.0959558
0
ARC
8
DEFAULT_255_1_388
10
3.240902
20
14.338505
40
1.8129975
50
317.2588228
51
319.9045804
0
LINE
8
DEFAULT_255_1_388
10
5.7633143
20
13.9049898
11
5.7633143
21
13.031243
0
LINE
8
DEFAULT_255_1_388
10
5.7633143
20
13.031243
11
5.9458343
21
13.031243
0
LINE
8
DEFAULT_255_1_388
10
5.9458343
20
13.031243
11
5.9458343
21
12.8948048
0
LINE
8
DEFAULT_255_1_388
10
5.9458343
20
12.8948048
11
5.7633143
21
12.8948048
0
LINE
8
DEFAULT_255_1_388
10
5.7633143
20
12.8948048
11
5.7633143
21
12.5894
0
LINE
8
DEFAULT_255_1_388
10
5.7633143
20
12.5894
11
5.5952513
21
12.5894
0
LINE
8
DEFAULT_255_1_388
10
5.5952513
20
12.5894
11
5.5952513
21
12.8948048
0
LINE
8
DEFAULT_255_1_388
10
5.5952513
20
12.8948048
11
4.996188
21
12.8948048
0
LINE
8
DEFAULT_255_1_388
10
4.996188
20
12.8948048
11
4.996188
21
12.9932933
0
LINE
8
DEFAULT_255_1_388
10
4.996188
20
12.9932933
11
5.5853121
21
13.9049898
0
LINE
8
DEFAULT_255_1_388
10
5.5853121
20
13.9049898
11
5.7633143
21
13.9049898
0
LINE
8
DEFAULT_255_1_388
10
5.5753729
20
13.6402455
11
5.1859366
21
13.031243
0
LINE
8
DEFAULT_255_1_388
10
5.1859366
20
13.031243
11
5.5952513
21
13.031243
0
LINE
8
DEFAULT_255_1_388
10
5.5952513
20
13.031243
11
5.5952513
21
13.676388
0
LINE
8
DEFAULT_255_1_388
10
5.5952513
20
13.676388
11
5.5753729
21
13.6402455
0
LINE
8
DEFAULT_255_1_388
10
6.201543
20
13.9049898
11
6.5756187
21
12.8198089
0
LINE
8
DEFAULT_255_1_388
10
6.5756187
20
12.8198089
11
6.9515015
21
13.9049898
0
LINE
8
DEFAULT_255_1_388
10
6.9515015
20
13.9049898
11
7.14125
21
13.9049898
0
LINE
8
DEFAULT_255_1_388
10
7.14125
20
13.9049898
11
6.6533252
21
12.5894
0
LINE
8
DEFAULT_255_1_388
10
6.6533252
20
12.5894
11
6.4997193
21
12.5894
0
LINE
8
DEFAULT_255_1_388
10
6.4997193
20
12.5894
11
6.012698
21
13.9049898
0
LINE
8
DEFAULT_255_1_388
10
6.012698
20
13.9049898
11
6.201543
21
13.9049898
0
LINE
8
DEFAULT_255_1_388
10
4.0710024
20
5.9674898
11
4.2950864
21
5.9674898
0
LINE
8
DEFAULT_255_1_388
10
4.2950864
20
5.9674898
11
4.7251831
21
4.8940553
0
LINE
8
DEFAULT_255_1_388
10
4.7251831
20
4.8940553
11
5.1552797
21
5.9674898
0
LINE
8
DEFAULT_255_1_388
10
5.1552797
20
5.9674898
11
5.3802673
21
5.9674898
0
LINE
8
DEFAULT_255_1_388
10
5.3802673
20
5.9674898
11
5.3802673
21
4.6519
0
LINE
8
DEFAULT_255_1_388
10
5.3802673
20
4.6519
11
5.2067829
21
4.6519
0
LINE
8
DEFAULT_255_1_388
10
5.2067829
20
4.6519
11
5.2067829
21
5.164221
0
LINE
8
DEFAULT_255_1_388
10
5.2067829
20
5.164221
11
5.2230471
21
5.7172025
0
LINE
8
DEFAULT_255_1_388
10
5.2230471
20
5.7172025
11
4.7911433
21
4.6519
0
LINE
8
DEFAULT_255_1_388
10
4.7911433
20
4.6519
11
4.6583193
21
4.6519
0
LINE
8
DEFAULT_255_1_388
10
4.6583193
20
4.6519
11
4.227319
21
5.7144918
0
LINE
8
DEFAULT_255_1_388
10
4.227319
20
5.7144918
11
4.2444868
21
5.164221
0
LINE
8
DEFAULT_255_1_388
10
4.2444868
20
5.164221
11
4.2444868
21
4.6519
0
LINE
8
DEFAULT_255_1_388
10
4.2444868
20
4.6519
11
4.0710024
21
4.6519
0
LINE
8
DEFAULT_255_1_388
10
4.0710024
20
4.6519
11
4.0710024
21
5.9674898
0
LINE
8
DEFAULT_255_1_388
10
5.8609636
20
5.9674898
11
5.8609636
21
4.7937596
0
LINE
8
DEFAULT_255_1_388
10
5.8609636
20
4.7937596
11
6.484423
21
4.7937596
0
LINE
8
DEFAULT_255_1_388
10
6.484423
20
4.7937596
11
6.484423
21
4.6519
0
LINE
8
DEFAULT_255_1_388
10
6.484423
20
4.6519
11
5.6865756
21
4.6519
0
LINE
8
DEFAULT_255_1_388
10
5.6865756
20
4.6519
11
5.6865756
21
5.9674898
0
LINE
8
DEFAULT_255_1_388
10
5.6865756
20
5.9674898
11
5.8609636
21
5.9674898
0
LINE
8
DEFAULT_255_1_388
10
7.4828618
20
4.6519
11
7.0166225
21
5.2636131
0
LINE
8
DEFAULT_255_1_388
10
7.0166225
20
5.2636131
11
6.855788
21
5.0964537
0
LINE
8
DEFAULT_255_1_388
10
6.855788
20
5.0964537
11
6.855788
21
4.6519
0
LINE
8
DEFAULT_255_1_388
10
6.855788
20
4.6519
11
6.6823037
21
4.6519
0
LINE
8
DEFAULT_255_1_388
10
6.6823037
20
4.6519
11
6.6823037
21
5.9674898
0
LINE
8
DEFAULT_255_1_388
10
6.6823037
20
5.9674898
11
6.855788
21
5.9674898
0
LINE
8
DEFAULT_255_1_388
10
6.855788
20
5.9674898
11
6.855788
21
5.3169234
0
LINE
8
DEFAULT_255_1_388
10
6.855788
20
5.3169234
11
7.4403942
21
5.9674898
0
LINE
8
DEFAULT_255_1_388
10
7.4403942
20
5.9674898
11
7.6500212
21
5.9674898
0
LINE
8
DEFAULT_255_1_388
10
7.6500212
20
5.9674898
11
7.1322788
21
5.3864979
0
LINE
8
DEFAULT_255_1_388
10
7.1322788
20
5.3864979
11
7.6906816
21
4.6519
0
LINE
8
DEFAULT_255_1_388
10
7.6906816
20
4.6519
11
7.4828618
21
4.6519
0
LINE
8
DEFAULT_255_1_388
10
23.1196856
20
13.367369
11
23.1196856
21
13.1505135
0
LINE
8
DEFAULT_255_1_388
10
22.2893099
20
13.1279244
11
22.2893099
21
13.3511048
0
LINE
8
DEFAULT_255_1_388
10
22.9525262
20
13.1053353
11
22.9525262
21
13.3791153
0
LINE
8
DEFAULT_255_1_388
10
22.4564693
20
13.3917652
11
22.4564693
21
13.1243102
0
ARC
8
DEFAULT_255_1_388
10
21.741919
20
13.1450118
40
1.3777776
50
353.8440855
51
0.2287917
0
ARC
8
DEFAULT_255_1_388
10
22.2638208
20
13.0867414
40
0.852639
50
344.4934746
51
353.9763743
0
ARC
8
DEFAULT_255_1_388
10
22.6005015
20
12.9910191
40
0.5026273
50
329.2803599
51
344.7473406
0
ARC
8
DEFAULT_255_1_388
10
22.7120511
20
12.9298038
40
0.3754848
50
324.9361395
51
328.6153007
0
ARC
8
DEFAULT_255_1_388
10
22.7546161
20
12.9000586
40
0.3235566
50
280.5801797
51
324.9173226
0
ARC
8
DEFAULT_255_1_388
10
22.7094789
20
13.0880236
40
0.5167077
50
269.5979457
51
281.6732777
0
ARC
8
DEFAULT_255_1_388
10
22.7013693
20
13.0745113
40
0.5032026
50
256.6228565
51
270.5105488
0
ARC
8
DEFAULT_255_1_388
10
22.6561435
20
12.9003345
40
0.3233092
50
215.8618351
51
257.2787793
0
ARC
8
DEFAULT_255_1_388
10
22.7710142
20
12.9774106
40
0.4615831
50
197.9695203
51
215.2622745
0
ARC
8
DEFAULT_255_1_388
10
23.0505818
20
13.0717641
40
0.7566307
50
187.8816486
51
198.2346584
0
ARC
8
DEFAULT_255_1_388
10
23.4959056
20
13.1360453
40
1.2065653
50
180.8977266
51
188.0054894
0
ARC
8
DEFAULT_255_1_388
10
23.800927
20
13.14754
40
1.5117443
50
180.7434591
51
181.152202
0
ARC
8
DEFAULT_255_1_388
10
23.6334266
20
13.3565371
40
1.3441277
50
173.7674302
51
180.2315596
0
ARC
8
DEFAULT_255_1_388
10
23.1252135
20
13.4139779
40
0.8326847
50
164.3058537
51
173.9000553
0
ARC
8
DEFAULT_255_1_388
10
22.7976135
20
13.5083652
40
0.4917711
50
148.7922028
51
164.5682288
0
ARC
8
DEFAULT_255_1_388
10
22.6906872
20
13.5680457
40
0.3694204
50
144.5883979
51
148.1161588
0
ARC
8
DEFAULT_255_1_388
10
22.6519618
20
13.5950667
40
0.322202
50
101.6440149
51
144.5142619
0
ARC
8
DEFAULT_255_1_388
10
22.699781
20
13.4050337
40
0.5180451
50
89.528284
51
102.5820197
0
ARC
8
DEFAULT_255_1_388
10
22.7086802
20
13.4006376
40
0.5224441
50
77.0437914
51
90.508231
0
ARC
8
DEFAULT_255_1_388
10
22.7539055
20
13.5854272
40
0.3322297
50
48.2777708
51
77.4996087
0
ARC
8
DEFAULT_255_1_388
10
22.7620795
20
13.5999557
40
0.315966
50
36.3141586
51
47.6307332
0
ARC
8
DEFAULT_255_1_388
10
22.6643518
20
13.5341159
40
0.4337313
50
18.2931065
51
35.6770203
0
ARC
8
DEFAULT_255_1_388
10
22.3782358
20
13.4359107
40
0.7362203
50
8.0246996
51
18.5605636
0
ARC
8
DEFAULT_255_1_388
10
21.9098714
20
13.3667432
40
1.2096583
50
1.127539
51
8.1718423
0
ARC
8
DEFAULT_255_1_388
10
21.5449847
20
13.3524374
40
1.5747719
50
0.5432713
51
1.38669
0
ARC
8
DEFAULT_255_1_388
10
21.7507226
20
13.3831163
40
1.2018103
50
359.8092569
51
4.9408001
0
ARC
8
DEFAULT_255_1_388
10
22.2243807
20
13.42539
40
0.7262727
50
4.8364937
51
12.2906017
0
ARC
8
DEFAULT_255_1_388
10
22.5343272
20
13.4944485
40
0.4087324
50
12.0806994
51
23.8171225
0
ARC
8
DEFAULT_255_1_388
10
22.6663668
20
13.5503508
40
0.2653719
50
24.2874621
51
31.3934353
0
ARC
8
DEFAULT_255_1_388
10
22.7254104
20
13.5889822
40
0.1948607
50
30.7407708
51
82.4658033
0
ARC
8
DEFAULT_255_1_388
10
22.7051765
20
13.4896017
40
0.2961198
50
81.1057101
51
90.2187368
0
ARC
8
DEFAULT_255_1_388
10
22.7011577
20
13.5186421
40
0.2670929
50
89.380395
51
105.6763916
0
ARC
8
DEFAULT_255_1_388
10
22.6805299
20
13.593632
40
0.1893189
50
105.7980655
51
149.7387869
0
ARC
8
DEFAULT_255_1_388
10
22.8002439
20
13.5216719
40
0.3289892
50
149.4208441
51
163.628295
0
ARC
8
DEFAULT_255_1_388
10
23.0354668
20
13.4499345
40
0.5749004
50
163.3764549
51
172.141138
0
ARC
8
DEFAULT_255_1_388
10
23.406739
20
13.3967582
40
0.9499585
50
172.0258462
51
178.0705453
0
ARC
8
DEFAULT_255_1_388
10
23.7488943
20
13.3805682
40
1.2924734
50
177.8639301
51
179.5036263
0
ARC
8
DEFAULT_255_1_388
10
23.6269961
20
13.1202151
40
1.170534
50
179.7995545
51
185.246089
0
ARC
8
DEFAULT_255_1_388
10
23.1721554
20
13.0771404
40
0.7136613
50
185.1411911
51
193.0082205
0
ARC
8
DEFAULT_255_1_388
10
22.8747815
20
13.0068441
40
0.4080987
50
192.7897338
51
205.2507384
0
ARC
8
DEFAULT_255_1_388
10
22.7570025
20
12.9542538
40
0.2791522
50
205.8001921
51
211.2545876
0
ARC
8
DEFAULT_255_1_388
10
22.6981564
20
12.9148132
40
0.2084074
50
210.3789935
51
238.4007996
0
ARC
8
DEFAULT_255_1_388
10
22.695965
20
12.9200786
40
0.2117943
50
239.6521916
51
265.9793852
0
ARC
8
DEFAULT_255_1_388
10
22.7055499
20
12.9957358
40
0.2879689
50
265.1324455
51
270.0603288
0
ARC
8
DEFAULT_255_1_388
10
22.7087876
20
12.9592418
40
0.2514919
50
269.3314378
51
287.2180039
0
ARC
8
DEFAULT_255_1_388
10
22.7242958
20
12.9026291
40
0.1928357
50
287.7957942
51
329.0808983
0
ARC
8
DEFAULT_255_1_388
10
22.6165715
20
12.9698651
40
0.319808
50
328.6635261
51
343.3325043
0
ARC
8
DEFAULT_255_1_388
10
22.3721174
20
13.0460195
40
0.5758408
50
343.0498092
51
351.9392499
0
ARC
8
DEFAULT_255_1_388
10
21.9820496
20
13.1035205
40
0.9701202
50
351.8071632
51
357.7957897
0
ARC
8
DEFAULT_255_1_388
10
21.6185973
20
13.1223724
40
1.3340376
50
357.5870923
51
359.2682493
0
LINE
8
DEFAULT_255_1_388
10
23.4386439
20
13.9049898
11
23.8127196
21
12.8198089
0
LINE
8
DEFAULT_255_1_388
10
23.8127196
20
12.8198089
11
24.1886024
21
13.9049898
0
LINE
8
DEFAULT_255_1_388
10
24.1886024
20
13.9049898
11
24.3783509
21
13.9049898
0
LINE
8
DEFAULT_255_1_388
10
24.3783509
20
13.9049898
11
23.8904261
21
12.5894
0
LINE
8
DEFAULT_255_1_388
10
23.8904261
20
12.5894
11
23.7368202
21
12.5894
0
LINE
8
DEFAULT_255_1_388
10
23.7368202
20
12.5894
11
23.2497989
21
13.9049898
0
LINE
8
DEFAULT_255_1_388
10
23.2497989
20
13.9049898
11
23.4386439
21
13.9049898
0
ENDSEC
0
EOF